  0
SECTION
  2
HEADER
  9
$ACADVER
  1
AC1009
  9
$INSBASE
 10
0.0
 20
0.0
 30
0.0
  9
$EXTMIN
 10
732682.14576300315
 20
4554929.0370555976
 30
0.0
  9
$EXTMAX
 10
733654.93646934908
 20
4555356.002357888
 30
0.0
  9
$LIMMIN
 10
0.0
 20
0.0
  9
$LIMMAX
 10
12.0
 20
9.0
  9
$ORTHOMODE
 70
     0
  9
$REGENMODE
 70
     1
  9
$FILLMODE
 70
     1
  9
$QTEXTMODE
 70
     0
  9
$MIRRTEXT
 70
     1
  9
$DRAGMODE
 70
     2
  9
$LTSCALE
 40
1.0
  9
$OSMODE
 70
   557
  9
$ATTMODE
 70
     1
  9
$TEXTSIZE
 40
8.0
  9
$TRACEWID
 40
0.05
  9
$TEXTSTYLE
  7
STANDARD
  9
$CLAYER
  8
MAG_GRID_NOS
  9
$CELTYPE
  6
BYLAYER
  9
$CECOLOR
 62
   256
  9
$DIMSCALE
 40
1.0
  9
$DIMASZ
 40
0.18
  9
$DIMEXO
 40
0.0625
  9
$DIMDLI
 40
0.38
  9
$DIMRND
 40
0.0
  9
$DIMDLE
 40
0.0
  9
$DIMEXE
 40
0.18
  9
$DIMTP
 40
0.0
  9
$DIMTM
 40
0.0
  9
$DIMTXT
 40
0.18
  9
$DIMCEN
 40
0.09
  9
$DIMTSZ
 40
0.0
  9
$DIMTOL
 70
     0
  9
$DIMLIM
 70
     0
  9
$DIMTIH
 70
     1
  9
$DIMTOH
 70
     1
  9
$DIMSE1
 70
     0
  9
$DIMSE2
 70
     0
  9
$DIMTAD
 70
     0
  9
$DIMZIN
 70
     0
  9
$DIMBLK
  1

  9
$DIMASO
 70
     1
  9
$DIMSHO
 70
     1
  9
$DIMPOST
  1

  9
$DIMAPOST
  1

  9
$DIMALT
 70
     0
  9
$DIMALTD
 70
     2
  9
$DIMALTF
 40
25.399999999999999
  9
$DIMLFAC
 40
1.0
  9
$DIMTOFL
 70
     0
  9
$DIMTVP
 40
0.0
  9
$DIMTIX
 70
     0
  9
$DIMSOXD
 70
     0
  9
$DIMSAH
 70
     0
  9
$DIMBLK1
  1

  9
$DIMBLK2
  1

  9
$DIMSTYLE
  2
STANDARD
  9
$DIMCLRD
 70
     0
  9
$DIMCLRE
 70
     0
  9
$DIMCLRT
 70
     0
  9
$DIMTFAC
 40
1.0
  9
$DIMGAP
 40
0.09
  9
$LUNITS
 70
     2
  9
$LUPREC
 70
     4
  9
$SKETCHINC
 40
0.1
  9
$FILLETRAD
 40
0.5
  9
$AUNITS
 70
     0
  9
$AUPREC
 70
     0
  9
$MENU
  1
.
  9
$ELEVATION
 40
0.0
  9
$PELEVATION
 40
0.0
  9
$THICKNESS
 40
0.0
  9
$LIMCHECK
 70
     0
  9
$BLIPMODE
 70
     0
  9
$CHAMFERA
 40
0.5
  9
$CHAMFERB
 40
0.5
  9
$SKPOLY
 70
     0
  9
$TDCREATE
 40
2454974.6445596418
  9
$TDUPDATE
 40
2456117.6057848609
  9
$TDINDWG
 40
12.5680430903
  9
$TDUSRTIMER
 40
12.5680427315
  9
$USRTIMER
 70
     1
  9
$ANGBASE
 50
0.0
  9
$ANGDIR
 70
     1
  9
$PDMODE
 70
    66
  9
$PDSIZE
 40
10.0
  9
$PLINEWID
 40
0.0
  9
$COORDS
 70
     1
  9
$SPLFRAME
 70
     0
  9
$SPLINETYPE
 70
     6
  9
$SPLINESEGS
 70
     8
  9
$ATTDIA
 70
     0
  9
$ATTREQ
 70
     1
  9
$HANDLING
 70
     1
  9
$HANDSEED
  5
7FB
  9
$SURFTAB1
 70
     6
  9
$SURFTAB2
 70
     6
  9
$SURFTYPE
 70
     6
  9
$SURFU
 70
     6
  9
$SURFV
 70
     6
  9
$UCSNAME
  2

  9
$UCSORG
 10
0.0
 20
0.0
 30
0.0
  9
$UCSXDIR
 10
1.0
 20
0.0
 30
0.0
  9
$UCSYDIR
 10
0.0
 20
1.0
 30
0.0
  9
$PUCSNAME
  2

  9
$PUCSORG
 10
0.0
 20
0.0
 30
0.0
  9
$PUCSXDIR
 10
1.0
 20
0.0
 30
0.0
  9
$PUCSYDIR
 10
0.0
 20
1.0
 30
0.0
  9
$USERI1
 70
     0
  9
$USERI2
 70
     0
  9
$USERI3
 70
     0
  9
$USERI4
 70
     0
  9
$USERI5
 70
     0
  9
$USERR1
 40
0.0
  9
$USERR2
 40
0.0
  9
$USERR3
 40
0.0
  9
$USERR4
 40
0.0
  9
$USERR5
 40
0.0
  9
$WORLDVIEW
 70
     1
  9
$SHADEDGE
 70
     3
  9
$SHADEDIF
 70
    70
  9
$TILEMODE
 70
     1
  9
$MAXACTVP
 70
    64
  9
$PLIMCHECK
 70
     0
  9
$PEXTMIN
 10
0.0
 20
0.0
 30
0.0
  9
$PEXTMAX
 10
0.0
 20
0.0
 30
0.0
  9
$PLIMMIN
 10
0.0
 20
0.0
  9
$PLIMMAX
 10
12.0
 20
9.0
  9
$UNITMODE
 70
     0
  9
$VISRETAIN
 70
     1
  9
$PLINEGEN
 70
     0
  9
$PSLTSCALE
 70
     1
  0
ENDSEC
  0
SECTION
  2
TABLES
  0
TABLE
  2
VPORT
 70
     1
  0
VPORT
  2
*ACTIVE
 70
     0
 10
0.0
 20
0.0
 11
1.0
 21
1.0
 12
733399.97677768837
 22
4555338.9542903947
 13
0.0
 23
0.0
 14
1.0
 24
1.0
 15
0.5
 25
0.5
 16
0.0
 26
0.0
 36
1.0
 17
0.0
 27
0.0
 37
0.0
 40
761.97682120481545
 41
1.136898395721925
 42
50.0
 43
0.0
 44
0.0
 50
0.0
 51
0.0
 71
     0
 72
   100
 73
     1
 74
     2
 75
     0
 76
     0
 77
     0
 78
     0
  0
ENDTAB
  0
TABLE
  2
LTYPE
 70
     1
  0
LTYPE
  2
CONTINUOUS
 70
     0
  3
Solid line
 72
    65
 73
     0
 40
0.0
  0
ENDTAB
  0
TABLE
  2
LAYER
 70
     3
  0
LAYER
  2
0
 70
     0
 62
    -1
  6
CONTINUOUS
  0
LAYER
  2
MAG_GRID_NOS
 70
     0
 62
     2
  6
CONTINUOUS
  0
LAYER
  2
MAG_GRIDS_AS_SURVEYED
 70
     0
 62
     1
  6
CONTINUOUS
  0
ENDTAB
  0
TABLE
  2
STYLE
 70
     3
  0
STYLE
  2
STANDARD
 70
     0
 40
0.0
 41
1.0
 50
0.0
 71
     0
 42
8.0
  3
txt
  4

  0
STYLE
  2
ANNOTATIVE
 70
     0
 40
0.0
 41
1.0
 50
0.0
 71
     0
 42
0.2
  3
txt
  4

  0
STYLE
  2
LEGEND
 70
     0
 40
0.0
 41
1.0
 50
0.0
 71
     0
 42
8.0
  3
txt
  4

  0
ENDTAB
  0
TABLE
  2
VIEW
 70
     0
  0
ENDTAB
  0
TABLE
  2
UCS
 70
     0
  0
ENDTAB
  0
TABLE
  2
APPID
 70
     9
  0
APPID
  2
ACAD
 70
     0
  0
APPID
  2
ACADANNOTATIVE
 70
     0
  0
APPID
  2
ADE
 70
     0
  0
APPID
  2
ADE_PROJECTION
 70
     0
  0
APPID
  2
ACMAPDMDISPLAYSTYLEREGAPP
 70
     0
  0
APPID
  2
MAPGWS
 70
     0
  0
APPID
  2
DCO15
 70
     0
  0
APPID
  2
ACAD_MLEADERVER
 70
     0
  0
APPID
  2
ACADANNOPO
 70
     0
  0
ENDTAB
  0
TABLE
  2
DIMSTYLE
 70
     2
  0
DIMSTYLE
  2
STANDARD
 70
     0
  3

  4

  5

  6

  7

 40
1.0
 41
0.18
 42
0.0625
 43
0.38
 44
0.18
 45
0.0
 46
0.0
 47
0.0
 48
0.0
140
0.18
141
0.09
142
0.0
143
25.399999999999999
144
1.0
145
0.0
146
1.0
147
0.09
 71
     0
 72
     0
 73
     1
 74
     1
 75
     0
 76
     0
 77
     0
 78
     0
170
     0
171
     2
172
     0
173
     0
174
     0
175
     0
176
     0
177
     0
178
     0
  0
DIMSTYLE
  2
ANNOTATIVE
 70
     0
  3

  4

  5

  6

  7

 40
1.0
 41
0.18
 42
0.0625
 43
0.38
 44
0.18
 45
0.0
 46
0.0
 47
0.0
 48
0.0
140
0.18
141
0.09
142
0.0
143
25.399999999999999
144
1.0
145
0.0
146
1.0
147
0.09
 71
     0
 72
     0
 73
     1
 74
     1
 75
     0
 76
     0
 77
     0
 78
     0
170
     0
171
     2
172
     0
173
     0
174
     0
175
     0
176
     0
177
     0
178
     0
  0
ENDTAB
  0
ENDSEC
  0
SECTION
  2
BLOCKS
  0
BLOCK
  8
0
  2
$MODEL_SPACE
 70
     0
 10
0.0
 20
0.0
 30
0.0
  3
$MODEL_SPACE
  1

  0
ENDBLK
  5
65A
  8
0
  0
BLOCK
 67
     1
  8
0
  2
$PAPER_SPACE
 70
     0
 10
0.0
 20
0.0
 30
0.0
  3
$PAPER_SPACE
  1

  0
ENDBLK
  5
656
 67
     1
  8
0
  0
ENDSEC
  0
SECTION
  2
ENTITIES
  0
TEXT
  5
73
  8
MAG_GRID_NOS
 10
733552.64531452768
 20
4555005.8600582862
 30
0.0
 40
8.0
  1
SECTOR A141
  0
TEXT
  5
74
  8
MAG_GRID_NOS
 10
733414.86347403296
 20
4555253.0433682166
 30
0.0
 40
8.0
  1
SECTORS A131 & A133
  0
TEXT
  5
75
  8
MAG_GRID_NOS
 10
733184.26016842749
 20
4555062.400527494
 30
0.0
 40
8.0
  1
SECTOR A127
  0
TEXT
  5
76
  8
MAG_GRID_NOS
 10
733097.24006959121
 20
4555311.0335860737
 30
0.0
 40
8.0
  1
SECTORS A116 & A117
  0
TEXT
  5
77
  8
MAG_GRID_NOS
 10
732702.02372669685
 20
4555348.002357888
 30
0.0
 40
8.0
  1
SECTORS A214 & A215
  0
POLYLINE
  5
78
  8
MAG_GRIDS_AS_SURVEYED
 66
     1
 10
0.0
 20
0.0
 30
0.0
 70
     1
 40
0.5
 41
0.5
  0
VERTEX
  5
698
  8
MAG_GRIDS_AS_SURVEYED
 10
732732.62998248148
 20
4555169.0181754241
 30
0.0
  0
VERTEX
  5
699
  8
MAG_GRIDS_AS_SURVEYED
 10
732761.60548905923
 20
4555161.2451439304
 30
0.0
  0
VERTEX
  5
69A
  8
MAG_GRIDS_AS_SURVEYED
 10
732769.37852055172
 20
4555190.2206505081
 30
0.0
  0
VERTEX
  5
69B
  8
MAG_GRIDS_AS_SURVEYED
 10
732740.40301397489
 20
4555197.9936820008
 30
0.0
  0
SEQEND
  5
69C
  8
MAG_GRIDS_AS_SURVEYED
  0
POLYLINE
  5
7A
  8
MAG_GRIDS_AS_SURVEYED
 66
     1
 10
0.0
 20
0.0
 30
0.0
 70
     1
 40
0.5
 41
0.5
  0
VERTEX
  5
69D
  8
MAG_GRIDS_AS_SURVEYED
 10
732703.654475905
 20
4555176.7912069177
 30
0.0
  0
VERTEX
  5
69E
  8
MAG_GRIDS_AS_SURVEYED
 10
732732.62998248264
 20
4555169.018175425
 30
0.0
  0
VERTEX
  5
69F
  8
MAG_GRIDS_AS_SURVEYED
 10
732740.40301397489
 20
4555197.9936820026
 30
0.0
  0
VERTEX
  5
6A0
  8
MAG_GRIDS_AS_SURVEYED
 10
732711.42750739807
 20
4555205.7667134972
 30
0.0
  0
SEQEND
  5
6A1
  8
MAG_GRIDS_AS_SURVEYED
  0
POLYLINE
  5
7B
  8
MAG_GRIDS_AS_SURVEYED
 66
     1
 10
0.0
 20
0.0
 30
0.0
 70
     1
 40
0.5
 41
0.5
  0
VERTEX
  5
6A2
  8
MAG_GRIDS_AS_SURVEYED
 10
732792.69761503057
 20
4555277.1471702429
 30
0.0
  0
VERTEX
  5
6A3
  8
MAG_GRIDS_AS_SURVEYED
 10
732821.67312160786
 20
4555269.3741387492
 30
0.0
  0
VERTEX
  5
6A4
  8
MAG_GRIDS_AS_SURVEYED
 10
732829.44615310046
 20
4555298.3496453278
 30
0.0
  0
VERTEX
  5
6A5
  8
MAG_GRIDS_AS_SURVEYED
 10
732800.47064652375
 20
4555306.1226768168
 30
0.0
  0
SEQEND
  5
6A6
  8
MAG_GRIDS_AS_SURVEYED
  0
POLYLINE
  5
7C
  8
MAG_GRIDS_AS_SURVEYED
 66
     1
 10
0.0
 20
0.0
 30
0.0
 70
     1
 40
0.5
 41
0.5
  0
VERTEX
  5
6A7
  8
MAG_GRIDS_AS_SURVEYED
 10
732784.92458353727
 20
4555248.1716636652
 30
0.0
  0
VERTEX
  5
6A8
  8
MAG_GRIDS_AS_SURVEYED
 10
732813.90009011456
 20
4555240.3986321716
 30
0.0
  0
VERTEX
  5
6A9
  8
MAG_GRIDS_AS_SURVEYED
 10
732821.67312160728
 20
4555269.3741387492
 30
0.0
  0
VERTEX
  5
6AA
  8
MAG_GRIDS_AS_SURVEYED
 10
732792.69761503057
 20
4555277.1471702429
 30
0.0
  0
SEQEND
  5
6AB
  8
MAG_GRIDS_AS_SURVEYED
  0
POLYLINE
  5
7D
  8
MAG_GRIDS_AS_SURVEYED
 66
     1
 10
0.0
 20
0.0
 30
0.0
 70
     1
 40
0.5
 41
0.5
  0
VERTEX
  5
6AC
  8
MAG_GRIDS_AS_SURVEYED
 10
732777.15155204455
 20
4555219.1961570876
 30
0.0
  0
VERTEX
  5
6AD
  8
MAG_GRIDS_AS_SURVEYED
 10
732806.12705862185
 20
4555211.4231255939
 30
0.0
  0
VERTEX
  5
6AE
  8
MAG_GRIDS_AS_SURVEYED
 10
732813.90009011456
 20
4555240.3986321716
 30
0.0
  0
VERTEX
  5
6AF
  8
MAG_GRIDS_AS_SURVEYED
 10
732784.92458353797
 20
4555248.1716636652
 30
0.0
  0
SEQEND
  5
6B0
  8
MAG_GRIDS_AS_SURVEYED
  0
POLYLINE
  5
7E
  8
MAG_GRIDS_AS_SURVEYED
 66
     1
 10
0.0
 20
0.0
 30
0.0
 70
     1
 40
0.5
 41
0.5
  0
VERTEX
  5
6B1
  8
MAG_GRIDS_AS_SURVEYED
 10
732769.37852055172
 20
4555190.2206505081
 30
0.0
  0
VERTEX
  5
6B2
  8
MAG_GRIDS_AS_SURVEYED
 10
732798.35402712855
 20
4555182.4476190163
 30
0.0
  0
VERTEX
  5
6B3
  8
MAG_GRIDS_AS_SURVEYED
 10
732806.12705862138
 20
4555211.4231255921
 30
0.0
  0
VERTEX
  5
6B4
  8
MAG_GRIDS_AS_SURVEYED
 10
732777.15155204455
 20
4555219.1961570876
 30
0.0
  0
SEQEND
  5
6B5
  8
MAG_GRIDS_AS_SURVEYED
  0
POLYLINE
  5
7F
  8
MAG_GRIDS_AS_SURVEYED
 66
     1
 10
0.0
 20
0.0
 30
0.0
 70
     1
 40
0.5
 41
0.5
  0
VERTEX
  5
6B6
  8
MAG_GRIDS_AS_SURVEYED
 10
732763.72210845246
 20
4555284.9202017337
 30
0.0
  0
VERTEX
  5
6B7
  8
MAG_GRIDS_AS_SURVEYED
 10
732792.69761503011
 20
4555277.1471702429
 30
0.0
  0
VERTEX
  5
6B8
  8
MAG_GRIDS_AS_SURVEYED
 10
732800.47064652224
 20
4555306.1226768168
 30
0.0
  0
VERTEX
  5
6B9
  8
MAG_GRIDS_AS_SURVEYED
 10
732771.49513994565
 20
4555313.8957083123
 30
0.0
  0
SEQEND
  5
6BA
  8
MAG_GRIDS_AS_SURVEYED
  0
POLYLINE
  5
80
  8
MAG_GRIDS_AS_SURVEYED
 66
     1
 10
0.0
 20
0.0
 30
0.0
 70
     1
 40
0.5
 41
0.5
  0
VERTEX
  5
6BB
  8
MAG_GRIDS_AS_SURVEYED
 10
732734.74660187564
 20
4555292.6932332283
 30
0.0
  0
VERTEX
  5
6BC
  8
MAG_GRIDS_AS_SURVEYED
 10
732763.72210845293
 20
4555284.9202017356
 30
0.0
  0
VERTEX
  5
6BD
  8
MAG_GRIDS_AS_SURVEYED
 10
732771.49513994495
 20
4555313.8957083141
 30
0.0
  0
VERTEX
  5
6BE
  8
MAG_GRIDS_AS_SURVEYED
 10
732742.51963336812
 20
4555321.668739805
 30
0.0
  0
SEQEND
  5
6BF
  8
MAG_GRIDS_AS_SURVEYED
  0
POLYLINE
  5
81
  8
MAG_GRIDS_AS_SURVEYED
 66
     1
 10
0.0
 20
0.0
 30
0.0
 70
     1
 40
0.5
 41
0.5
  0
VERTEX
  5
6C0
  8
MAG_GRIDS_AS_SURVEYED
 10
732705.77109529742
 20
4555300.466264721
 30
0.0
  0
VERTEX
  5
6C1
  8
MAG_GRIDS_AS_SURVEYED
 10
732734.74660187494
 20
4555292.6932332283
 30
0.0
  0
VERTEX
  5
6C2
  8
MAG_GRIDS_AS_SURVEYED
 10
732742.51963336684
 20
4555321.668739805
 30
0.0
  0
VERTEX
  5
6C3
  8
MAG_GRIDS_AS_SURVEYED
 10
732713.54412679048
 20
4555329.4417712977
 30
0.0
  0
SEQEND
  5
6C4
  8
MAG_GRIDS_AS_SURVEYED
  0
POLYLINE
  5
82
  8
MAG_GRIDS_AS_SURVEYED
 66
     1
 10
0.0
 20
0.0
 30
0.0
 70
     1
 40
0.5
 41
0.5
  0
VERTEX
  5
6C5
  8
MAG_GRIDS_AS_SURVEYED
 10
733094.48455510719
 20
4555126.5112550678
 30
0.0
  0
VERTEX
  5
6C6
  8
MAG_GRIDS_AS_SURVEYED
 10
733119.12129736145
 20
4555143.6294013197
 30
0.0
  0
VERTEX
  5
6C7
  8
MAG_GRIDS_AS_SURVEYED
 10
733102.00315110979
 20
4555168.2661435734
 30
0.0
  0
VERTEX
  5
6C8
  8
MAG_GRIDS_AS_SURVEYED
 10
733077.36640885554
 20
4555151.1479973216
 30
0.0
  0
SEQEND
  5
6C9
  8
MAG_GRIDS_AS_SURVEYED
  0
POLYLINE
  5
83
  8
MAG_GRIDS_AS_SURVEYED
 66
     1
 10
0.0
 20
0.0
 30
0.0
 70
     1
 40
0.5
 41
0.5
  0
VERTEX
  5
6CA
  8
MAG_GRIDS_AS_SURVEYED
 10
733077.36640885624
 20
4555151.1479973216
 30
0.0
  0
VERTEX
  5
6CB
  8
MAG_GRIDS_AS_SURVEYED
 10
733102.00315111061
 20
4555168.2661435734
 30
0.0
  0
VERTEX
  5
6CC
  8
MAG_GRIDS_AS_SURVEYED
 10
733084.88500485895
 20
4555192.9028858272
 30
0.0
  0
VERTEX
  5
6CD
  8
MAG_GRIDS_AS_SURVEYED
 10
733060.2482626047
 20
4555175.7847395753
 30
0.0
  0
SEQEND
  5
6CE
  8
MAG_GRIDS_AS_SURVEYED
  0
POLYLINE
  5
84
  8
MAG_GRIDS_AS_SURVEYED
 66
     1
 10
0.0
 20
0.0
 30
0.0
 70
     1
 40
0.5
 41
0.5
  0
VERTEX
  5
6CF
  8
MAG_GRIDS_AS_SURVEYED
 10
733119.12129736145
 20
4555143.6294013197
 30
0.0
  0
VERTEX
  5
6D0
  8
MAG_GRIDS_AS_SURVEYED
 10
733143.75803961547
 20
4555160.7475475715
 30
0.0
  0
VERTEX
  5
6D1
  8
MAG_GRIDS_AS_SURVEYED
 10
733126.63989336404
 20
4555185.3842898225
 30
0.0
  0
VERTEX
  5
6D2
  8
MAG_GRIDS_AS_SURVEYED
 10
733102.00315110979
 20
4555168.2661435734
 30
0.0
  0
SEQEND
  5
6D3
  8
MAG_GRIDS_AS_SURVEYED
  0
POLYLINE
  5
85
  8
MAG_GRIDS_AS_SURVEYED
 66
     1
 10
0.0
 20
0.0
 30
0.0
 70
     1
 40
0.5
 41
0.5
  0
VERTEX
  5
6D4
  8
MAG_GRIDS_AS_SURVEYED
 10
733102.00315111014
 20
4555168.2661435734
 30
0.0
  0
VERTEX
  5
6D5
  8
MAG_GRIDS_AS_SURVEYED
 10
733126.63989336404
 20
4555185.3842898225
 30
0.0
  0
VERTEX
  5
6D6
  8
MAG_GRIDS_AS_SURVEYED
 10
733109.52174711262
 20
4555210.0210320782
 30
0.0
  0
VERTEX
  5
6D7
  8
MAG_GRIDS_AS_SURVEYED
 10
733084.8850048586
 20
4555192.9028858254
 30
0.0
  0
SEQEND
  5
6D8
  8
MAG_GRIDS_AS_SURVEYED
  0
POLYLINE
  5
86
  8
MAG_GRIDS_AS_SURVEYED
 66
     1
 10
0.0
 20
0.0
 30
0.0
 70
     1
 40
0.5
 41
0.5
  0
VERTEX
  5
6D9
  8
MAG_GRIDS_AS_SURVEYED
 10
733126.63989336404
 20
4555185.3842898253
 30
0.0
  0
VERTEX
  5
6DA
  8
MAG_GRIDS_AS_SURVEYED
 10
733151.27663561818
 20
4555202.5024360772
 30
0.0
  0
VERTEX
  5
6DB
  8
MAG_GRIDS_AS_SURVEYED
 10
733134.15848936664
 20
4555227.1391783291
 30
0.0
  0
VERTEX
  5
6DC
  8
MAG_GRIDS_AS_SURVEYED
 10
733109.52174711262
 20
4555210.0210320782
 30
0.0
  0
SEQEND
  5
6DD
  8
MAG_GRIDS_AS_SURVEYED
  0
POLYLINE
  5
87
  8
MAG_GRIDS_AS_SURVEYED
 66
     1
 10
0.0
 20
0.0
 30
0.0
 70
     1
 40
0.5
 41
0.5
  0
VERTEX
  5
6DE
  8
MAG_GRIDS_AS_SURVEYED
 10
733151.27663561876
 20
4555202.5024360772
 30
0.0
  0
VERTEX
  5
6DF
  8
MAG_GRIDS_AS_SURVEYED
 10
733175.91337787325
 20
4555219.6205823272
 30
0.0
  0
VERTEX
  5
6E0
  8
MAG_GRIDS_AS_SURVEYED
 10
733158.79523162113
 20
4555244.257324582
 30
0.0
  0
VERTEX
  5
6E1
  8
MAG_GRIDS_AS_SURVEYED
 10
733134.15848936699
 20
4555227.1391783291
 30
0.0
  0
SEQEND
  5
6E2
  8
MAG_GRIDS_AS_SURVEYED
  0
POLYLINE
  5
88
  8
MAG_GRIDS_AS_SURVEYED
 66
     1
 10
0.0
 20
0.0
 30
0.0
 70
     1
 40
0.5
 41
0.5
  0
VERTEX
  5
6E3
  8
MAG_GRIDS_AS_SURVEYED
 10
733356.68598932296
 20
4555269.189084827
 30
0.0
  0
VERTEX
  5
6E4
  8
MAG_GRIDS_AS_SURVEYED
 10
733381.41493493877
 20
4555286.1737617059
 30
0.0
  0
VERTEX
  5
6E5
  8
MAG_GRIDS_AS_SURVEYED
 10
733364.43025805871
 20
4555310.9027073234
 30
0.0
  0
VERTEX
  5
6E6
  8
MAG_GRIDS_AS_SURVEYED
 10
733339.70131244301
 20
4555293.9180304436
 30
0.0
  0
SEQEND
  5
6E7
  8
MAG_GRIDS_AS_SURVEYED
  0
POLYLINE
  5
89
  8
MAG_GRIDS_AS_SURVEYED
 66
     1
 10
0.0
 20
0.0
 30
0.0
 70
     1
 40
0.5
 41
0.5
  0
VERTEX
  5
6E8
  8
MAG_GRIDS_AS_SURVEYED
 10
733331.95704370725
 20
4555252.2044079471
 30
0.0
  0
VERTEX
  5
6E9
  8
MAG_GRIDS_AS_SURVEYED
 10
733356.68598932296
 20
4555269.189084827
 30
0.0
  0
VERTEX
  5
6EA
  8
MAG_GRIDS_AS_SURVEYED
 10
733339.70131244301
 20
4555293.9180304436
 30
0.0
  0
VERTEX
  5
6EB
  8
MAG_GRIDS_AS_SURVEYED
 10
733314.97236682696
 20
4555276.9333535638
 30
0.0
  0
SEQEND
  5
6EC
  8
MAG_GRIDS_AS_SURVEYED
  0
POLYLINE
  5
8A
  8
MAG_GRIDS_AS_SURVEYED
 66
     1
 10
0.0
 20
0.0
 30
0.0
 70
     1
 40
0.5
 41
0.5
  0
VERTEX
  5
6ED
  8
MAG_GRIDS_AS_SURVEYED
 10
733373.67066620337
 20
4555244.4601392113
 30
0.0
  0
VERTEX
  5
6EE
  8
MAG_GRIDS_AS_SURVEYED
 10
733398.39961181907
 20
4555261.444816092
 30
0.0
  0
VERTEX
  5
6EF
  8
MAG_GRIDS_AS_SURVEYED
 10
733381.41493493877
 20
4555286.1737617059
 30
0.0
  0
VERTEX
  5
6F0
  8
MAG_GRIDS_AS_SURVEYED
 10
733356.68598932296
 20
4555269.189084827
 30
0.0
  0
SEQEND
  5
6F1
  8
MAG_GRIDS_AS_SURVEYED
  0
POLYLINE
  5
8B
  8
MAG_GRIDS_AS_SURVEYED
 66
     1
 10
0.0
 20
0.0
 30
0.0
 70
     1
 40
0.5
 41
0.5
  0
VERTEX
  5
6F2
  8
MAG_GRIDS_AS_SURVEYED
 10
733348.94172058755
 20
4555227.4754623324
 30
0.0
  0
VERTEX
  5
6F3
  8
MAG_GRIDS_AS_SURVEYED
 10
733373.67066620337
 20
4555244.4601392131
 30
0.0
  0
VERTEX
  5
6F4
  8
MAG_GRIDS_AS_SURVEYED
 10
733356.68598932296
 20
4555269.189084827
 30
0.0
  0
VERTEX
  5
6F5
  8
MAG_GRIDS_AS_SURVEYED
 10
733331.95704370725
 20
4555252.2044079481
 30
0.0
  0
SEQEND
  5
6F6
  8
MAG_GRIDS_AS_SURVEYED
  0
POLYLINE
  5
8C
  8
MAG_GRIDS_AS_SURVEYED
 66
     1
 10
0.0
 20
0.0
 30
0.0
 70
     1
 40
0.5
 41
0.5
  0
VERTEX
  5
6F7
  8
MAG_GRIDS_AS_SURVEYED
 10
733365.9263974675
 20
4555202.7465167148
 30
0.0
  0
VERTEX
  5
6F8
  8
MAG_GRIDS_AS_SURVEYED
 10
733390.6553430832
 20
4555219.7311935974
 30
0.0
  0
VERTEX
  5
6F9
  8
MAG_GRIDS_AS_SURVEYED
 10
733373.67066620302
 20
4555244.4601392131
 30
0.0
  0
VERTEX
  5
6FA
  8
MAG_GRIDS_AS_SURVEYED
 10
733348.9417205872
 20
4555227.4754623324
 30
0.0
  0
SEQEND
  5
6FB
  8
MAG_GRIDS_AS_SURVEYED
  0
POLYLINE
  5
8D
  8
MAG_GRIDS_AS_SURVEYED
 66
     1
 10
0.0
 20
0.0
 30
0.0
 70
     1
 40
0.5
 41
0.5
  0
VERTEX
  5
6FC
  8
MAG_GRIDS_AS_SURVEYED
 10
733390.65534308355
 20
4555219.7311935937
 30
0.0
  0
VERTEX
  5
6FD
  8
MAG_GRIDS_AS_SURVEYED
 10
733415.38428869937
 20
4555236.7158704763
 30
0.0
  0
VERTEX
  5
6FE
  8
MAG_GRIDS_AS_SURVEYED
 10
733398.39961181907
 20
4555261.444816092
 30
0.0
  0
VERTEX
  5
6FF
  8
MAG_GRIDS_AS_SURVEYED
 10
733373.67066620337
 20
4555244.4601392131
 30
0.0
  0
SEQEND
  5
700
  8
MAG_GRIDS_AS_SURVEYED
  0
POLYLINE
  5
8E
  8
MAG_GRIDS_AS_SURVEYED
 66
     1
 10
0.0
 20
0.0
 30
0.0
 70
     1
 40
0.5
 41
0.5
  0
VERTEX
  5
701
  8
MAG_GRIDS_AS_SURVEYED
 10
733358.18212873221
 20
4555161.0328942183
 30
0.0
  0
VERTEX
  5
702
  8
MAG_GRIDS_AS_SURVEYED
 10
733382.91107434814
 20
4555178.0175710972
 30
0.0
  0
VERTEX
  5
703
  8
MAG_GRIDS_AS_SURVEYED
 10
733365.92639746785
 20
4555202.7465167129
 30
0.0
  0
VERTEX
  5
704
  8
MAG_GRIDS_AS_SURVEYED
 10
733341.19745185191
 20
4555185.761839834
 30
0.0
  0
SEQEND
  5
705
  8
MAG_GRIDS_AS_SURVEYED
  0
POLYLINE
  5
8F
  8
MAG_GRIDS_AS_SURVEYED
 66
     1
 10
0.0
 20
0.0
 30
0.0
 70
     1
 40
0.5
 41
0.5
  0
VERTEX
  5
706
  8
MAG_GRIDS_AS_SURVEYED
 10
733226.24573226098
 20
4555121.7161242384
 30
0.0
  0
VERTEX
  5
707
  8
MAG_GRIDS_AS_SURVEYED
 10
733250.05091883265
 20
4555139.9729884882
 30
0.0
  0
VERTEX
  5
708
  8
MAG_GRIDS_AS_SURVEYED
 10
733231.79405458225
 20
4555163.7781750606
 30
0.0
  0
VERTEX
  5
709
  8
MAG_GRIDS_AS_SURVEYED
 10
733207.98886801023
 20
4555145.5213108109
 30
0.0
  0
SEQEND
  5
70A
  8
MAG_GRIDS_AS_SURVEYED
  0
POLYLINE
  5
90
  8
MAG_GRIDS_AS_SURVEYED
 66
     1
 10
0.0
 20
0.0
 30
0.0
 70
     1
 40
0.5
 41
0.5
  0
VERTEX
  5
70B
  8
MAG_GRIDS_AS_SURVEYED
 10
733626.47180383455
 20
4554939.7475903546
 30
0.0
  0
VERTEX
  5
70C
  8
MAG_GRIDS_AS_SURVEYED
 10
733654.6153611514
 20
4554950.1370167872
 30
0.0
  0
VERTEX
  5
70D
  8
MAG_GRIDS_AS_SURVEYED
 10
733644.22593472118
 20
4554978.280574102
 30
0.0
  0
VERTEX
  5
70E
  8
MAG_GRIDS_AS_SURVEYED
 10
733616.08237740456
 20
4554967.8911476722
 30
0.0
  0
SEQEND
  5
70F
  8
MAG_GRIDS_AS_SURVEYED
  0
POLYLINE
  5
91
  8
MAG_GRIDS_AS_SURVEYED
 66
     1
 10
0.0
 20
0.0
 30
0.0
 70
     1
 40
0.5
 41
0.5
  0
VERTEX
  5
710
  8
MAG_GRIDS_AS_SURVEYED
 10
733598.32824616262
 20
4554929.3581637954
 30
0.0
  0
VERTEX
  5
711
  8
MAG_GRIDS_AS_SURVEYED
 10
733626.47180347936
 20
4554939.7475902252
 30
0.0
  0
VERTEX
  5
712
  8
MAG_GRIDS_AS_SURVEYED
 10
733616.08237704902
 20
4554967.8911475409
 30
0.0
  0
VERTEX
  5
713
  8
MAG_GRIDS_AS_SURVEYED
 10
733587.9388197324
 20
4554957.5017211121
 30
0.0
  0
SEQEND
  5
714
  8
MAG_GRIDS_AS_SURVEYED
  0
POLYLINE
  5
92
  8
MAG_GRIDS_AS_SURVEYED
 66
     1
 10
0.0
 20
0.0
 30
0.0
 70
     1
 40
0.5
 41
0.5
  0
VERTEX
  5
715
  8
MAG_GRIDS_AS_SURVEYED
 10
733587.9388197324
 20
4554957.5017211121
 30
0.0
  0
VERTEX
  5
716
  8
MAG_GRIDS_AS_SURVEYED
 10
733616.08237704902
 20
4554967.8911475409
 30
0.0
  0
VERTEX
  5
717
  8
MAG_GRIDS_AS_SURVEYED
 10
733605.69295061892
 20
4554996.0347048556
 30
0.0
  0
VERTEX
  5
718
  8
MAG_GRIDS_AS_SURVEYED
 10
733577.54939330241
 20
4554985.6452784296
 30
0.0
  0
SEQEND
  5
719
  8
MAG_GRIDS_AS_SURVEYED
  0
POLYLINE
  5
93
  8
MAG_GRIDS_AS_SURVEYED
 66
     1
 10
0.0
 20
0.0
 30
0.0
 70
     1
 40
0.5
 41
0.5
  0
VERTEX
  5
71A
  8
MAG_GRIDS_AS_SURVEYED
 10
733220.69740993914
 20
4555079.6540734153
 30
0.0
  0
VERTEX
  5
71B
  8
MAG_GRIDS_AS_SURVEYED
 10
733244.50259651104
 20
4555097.910937665
 30
0.0
  0
VERTEX
  5
71C
  8
MAG_GRIDS_AS_SURVEYED
 10
733226.24573226052
 20
4555121.7161242384
 30
0.0
  0
VERTEX
  5
71D
  8
MAG_GRIDS_AS_SURVEYED
 10
733202.44054568862
 20
4555103.4592599878
 30
0.0
  0
SEQEND
  5
71E
  8
MAG_GRIDS_AS_SURVEYED
  0
POLYLINE
  5
94
  8
MAG_GRIDS_AS_SURVEYED
 66
     1
 10
0.0
 20
0.0
 30
0.0
 70
     1
 40
0.5
 41
0.5
  0
VERTEX
  5
71F
  8
MAG_GRIDS_AS_SURVEYED
 10
733231.79405458225
 20
4555163.7781750634
 30
0.0
  0
VERTEX
  5
720
  8
MAG_GRIDS_AS_SURVEYED
 10
733255.59924115415
 20
4555182.0350393131
 30
0.0
  0
VERTEX
  5
721
  8
MAG_GRIDS_AS_SURVEYED
 10
733237.34237690375
 20
4555205.8402258866
 30
0.0
  0
VERTEX
  5
722
  8
MAG_GRIDS_AS_SURVEYED
 10
733213.53719033184
 20
4555187.583361635
 30
0.0
  0
SEQEND
  5
723
  8
MAG_GRIDS_AS_SURVEYED
  0
POLYLINE
  5
95
  8
MAG_GRIDS_AS_SURVEYED
 66
     1
 10
0.0
 20
0.0
 30
0.0
 70
     1
 40
0.5
 41
0.5
  0
VERTEX
  5
724
  8
MAG_GRIDS_AS_SURVEYED
 10
733244.50259651104
 20
4555097.910937666
 30
0.0
  0
VERTEX
  5
725
  8
MAG_GRIDS_AS_SURVEYED
 10
733268.30778308294
 20
4555116.1678019166
 30
0.0
  0
VERTEX
  5
726
  8
MAG_GRIDS_AS_SURVEYED
 10
733250.0509188323
 20
4555139.9729884891
 30
0.0
  0
VERTEX
  5
727
  8
MAG_GRIDS_AS_SURVEYED
 10
733226.24573226029
 20
4555121.7161242384
 30
0.0
  0
SEQEND
  5
728
  8
MAG_GRIDS_AS_SURVEYED
  0
POLYLINE
  5
96
  8
MAG_GRIDS_AS_SURVEYED
 66
     1
 10
0.0
 20
0.0
 30
0.0
 70
     1
 40
0.5
 41
0.5
  0
VERTEX
  5
729
  8
MAG_GRIDS_AS_SURVEYED
 10
733268.30778308376
 20
4555116.1678019166
 30
0.0
  0
VERTEX
  5
72A
  8
MAG_GRIDS_AS_SURVEYED
 10
733292.11296965566
 20
4555134.4246661654
 30
0.0
  0
VERTEX
  5
72B
  8
MAG_GRIDS_AS_SURVEYED
 10
733273.85610540526
 20
4555158.2298527379
 30
0.0
  0
VERTEX
  5
72C
  8
MAG_GRIDS_AS_SURVEYED
 10
733250.05091883312
 20
4555139.9729884882
 30
0.0
  0
SEQEND
  5
72D
  8
MAG_GRIDS_AS_SURVEYED
  0
POLYLINE
  5
97
  8
MAG_GRIDS_AS_SURVEYED
 66
     1
 10
0.0
 20
0.0
 30
0.0
 70
     1
 40
0.5
 41
0.5
  0
VERTEX
  5
72E
  8
MAG_GRIDS_AS_SURVEYED
 10
733250.050918833
 20
4555139.9729884891
 30
0.0
  0
VERTEX
  5
72F
  8
MAG_GRIDS_AS_SURVEYED
 10
733273.85610540456
 20
4555158.2298527379
 30
0.0
  0
VERTEX
  5
730
  8
MAG_GRIDS_AS_SURVEYED
 10
733255.59924115415
 20
4555182.0350393131
 30
0.0
  0
VERTEX
  5
731
  8
MAG_GRIDS_AS_SURVEYED
 10
733231.79405458225
 20
4555163.7781750606
 30
0.0
  0
SEQEND
  5
732
  8
MAG_GRIDS_AS_SURVEYED
  0
POLYLINE
  5
98
  8
MAG_GRIDS_AS_SURVEYED
 66
     1
 10
0.0
 20
0.0
 30
0.0
 70
     1
 40
0.5
 41
0.5
  0
VERTEX
  5
733
  8
MAG_GRIDS_AS_SURVEYED
 10
733183.4319738755
 20
4555261.375470832
 30
0.0
  0
VERTEX
  5
734
  8
MAG_GRIDS_AS_SURVEYED
 10
733208.06871612975
 20
4555278.4936170839
 30
0.0
  0
VERTEX
  5
735
  8
MAG_GRIDS_AS_SURVEYED
 10
733190.95056987857
 20
4555303.1303593358
 30
0.0
  0
VERTEX
  5
736
  8
MAG_GRIDS_AS_SURVEYED
 10
733166.3138276242
 20
4555286.0122130876
 30
0.0
  0
SEQEND
  5
737
  8
MAG_GRIDS_AS_SURVEYED
  0
POLYLINE
  5
99
  8
MAG_GRIDS_AS_SURVEYED
 66
     1
 10
0.0
 20
0.0
 30
0.0
 70
     1
 40
0.5
 41
0.5
  0
VERTEX
  5
738
  8
MAG_GRIDS_AS_SURVEYED
 10
733200.55012012704
 20
4555236.7387285791
 30
0.0
  0
VERTEX
  5
739
  8
MAG_GRIDS_AS_SURVEYED
 10
733225.18686238129
 20
4555253.856874831
 30
0.0
  0
VERTEX
  5
73A
  8
MAG_GRIDS_AS_SURVEYED
 10
733208.06871612975
 20
4555278.4936170839
 30
0.0
  0
VERTEX
  5
73B
  8
MAG_GRIDS_AS_SURVEYED
 10
733183.4319738755
 20
4555261.375470832
 30
0.0
  0
SEQEND
  5
73C
  8
MAG_GRIDS_AS_SURVEYED
  0
POLYLINE
  5
9A
  8
MAG_GRIDS_AS_SURVEYED
 66
     1
 10
0.0
 20
0.0
 30
0.0
 70
     1
 40
0.5
 41
0.5
  0
VERTEX
  5
73D
  8
MAG_GRIDS_AS_SURVEYED
 10
733217.66826637846
 20
4555212.1019863263
 30
0.0
  0
VERTEX
  5
73E
  8
MAG_GRIDS_AS_SURVEYED
 10
733242.30500863283
 20
4555229.2201325763
 30
0.0
  0
VERTEX
  5
73F
  8
MAG_GRIDS_AS_SURVEYED
 10
733225.18686238129
 20
4555253.856874831
 30
0.0
  0
VERTEX
  5
740
  8
MAG_GRIDS_AS_SURVEYED
 10
733200.55012012704
 20
4555236.7387285791
 30
0.0
  0
SEQEND
  5
741
  8
MAG_GRIDS_AS_SURVEYED
  0
POLYLINE
  5
9B
  8
MAG_GRIDS_AS_SURVEYED
 66
     1
 10
0.0
 20
0.0
 30
0.0
 70
     1
 40
0.5
 41
0.5
  0
VERTEX
  5
742
  8
MAG_GRIDS_AS_SURVEYED
 10
733475.57872748584
 20
4555096.0864655171
 30
0.0
  0
VERTEX
  5
743
  8
MAG_GRIDS_AS_SURVEYED
 10
733500.3076731012
 20
4555113.0711423969
 30
0.0
  0
VERTEX
  5
744
  8
MAG_GRIDS_AS_SURVEYED
 10
733483.32299622102
 20
4555137.8000880117
 30
0.0
  0
VERTEX
  5
745
  8
MAG_GRIDS_AS_SURVEYED
 10
733458.59405060555
 20
4555120.8154111318
 30
0.0
  0
SEQEND
  5
746
  8
MAG_GRIDS_AS_SURVEYED
  0
POLYLINE
  5
9C
  8
MAG_GRIDS_AS_SURVEYED
 66
     1
 10
0.0
 20
0.0
 30
0.0
 70
     1
 40
0.5
 41
0.5
  0
VERTEX
  5
747
  8
MAG_GRIDS_AS_SURVEYED
 10
733450.84978186991
 20
4555079.1017886363
 30
0.0
  0
VERTEX
  5
748
  8
MAG_GRIDS_AS_SURVEYED
 10
733475.57872748584
 20
4555096.0864655171
 30
0.0
  0
VERTEX
  5
749
  8
MAG_GRIDS_AS_SURVEYED
 10
733458.59405060555
 20
4555120.8154111318
 30
0.0
  0
VERTEX
  5
74A
  8
MAG_GRIDS_AS_SURVEYED
 10
733433.86510498938
 20
4555103.8307342511
 30
0.0
  0
SEQEND
  5
74B
  8
MAG_GRIDS_AS_SURVEYED
  0
POLYLINE
  5
9D
  8
MAG_GRIDS_AS_SURVEYED
 66
     1
 10
0.0
 20
0.0
 30
0.0
 70
     1
 40
0.5
 41
0.5
  0
VERTEX
  5
74C
  8
MAG_GRIDS_AS_SURVEYED
 10
733426.12083625374
 20
4555062.1171117574
 30
0.0
  0
VERTEX
  5
74D
  8
MAG_GRIDS_AS_SURVEYED
 10
733450.84978186991
 20
4555079.1017886363
 30
0.0
  0
VERTEX
  5
74E
  8
MAG_GRIDS_AS_SURVEYED
 10
733433.86510498938
 20
4555103.8307342511
 30
0.0
  0
VERTEX
  5
74F
  8
MAG_GRIDS_AS_SURVEYED
 10
733409.13615937345
 20
4555086.8460573722
 30
0.0
  0
SEQEND
  5
750
  8
MAG_GRIDS_AS_SURVEYED
  0
POLYLINE
  5
9E
  8
MAG_GRIDS_AS_SURVEYED
 66
     1
 10
0.0
 20
0.0
 30
0.0
 70
     1
 40
0.5
 41
0.5
  0
VERTEX
  5
751
  8
MAG_GRIDS_AS_SURVEYED
 10
733407.64001996408
 20
4555195.002247978
 30
0.0
  0
VERTEX
  5
752
  8
MAG_GRIDS_AS_SURVEYED
 10
733432.36896557955
 20
4555211.9869248578
 30
0.0
  0
VERTEX
  5
753
  8
MAG_GRIDS_AS_SURVEYED
 10
733415.38428869937
 20
4555236.7158704763
 30
0.0
  0
VERTEX
  5
754
  8
MAG_GRIDS_AS_SURVEYED
 10
733390.65534308355
 20
4555219.7311935974
 30
0.0
  0
SEQEND
  5
755
  8
MAG_GRIDS_AS_SURVEYED
  0
POLYLINE
  5
9F
  8
MAG_GRIDS_AS_SURVEYED
 66
     1
 10
0.0
 20
0.0
 30
0.0
 70
     1
 40
0.5
 41
0.5
  0
VERTEX
  5
756
  8
MAG_GRIDS_AS_SURVEYED
 10
733424.62469684437
 20
4555170.2733023642
 30
0.0
  0
VERTEX
  5
757
  8
MAG_GRIDS_AS_SURVEYED
 10
733449.35364245984
 20
4555187.257979244
 30
0.0
  0
VERTEX
  5
758
  8
MAG_GRIDS_AS_SURVEYED
 10
733432.36896557955
 20
4555211.9869248578
 30
0.0
  0
VERTEX
  5
759
  8
MAG_GRIDS_AS_SURVEYED
 10
733407.64001996408
 20
4555195.002247978
 30
0.0
  0
SEQEND
  5
75A
  8
MAG_GRIDS_AS_SURVEYED
  0
POLYLINE
  5
A0
  8
MAG_GRIDS_AS_SURVEYED
 66
     1
 10
0.0
 20
0.0
 30
0.0
 70
     1
 40
0.5
 41
0.5
  0
VERTEX
  5
75B
  8
MAG_GRIDS_AS_SURVEYED
 10
733441.60937372455
 20
4555145.5443567485
 30
0.0
  0
VERTEX
  5
75C
  8
MAG_GRIDS_AS_SURVEYED
 10
733466.33831934014
 20
4555162.5290336283
 30
0.0
  0
VERTEX
  5
75D
  8
MAG_GRIDS_AS_SURVEYED
 10
733449.35364245984
 20
4555187.257979244
 30
0.0
  0
VERTEX
  5
75E
  8
MAG_GRIDS_AS_SURVEYED
 10
733424.62469684437
 20
4555170.2733023642
 30
0.0
  0
SEQEND
  5
75F
  8
MAG_GRIDS_AS_SURVEYED
  0
POLYLINE
  5
A1
  8
MAG_GRIDS_AS_SURVEYED
 66
     1
 10
0.0
 20
0.0
 30
0.0
 70
     1
 40
0.5
 41
0.5
  0
VERTEX
  5
760
  8
MAG_GRIDS_AS_SURVEYED
 10
733458.59405060555
 20
4555120.8154111318
 30
0.0
  0
VERTEX
  5
761
  8
MAG_GRIDS_AS_SURVEYED
 10
733483.32299622102
 20
4555137.8000880117
 30
0.0
  0
VERTEX
  5
762
  8
MAG_GRIDS_AS_SURVEYED
 10
733466.33831934014
 20
4555162.5290336283
 30
0.0
  0
VERTEX
  5
763
  8
MAG_GRIDS_AS_SURVEYED
 10
733441.60937372455
 20
4555145.5443567485
 30
0.0
  0
SEQEND
  5
764
  8
MAG_GRIDS_AS_SURVEYED
  0
POLYLINE
  5
A2
  8
MAG_GRIDS_AS_SURVEYED
 66
     1
 10
0.0
 20
0.0
 30
0.0
 70
     1
 40
0.5
 41
0.5
  0
VERTEX
  5
765
  8
MAG_GRIDS_AS_SURVEYED
 10
733382.91107434814
 20
4555178.0175710972
 30
0.0
  0
VERTEX
  5
766
  8
MAG_GRIDS_AS_SURVEYED
 10
733407.64001996408
 20
4555195.002247978
 30
0.0
  0
VERTEX
  5
767
  8
MAG_GRIDS_AS_SURVEYED
 10
733390.65534308355
 20
4555219.7311935974
 30
0.0
  0
VERTEX
  5
768
  8
MAG_GRIDS_AS_SURVEYED
 10
733365.92639746785
 20
4555202.7465167148
 30
0.0
  0
SEQEND
  5
769
  8
MAG_GRIDS_AS_SURVEYED
  0
POLYLINE
  5
A3
  8
MAG_GRIDS_AS_SURVEYED
 66
     1
 10
0.0
 20
0.0
 30
0.0
 70
     1
 40
0.5
 41
0.5
  0
VERTEX
  5
76A
  8
MAG_GRIDS_AS_SURVEYED
 10
733399.89575122844
 20
4555153.2886254853
 30
0.0
  0
VERTEX
  5
76B
  8
MAG_GRIDS_AS_SURVEYED
 10
733424.62469684437
 20
4555170.2733023642
 30
0.0
  0
VERTEX
  5
76C
  8
MAG_GRIDS_AS_SURVEYED
 10
733407.64001996408
 20
4555195.002247978
 30
0.0
  0
VERTEX
  5
76D
  8
MAG_GRIDS_AS_SURVEYED
 10
733382.91107434814
 20
4555178.0175710972
 30
0.0
  0
SEQEND
  5
76E
  8
MAG_GRIDS_AS_SURVEYED
  0
POLYLINE
  5
A4
  8
MAG_GRIDS_AS_SURVEYED
 66
     1
 10
0.0
 20
0.0
 30
0.0
 70
     1
 40
0.5
 41
0.5
  0
VERTEX
  5
76F
  8
MAG_GRIDS_AS_SURVEYED
 10
733416.88042810862
 20
4555128.5596798677
 30
0.0
  0
VERTEX
  5
770
  8
MAG_GRIDS_AS_SURVEYED
 10
733441.60937372455
 20
4555145.5443567485
 30
0.0
  0
VERTEX
  5
771
  8
MAG_GRIDS_AS_SURVEYED
 10
733424.62469684437
 20
4555170.2733023642
 30
0.0
  0
VERTEX
  5
772
  8
MAG_GRIDS_AS_SURVEYED
 10
733399.89575122844
 20
4555153.2886254853
 30
0.0
  0
SEQEND
  5
773
  8
MAG_GRIDS_AS_SURVEYED
  0
POLYLINE
  5
A5
  8
MAG_GRIDS_AS_SURVEYED
 66
     1
 10
0.0
 20
0.0
 30
0.0
 70
     1
 40
0.5
 41
0.5
  0
VERTEX
  5
774
  8
MAG_GRIDS_AS_SURVEYED
 10
733433.86510498938
 20
4555103.8307342511
 30
0.0
  0
VERTEX
  5
775
  8
MAG_GRIDS_AS_SURVEYED
 10
733458.59405060555
 20
4555120.8154111318
 30
0.0
  0
VERTEX
  5
776
  8
MAG_GRIDS_AS_SURVEYED
 10
733441.60937372455
 20
4555145.5443567485
 30
0.0
  0
VERTEX
  5
777
  8
MAG_GRIDS_AS_SURVEYED
 10
733416.88042810862
 20
4555128.5596798677
 30
0.0
  0
SEQEND
  5
778
  8
MAG_GRIDS_AS_SURVEYED
  0
POLYLINE
  5
A6
  8
MAG_GRIDS_AS_SURVEYED
 66
     1
 10
0.0
 20
0.0
 30
0.0
 70
     1
 40
0.5
 41
0.5
  0
VERTEX
  5
779
  8
MAG_GRIDS_AS_SURVEYED
 10
733375.16680561216
 20
4555136.3039486036
 30
0.0
  0
VERTEX
  5
77A
  8
MAG_GRIDS_AS_SURVEYED
 10
733399.89575122844
 20
4555153.2886254853
 30
0.0
  0
VERTEX
  5
77B
  8
MAG_GRIDS_AS_SURVEYED
 10
733382.91107434814
 20
4555178.0175710972
 30
0.0
  0
VERTEX
  5
77C
  8
MAG_GRIDS_AS_SURVEYED
 10
733358.18212873221
 20
4555161.0328942183
 30
0.0
  0
SEQEND
  5
77D
  8
MAG_GRIDS_AS_SURVEYED
  0
POLYLINE
  5
A7
  8
MAG_GRIDS_AS_SURVEYED
 66
     1
 10
0.0
 20
0.0
 30
0.0
 70
     1
 40
0.5
 41
0.5
  0
VERTEX
  5
77E
  8
MAG_GRIDS_AS_SURVEYED
 10
733392.15148249245
 20
4555111.5750029879
 30
0.0
  0
VERTEX
  5
77F
  8
MAG_GRIDS_AS_SURVEYED
 10
733416.88042810862
 20
4555128.5596798677
 30
0.0
  0
VERTEX
  5
780
  8
MAG_GRIDS_AS_SURVEYED
 10
733399.89575122844
 20
4555153.2886254853
 30
0.0
  0
VERTEX
  5
781
  8
MAG_GRIDS_AS_SURVEYED
 10
733375.16680561216
 20
4555136.3039486036
 30
0.0
  0
SEQEND
  5
782
  8
MAG_GRIDS_AS_SURVEYED
  0
POLYLINE
  5
A8
  8
MAG_GRIDS_AS_SURVEYED
 66
     1
 10
0.0
 20
0.0
 30
0.0
 70
     1
 40
0.5
 41
0.5
  0
VERTEX
  5
783
  8
MAG_GRIDS_AS_SURVEYED
 10
733409.13615937345
 20
4555086.8460573722
 30
0.0
  0
VERTEX
  5
784
  8
MAG_GRIDS_AS_SURVEYED
 10
733433.86510498938
 20
4555103.8307342511
 30
0.0
  0
VERTEX
  5
785
  8
MAG_GRIDS_AS_SURVEYED
 10
733416.88042810862
 20
4555128.5596798677
 30
0.0
  0
VERTEX
  5
786
  8
MAG_GRIDS_AS_SURVEYED
 10
733392.15148249245
 20
4555111.5750029879
 30
0.0
  0
SEQEND
  5
787
  8
MAG_GRIDS_AS_SURVEYED
  0
POLYLINE
  5
A9
  8
MAG_GRIDS_AS_SURVEYED
 66
     1
 10
0.0
 20
0.0
 30
0.0
 70
     1
 40
0.5
 41
0.5
  0
VERTEX
  5
788
  8
MAG_GRIDS_AS_SURVEYED
 10
732748.17604546749
 20
4555226.9691885803
 30
0.0
  0
VERTEX
  5
789
  8
MAG_GRIDS_AS_SURVEYED
 10
732777.15155204455
 20
4555219.1961570876
 30
0.0
  0
VERTEX
  5
78A
  8
MAG_GRIDS_AS_SURVEYED
 10
732784.92458353727
 20
4555248.1716636652
 30
0.0
  0
VERTEX
  5
78B
  8
MAG_GRIDS_AS_SURVEYED
 10
732755.94907695986
 20
4555255.944695157
 30
0.0
  0
SEQEND
  5
78C
  8
MAG_GRIDS_AS_SURVEYED
  0
POLYLINE
  5
AA
  8
MAG_GRIDS_AS_SURVEYED
 66
     1
 10
0.0
 20
0.0
 30
0.0
 70
     1
 40
0.5
 41
0.5
  0
VERTEX
  5
78D
  8
MAG_GRIDS_AS_SURVEYED
 10
732740.40301397489
 20
4555197.9936820026
 30
0.0
  0
VERTEX
  5
78E
  8
MAG_GRIDS_AS_SURVEYED
 10
732769.37852055207
 20
4555190.220650509
 30
0.0
  0
VERTEX
  5
78F
  8
MAG_GRIDS_AS_SURVEYED
 10
732777.15155204455
 20
4555219.1961570876
 30
0.0
  0
VERTEX
  5
790
  8
MAG_GRIDS_AS_SURVEYED
 10
732748.17604546749
 20
4555226.9691885803
 30
0.0
  0
SEQEND
  5
791
  8
MAG_GRIDS_AS_SURVEYED
  0
POLYLINE
  5
AB
  8
MAG_GRIDS_AS_SURVEYED
 66
     1
 10
0.0
 20
0.0
 30
0.0
 70
     1
 40
0.5
 41
0.5
  0
VERTEX
  5
792
  8
MAG_GRIDS_AS_SURVEYED
 10
732719.20053888985
 20
4555234.742220073
 30
0.0
  0
VERTEX
  5
793
  8
MAG_GRIDS_AS_SURVEYED
 10
732748.17604546749
 20
4555226.9691885803
 30
0.0
  0
VERTEX
  5
794
  8
MAG_GRIDS_AS_SURVEYED
 10
732755.94907695986
 20
4555255.944695157
 30
0.0
  0
VERTEX
  5
795
  8
MAG_GRIDS_AS_SURVEYED
 10
732726.97357038269
 20
4555263.7177266497
 30
0.0
  0
SEQEND
  5
796
  8
MAG_GRIDS_AS_SURVEYED
  0
POLYLINE
  5
AC
  8
MAG_GRIDS_AS_SURVEYED
 66
     1
 10
0.0
 20
0.0
 30
0.0
 70
     1
 40
0.5
 41
0.5
  0
VERTEX
  5
797
  8
MAG_GRIDS_AS_SURVEYED
 10
732711.42750739702
 20
4555205.7667134972
 30
0.0
  0
VERTEX
  5
798
  8
MAG_GRIDS_AS_SURVEYED
 10
732740.40301397489
 20
4555197.9936820026
 30
0.0
  0
VERTEX
  5
799
  8
MAG_GRIDS_AS_SURVEYED
 10
732748.17604546749
 20
4555226.9691885803
 30
0.0
  0
VERTEX
  5
79A
  8
MAG_GRIDS_AS_SURVEYED
 10
732719.20053888985
 20
4555234.742220073
 30
0.0
  0
SEQEND
  5
79B
  8
MAG_GRIDS_AS_SURVEYED
  0
POLYLINE
  5
AD
  8
MAG_GRIDS_AS_SURVEYED
 66
     1
 10
0.0
 20
0.0
 30
0.0
 70
     1
 40
0.5
 41
0.5
  0
VERTEX
  5
79C
  8
MAG_GRIDS_AS_SURVEYED
 10
732690.22503231314
 20
4555242.5152515657
 30
0.0
  0
VERTEX
  5
79D
  8
MAG_GRIDS_AS_SURVEYED
 10
732719.20053888985
 20
4555234.742220073
 30
0.0
  0
VERTEX
  5
79E
  8
MAG_GRIDS_AS_SURVEYED
 10
732726.97357038269
 20
4555263.7177266497
 30
0.0
  0
VERTEX
  5
79F
  8
MAG_GRIDS_AS_SURVEYED
 10
732697.99806380505
 20
4555271.4907581434
 30
0.0
  0
SEQEND
  5
7A0
  8
MAG_GRIDS_AS_SURVEYED
  0
POLYLINE
  5
AE
  8
MAG_GRIDS_AS_SURVEYED
 66
     1
 10
0.0
 20
0.0
 30
0.0
 70
     1
 40
0.5
 41
0.5
  0
VERTEX
  5
7A1
  8
MAG_GRIDS_AS_SURVEYED
 10
732682.45200082031
 20
4555213.539744989
 30
0.0
  0
VERTEX
  5
7A2
  8
MAG_GRIDS_AS_SURVEYED
 10
732711.42750739702
 20
4555205.7667134972
 30
0.0
  0
VERTEX
  5
7A3
  8
MAG_GRIDS_AS_SURVEYED
 10
732719.20053888985
 20
4555234.742220073
 30
0.0
  0
VERTEX
  5
7A4
  8
MAG_GRIDS_AS_SURVEYED
 10
732690.22503231314
 20
4555242.5152515657
 30
0.0
  0
SEQEND
  5
7A5
  8
MAG_GRIDS_AS_SURVEYED
  0
POLYLINE
  5
AF
  8
MAG_GRIDS_AS_SURVEYED
 66
     1
 10
0.0
 20
0.0
 30
0.0
 70
     1
 40
0.5
 41
0.5
  0
VERTEX
  5
7A6
  8
MAG_GRIDS_AS_SURVEYED
 10
732755.94907695986
 20
4555255.944695157
 30
0.0
  0
VERTEX
  5
7A7
  8
MAG_GRIDS_AS_SURVEYED
 10
732784.92458353727
 20
4555248.1716636652
 30
0.0
  0
VERTEX
  5
7A8
  8
MAG_GRIDS_AS_SURVEYED
 10
732792.69761503011
 20
4555277.1471702429
 30
0.0
  0
VERTEX
  5
7A9
  8
MAG_GRIDS_AS_SURVEYED
 10
732763.72210845293
 20
4555284.9202017356
 30
0.0
  0
SEQEND
  5
7AA
  8
MAG_GRIDS_AS_SURVEYED
  0
POLYLINE
  5
B0
  8
MAG_GRIDS_AS_SURVEYED
 66
     1
 10
0.0
 20
0.0
 30
0.0
 70
     1
 40
0.5
 41
0.5
  0
VERTEX
  5
7AB
  8
MAG_GRIDS_AS_SURVEYED
 10
732726.97357038269
 20
4555263.7177266497
 30
0.0
  0
VERTEX
  5
7AC
  8
MAG_GRIDS_AS_SURVEYED
 10
732755.94907695986
 20
4555255.944695157
 30
0.0
  0
VERTEX
  5
7AD
  8
MAG_GRIDS_AS_SURVEYED
 10
732763.72210845293
 20
4555284.9202017356
 30
0.0
  0
VERTEX
  5
7AE
  8
MAG_GRIDS_AS_SURVEYED
 10
732734.74660187494
 20
4555292.6932332283
 30
0.0
  0
SEQEND
  5
7AF
  8
MAG_GRIDS_AS_SURVEYED
  0
POLYLINE
  5
B1
  8
MAG_GRIDS_AS_SURVEYED
 66
     1
 10
0.0
 20
0.0
 30
0.0
 70
     1
 40
0.5
 41
0.5
  0
VERTEX
  5
7B0
  8
MAG_GRIDS_AS_SURVEYED
 10
732697.99806380505
 20
4555271.4907581434
 30
0.0
  0
VERTEX
  5
7B1
  8
MAG_GRIDS_AS_SURVEYED
 10
732726.97357038269
 20
4555263.7177266497
 30
0.0
  0
VERTEX
  5
7B2
  8
MAG_GRIDS_AS_SURVEYED
 10
732734.74660187494
 20
4555292.6932332283
 30
0.0
  0
VERTEX
  5
7B3
  8
MAG_GRIDS_AS_SURVEYED
 10
732705.77109529811
 20
4555300.466264721
 30
0.0
  0
SEQEND
  5
7B4
  8
MAG_GRIDS_AS_SURVEYED
  0
POLYLINE
  5
B2
  8
MAG_GRIDS_AS_SURVEYED
 66
     1
 10
0.0
 20
0.0
 30
0.0
 70
     1
 40
0.5
 41
0.5
  0
VERTEX
  5
7B5
  8
MAG_GRIDS_AS_SURVEYED
 10
733175.91337787325
 20
4555219.6205823272
 30
0.0
  0
VERTEX
  5
7B6
  8
MAG_GRIDS_AS_SURVEYED
 10
733200.55012012704
 20
4555236.7387285791
 30
0.0
  0
VERTEX
  5
7B7
  8
MAG_GRIDS_AS_SURVEYED
 10
733183.4319738755
 20
4555261.375470832
 30
0.0
  0
VERTEX
  5
7B8
  8
MAG_GRIDS_AS_SURVEYED
 10
733158.79523162113
 20
4555244.257324581
 30
0.0
  0
SEQEND
  5
7B9
  8
MAG_GRIDS_AS_SURVEYED
  0
POLYLINE
  5
B3
  8
MAG_GRIDS_AS_SURVEYED
 66
     1
 10
0.0
 20
0.0
 30
0.0
 70
     1
 40
0.5
 41
0.5
  0
VERTEX
  5
7BA
  8
MAG_GRIDS_AS_SURVEYED
 10
733193.03152412432
 20
4555194.9838400707
 30
0.0
  0
VERTEX
  5
7BB
  8
MAG_GRIDS_AS_SURVEYED
 10
733217.66826637869
 20
4555212.1019863263
 30
0.0
  0
VERTEX
  5
7BC
  8
MAG_GRIDS_AS_SURVEYED
 10
733200.55012012704
 20
4555236.7387285791
 30
0.0
  0
VERTEX
  5
7BD
  8
MAG_GRIDS_AS_SURVEYED
 10
733175.91337787325
 20
4555219.6205823272
 30
0.0
  0
SEQEND
  5
7BE
  8
MAG_GRIDS_AS_SURVEYED
  0
POLYLINE
  5
B4
  8
MAG_GRIDS_AS_SURVEYED
 66
     1
 10
0.0
 20
0.0
 30
0.0
 70
     1
 40
0.5
 41
0.5
  0
VERTEX
  5
7BF
  8
MAG_GRIDS_AS_SURVEYED
 10
733168.39478186995
 20
4555177.8656938206
 30
0.0
  0
VERTEX
  5
7C0
  8
MAG_GRIDS_AS_SURVEYED
 10
733193.03152412432
 20
4555194.9838400707
 30
0.0
  0
VERTEX
  5
7C1
  8
MAG_GRIDS_AS_SURVEYED
 10
733175.91337787325
 20
4555219.6205823272
 30
0.0
  0
VERTEX
  5
7C2
  8
MAG_GRIDS_AS_SURVEYED
 10
733151.2766356183
 20
4555202.5024360772
 30
0.0
  0
SEQEND
  5
7C3
  8
MAG_GRIDS_AS_SURVEYED
  0
POLYLINE
  5
B5
  8
MAG_GRIDS_AS_SURVEYED
 66
     1
 10
0.0
 20
0.0
 30
0.0
 70
     1
 40
0.5
 41
0.5
  0
VERTEX
  5
7C4
  8
MAG_GRIDS_AS_SURVEYED
 10
733143.75803961547
 20
4555160.7475475715
 30
0.0
  0
VERTEX
  5
7C5
  8
MAG_GRIDS_AS_SURVEYED
 10
733168.39478186995
 20
4555177.8656938206
 30
0.0
  0
VERTEX
  5
7C6
  8
MAG_GRIDS_AS_SURVEYED
 10
733151.2766356183
 20
4555202.5024360772
 30
0.0
  0
VERTEX
  5
7C7
  8
MAG_GRIDS_AS_SURVEYED
 10
733126.63989336404
 20
4555185.3842898225
 30
0.0
  0
SEQEND
  5
7C8
  8
MAG_GRIDS_AS_SURVEYED
  0
ENDSEC
  0
EOF
