  0
SECTION
  2
HEADER
  9
$ACADVER
  1
AC1009
  9
$INSBASE
 10
0.0
 20
0.0
 30
0.0
  9
$EXTMIN
 10
737171.48859081045
 20
4560199.4195625251
 30
0.0
  9
$EXTMAX
 10
737463.73115946935
 20
4560447.437310148
 30
0.0
  9
$LIMMIN
 10
0.0
 20
0.0
  9
$LIMMAX
 10
12.0
 20
9.0
  9
$ORTHOMODE
 70
     0
  9
$REGENMODE
 70
     1
  9
$FILLMODE
 70
     1
  9
$QTEXTMODE
 70
     0
  9
$MIRRTEXT
 70
     1
  9
$DRAGMODE
 70
     2
  9
$LTSCALE
 40
1.0
  9
$OSMODE
 70
   557
  9
$ATTMODE
 70
     1
  9
$TEXTSIZE
 40
8.0
  9
$TRACEWID
 40
0.05
  9
$TEXTSTYLE
  7
STANDARD
  9
$CLAYER
  8
MAG_GRID_NOS
  9
$CELTYPE
  6
BYLAYER
  9
$CECOLOR
 62
   256
  9
$DIMSCALE
 40
1.0
  9
$DIMASZ
 40
0.18
  9
$DIMEXO
 40
0.0625
  9
$DIMDLI
 40
0.38
  9
$DIMRND
 40
0.0
  9
$DIMDLE
 40
0.0
  9
$DIMEXE
 40
0.18
  9
$DIMTP
 40
0.0
  9
$DIMTM
 40
0.0
  9
$DIMTXT
 40
0.18
  9
$DIMCEN
 40
0.09
  9
$DIMTSZ
 40
0.0
  9
$DIMTOL
 70
     0
  9
$DIMLIM
 70
     0
  9
$DIMTIH
 70
     1
  9
$DIMTOH
 70
     1
  9
$DIMSE1
 70
     0
  9
$DIMSE2
 70
     0
  9
$DIMTAD
 70
     0
  9
$DIMZIN
 70
     0
  9
$DIMBLK
  1

  9
$DIMASO
 70
     1
  9
$DIMSHO
 70
     1
  9
$DIMPOST
  1

  9
$DIMAPOST
  1

  9
$DIMALT
 70
     0
  9
$DIMALTD
 70
     2
  9
$DIMALTF
 40
25.399999999999999
  9
$DIMLFAC
 40
1.0
  9
$DIMTOFL
 70
     0
  9
$DIMTVP
 40
0.0
  9
$DIMTIX
 70
     0
  9
$DIMSOXD
 70
     0
  9
$DIMSAH
 70
     0
  9
$DIMBLK1
  1

  9
$DIMBLK2
  1

  9
$DIMSTYLE
  2
STANDARD
  9
$DIMCLRD
 70
     0
  9
$DIMCLRE
 70
     0
  9
$DIMCLRT
 70
     0
  9
$DIMTFAC
 40
1.0
  9
$DIMGAP
 40
0.09
  9
$LUNITS
 70
     2
  9
$LUPREC
 70
     4
  9
$SKETCHINC
 40
0.1
  9
$FILLETRAD
 40
0.5
  9
$AUNITS
 70
     0
  9
$AUPREC
 70
     0
  9
$MENU
  1
.
  9
$ELEVATION
 40
0.0
  9
$PELEVATION
 40
0.0
  9
$THICKNESS
 40
0.0
  9
$LIMCHECK
 70
     0
  9
$BLIPMODE
 70
     0
  9
$CHAMFERA
 40
0.5
  9
$CHAMFERB
 40
0.5
  9
$SKPOLY
 70
     0
  9
$TDCREATE
 40
2454974.6445596418
  9
$TDUPDATE
 40
2456117.6053967709
  9
$TDINDWG
 40
12.5597464815
  9
$TDUSRTIMER
 40
12.5597462963
  9
$USRTIMER
 70
     1
  9
$ANGBASE
 50
0.0
  9
$ANGDIR
 70
     1
  9
$PDMODE
 70
    66
  9
$PDSIZE
 40
10.0
  9
$PLINEWID
 40
0.0
  9
$COORDS
 70
     1
  9
$SPLFRAME
 70
     0
  9
$SPLINETYPE
 70
     6
  9
$SPLINESEGS
 70
     8
  9
$ATTDIA
 70
     0
  9
$ATTREQ
 70
     1
  9
$HANDLING
 70
     1
  9
$HANDSEED
  5
4BF
  9
$SURFTAB1
 70
     6
  9
$SURFTAB2
 70
     6
  9
$SURFTYPE
 70
     6
  9
$SURFU
 70
     6
  9
$SURFV
 70
     6
  9
$UCSNAME
  2

  9
$UCSORG
 10
0.0
 20
0.0
 30
0.0
  9
$UCSXDIR
 10
1.0
 20
0.0
 30
0.0
  9
$UCSYDIR
 10
0.0
 20
1.0
 30
0.0
  9
$PUCSNAME
  2

  9
$PUCSORG
 10
0.0
 20
0.0
 30
0.0
  9
$PUCSXDIR
 10
1.0
 20
0.0
 30
0.0
  9
$PUCSYDIR
 10
0.0
 20
1.0
 30
0.0
  9
$USERI1
 70
     0
  9
$USERI2
 70
     0
  9
$USERI3
 70
     0
  9
$USERI4
 70
     0
  9
$USERI5
 70
     0
  9
$USERR1
 40
0.0
  9
$USERR2
 40
0.0
  9
$USERR3
 40
0.0
  9
$USERR4
 40
0.0
  9
$USERR5
 40
0.0
  9
$WORLDVIEW
 70
     1
  9
$SHADEDGE
 70
     3
  9
$SHADEDIF
 70
    70
  9
$TILEMODE
 70
     1
  9
$MAXACTVP
 70
    64
  9
$PLIMCHECK
 70
     0
  9
$PEXTMIN
 10
0.0
 20
0.0
 30
0.0
  9
$PEXTMAX
 10
0.0
 20
0.0
 30
0.0
  9
$PLIMMIN
 10
0.0
 20
0.0
  9
$PLIMMAX
 10
12.0
 20
9.0
  9
$UNITMODE
 70
     0
  9
$VISRETAIN
 70
     1
  9
$PLINEGEN
 70
     0
  9
$PSLTSCALE
 70
     1
  0
ENDSEC
  0
SECTION
  2
TABLES
  0
TABLE
  2
VPORT
 70
     1
  0
VPORT
  2
*ACTIVE
 70
     0
 10
0.0
 20
0.0
 11
1.0
 21
1.0
 12
737296.03175918618
 22
4560412.8459512629
 13
0.0
 23
0.0
 14
1.0
 24
1.0
 15
0.5
 25
0.5
 16
0.0
 26
0.0
 36
1.0
 17
0.0
 27
0.0
 37
0.0
 40
688.36335041557948
 41
1.136898395721925
 42
50.0
 43
0.0
 44
0.0
 50
0.0
 51
0.0
 71
     0
 72
   100
 73
     1
 74
     2
 75
     0
 76
     0
 77
     0
 78
     0
  0
ENDTAB
  0
TABLE
  2
LTYPE
 70
     1
  0
LTYPE
  2
CONTINUOUS
 70
     0
  3
Solid line
 72
    65
 73
     0
 40
0.0
  0
ENDTAB
  0
TABLE
  2
LAYER
 70
     3
  0
LAYER
  2
0
 70
     0
 62
    -1
  6
CONTINUOUS
  0
LAYER
  2
MAG_GRID_NOS
 70
     0
 62
     2
  6
CONTINUOUS
  0
LAYER
  2
MAG_GRIDS_AS_SURVEYED
 70
     0
 62
     1
  6
CONTINUOUS
  0
ENDTAB
  0
TABLE
  2
STYLE
 70
     3
  0
STYLE
  2
STANDARD
 70
     0
 40
0.0
 41
1.0
 50
0.0
 71
     0
 42
8.0
  3
txt
  4

  0
STYLE
  2
ANNOTATIVE
 70
     0
 40
0.0
 41
1.0
 50
0.0
 71
     0
 42
0.2
  3
txt
  4

  0
STYLE
  2
LEGEND
 70
     0
 40
0.0
 41
1.0
 50
0.0
 71
     0
 42
8.0
  3
txt
  4

  0
ENDTAB
  0
TABLE
  2
VIEW
 70
     0
  0
ENDTAB
  0
TABLE
  2
UCS
 70
     0
  0
ENDTAB
  0
TABLE
  2
APPID
 70
     9
  0
APPID
  2
ACAD
 70
     0
  0
APPID
  2
ACADANNOTATIVE
 70
     0
  0
APPID
  2
ADE
 70
     0
  0
APPID
  2
ADE_PROJECTION
 70
     0
  0
APPID
  2
ACMAPDMDISPLAYSTYLEREGAPP
 70
     0
  0
APPID
  2
MAPGWS
 70
     0
  0
APPID
  2
DCO15
 70
     0
  0
APPID
  2
ACADANNOPO
 70
     0
  0
APPID
  2
ACAD_MLEADERVER
 70
     0
  0
ENDTAB
  0
TABLE
  2
DIMSTYLE
 70
     2
  0
DIMSTYLE
  2
STANDARD
 70
     0
  3

  4

  5

  6

  7

 40
1.0
 41
0.18
 42
0.0625
 43
0.38
 44
0.18
 45
0.0
 46
0.0
 47
0.0
 48
0.0
140
0.18
141
0.09
142
0.0
143
25.399999999999999
144
1.0
145
0.0
146
1.0
147
0.09
 71
     0
 72
     0
 73
     1
 74
     1
 75
     0
 76
     0
 77
     0
 78
     0
170
     0
171
     2
172
     0
173
     0
174
     0
175
     0
176
     0
177
     0
178
     0
  0
DIMSTYLE
  2
ANNOTATIVE
 70
     0
  3

  4

  5

  6

  7

 40
1.0
 41
0.18
 42
0.0625
 43
0.38
 44
0.18
 45
0.0
 46
0.0
 47
0.0
 48
0.0
140
0.18
141
0.09
142
0.0
143
25.399999999999999
144
1.0
145
0.0
146
1.0
147
0.09
 71
     0
 72
     0
 73
     1
 74
     1
 75
     0
 76
     0
 77
     0
 78
     0
170
     0
171
     2
172
     0
173
     0
174
     0
175
     0
176
     0
177
     0
178
     0
  0
ENDTAB
  0
ENDSEC
  0
SECTION
  2
BLOCKS
  0
BLOCK
  8
0
  2
$MODEL_SPACE
 70
     0
 10
0.0
 20
0.0
 30
0.0
  3
$MODEL_SPACE
  1

  0
ENDBLK
  5
3CE
  8
0
  0
BLOCK
 67
     1
  8
0
  2
$PAPER_SPACE
 70
     0
 10
0.0
 20
0.0
 30
0.0
  3
$PAPER_SPACE
  1

  0
ENDBLK
  5
3CA
 67
     1
  8
0
  0
ENDSEC
  0
SECTION
  2
ENTITIES
  0
TEXT
  5
73
  8
MAG_GRID_NOS
 10
737171.48859081045
 20
4560372.4505727058
 30
0.0
 40
8.0
  1
SECTOR B285-M3
  0
TEXT
  5
74
  8
MAG_GRID_NOS
 10
737325.6196820006
 20
4560439.437310149
 30
0.0
 40
8.0
  1
SECTOR B285-M2
  0
TEXT
  5
75
  8
MAG_GRID_NOS
 10
737357.0644928026
 20
4560292.0664907889
 30
0.0
 40
8.0
  1
SECTOR B285-M1
  0
POLYLINE
  5
76
  8
MAG_GRIDS_AS_SURVEYED
 66
     1
 10
0.0
 20
0.0
 30
0.0
 40
0.5
 41
0.5
  0
VERTEX
  5
40C
  8
MAG_GRIDS_AS_SURVEYED
 10
737340.26649656193
 20
4560430.1084324541
 30
0.0
  0
VERTEX
  5
40D
  8
MAG_GRIDS_AS_SURVEYED
 10
737334.94299243193
 20
4560432.8992929794
 30
0.0
  0
SEQEND
  5
40E
  8
MAG_GRIDS_AS_SURVEYED
  0
POLYLINE
  5
78
  8
MAG_GRIDS_AS_SURVEYED
 66
     1
 10
0.0
 20
0.0
 30
0.0
 40
0.5
 41
0.5
  0
VERTEX
  5
40F
  8
MAG_GRIDS_AS_SURVEYED
 10
737326.5962701625
 20
4560403.4040337484
 30
0.0
  0
VERTEX
  5
410
  8
MAG_GRIDS_AS_SURVEYED
 10
737321.27276603202
 20
4560406.1948942738
 30
0.0
  0
SEQEND
  5
411
  8
MAG_GRIDS_AS_SURVEYED
  0
POLYLINE
  5
79
  8
MAG_GRIDS_AS_SURVEYED
 66
     1
 10
0.0
 20
0.0
 30
0.0
 40
0.5
 41
0.5
  0
VERTEX
  5
412
  8
MAG_GRIDS_AS_SURVEYED
 10
737312.92604376422
 20
4560376.6996350419
 30
0.0
  0
VERTEX
  5
413
  8
MAG_GRIDS_AS_SURVEYED
 10
737307.60253963363
 20
4560379.4904955672
 30
0.0
  0
SEQEND
  5
414
  8
MAG_GRIDS_AS_SURVEYED
  0
POLYLINE
  5
7A
  8
MAG_GRIDS_AS_SURVEYED
 66
     1
 10
0.0
 20
0.0
 30
0.0
 40
0.5
 41
0.5
  0
VERTEX
  5
415
  8
MAG_GRIDS_AS_SURVEYED
 10
737299.25581736525
 20
4560349.9952363344
 30
0.0
  0
VERTEX
  5
416
  8
MAG_GRIDS_AS_SURVEYED
 10
737293.93231323489
 20
4560352.786096856
 30
0.0
  0
SEQEND
  5
417
  8
MAG_GRIDS_AS_SURVEYED
  0
POLYLINE
  5
7B
  8
MAG_GRIDS_AS_SURVEYED
 66
     1
 10
0.0
 20
0.0
 30
0.0
 40
0.5
 41
0.5
  0
VERTEX
  5
418
  8
MAG_GRIDS_AS_SURVEYED
 10
737285.58559096674
 20
4560323.2908376278
 30
0.0
  0
VERTEX
  5
419
  8
MAG_GRIDS_AS_SURVEYED
 10
737280.26208683662
 20
4560326.0816981532
 30
0.0
  0
SEQEND
  5
41A
  8
MAG_GRIDS_AS_SURVEYED
  0
POLYLINE
  5
7C
  8
MAG_GRIDS_AS_SURVEYED
 66
     1
 10
0.0
 20
0.0
 30
0.0
 40
0.5
 41
0.5
  0
VERTEX
  5
41B
  8
MAG_GRIDS_AS_SURVEYED
 10
737271.91536456812
 20
4560296.5864389203
 30
0.0
  0
VERTEX
  5
41C
  8
MAG_GRIDS_AS_SURVEYED
 10
737266.59186043765
 20
4560299.3772994457
 30
0.0
  0
SEQEND
  5
41D
  8
MAG_GRIDS_AS_SURVEYED
  0
POLYLINE
  5
7D
  8
MAG_GRIDS_AS_SURVEYED
 66
     1
 10
0.0
 20
0.0
 30
0.0
 40
0.5
 41
0.5
  0
VERTEX
  5
41E
  8
MAG_GRIDS_AS_SURVEYED
 10
737258.24513816985
 20
4560269.8820402157
 30
0.0
  0
VERTEX
  5
41F
  8
MAG_GRIDS_AS_SURVEYED
 10
737252.92163403926
 20
4560272.6729007419
 30
0.0
  0
SEQEND
  5
420
  8
MAG_GRIDS_AS_SURVEYED
  0
POLYLINE
  5
7E
  8
MAG_GRIDS_AS_SURVEYED
 66
     1
 10
0.0
 20
0.0
 30
0.0
 40
0.5
 41
0.5
  0
VERTEX
  5
421
  8
MAG_GRIDS_AS_SURVEYED
 10
737244.57491177099
 20
4560243.177641511
 30
0.0
  0
VERTEX
  5
422
  8
MAG_GRIDS_AS_SURVEYED
 10
737239.25140764064
 20
4560245.9685020363
 30
0.0
  0
SEQEND
  5
423
  8
MAG_GRIDS_AS_SURVEYED
  0
POLYLINE
  5
7F
  8
MAG_GRIDS_AS_SURVEYED
 66
     1
 10
0.0
 20
0.0
 30
0.0
 70
     1
 40
0.5
 41
0.5
  0
VERTEX
  5
424
  8
MAG_GRIDS_AS_SURVEYED
 10
737352.74904607225
 20
4560374.5283091227
 30
0.0
  0
VERTEX
  5
425
  8
MAG_GRIDS_AS_SURVEYED
 10
737379.68795591604
 20
4560361.3262207843
 30
0.0
  0
VERTEX
  5
426
  8
MAG_GRIDS_AS_SURVEYED
 10
737392.8900442532
 20
4560388.2651306298
 30
0.0
  0
VERTEX
  5
427
  8
MAG_GRIDS_AS_SURVEYED
 10
737365.95113440941
 20
4560401.4672189681
 30
0.0
  0
SEQEND
  5
428
  8
MAG_GRIDS_AS_SURVEYED
  0
POLYLINE
  5
80
  8
MAG_GRIDS_AS_SURVEYED
 66
     1
 10
0.0
 20
0.0
 30
0.0
 70
     1
 40
0.5
 41
0.5
  0
VERTEX
  5
429
  8
MAG_GRIDS_AS_SURVEYED
 10
737339.54695773555
 20
4560347.5893992791
 30
0.0
  0
VERTEX
  5
42A
  8
MAG_GRIDS_AS_SURVEYED
 10
737366.48586757935
 20
4560334.3873109408
 30
0.0
  0
VERTEX
  5
42B
  8
MAG_GRIDS_AS_SURVEYED
 10
737379.68795591604
 20
4560361.3262207843
 30
0.0
  0
VERTEX
  5
42C
  8
MAG_GRIDS_AS_SURVEYED
 10
737352.74904607225
 20
4560374.5283091227
 30
0.0
  0
SEQEND
  5
42D
  8
MAG_GRIDS_AS_SURVEYED
  0
POLYLINE
  5
81
  8
MAG_GRIDS_AS_SURVEYED
 66
     1
 10
0.0
 20
0.0
 30
0.0
 70
     1
 40
0.5
 41
0.5
  0
VERTEX
  5
42E
  8
MAG_GRIDS_AS_SURVEYED
 10
737326.34486939874
 20
4560320.6504894318
 30
0.0
  0
VERTEX
  5
42F
  8
MAG_GRIDS_AS_SURVEYED
 10
737353.28377924219
 20
4560307.4484010972
 30
0.0
  0
VERTEX
  5
430
  8
MAG_GRIDS_AS_SURVEYED
 10
737366.48586757935
 20
4560334.3873109408
 30
0.0
  0
VERTEX
  5
431
  8
MAG_GRIDS_AS_SURVEYED
 10
737339.5469577359
 20
4560347.5893992791
 30
0.0
  0
SEQEND
  5
432
  8
MAG_GRIDS_AS_SURVEYED
  0
POLYLINE
  5
82
  8
MAG_GRIDS_AS_SURVEYED
 66
     1
 10
0.0
 20
0.0
 30
0.0
 70
     1
 40
0.5
 41
0.5
  0
VERTEX
  5
433
  8
MAG_GRIDS_AS_SURVEYED
 10
737313.17282713472
 20
4560293.7728887107
 30
0.0
  0
VERTEX
  5
434
  8
MAG_GRIDS_AS_SURVEYED
 10
737340.11173697817
 20
4560280.5708003743
 30
0.0
  0
VERTEX
  5
435
  8
MAG_GRIDS_AS_SURVEYED
 10
737353.31382531545
 20
4560307.5097102169
 30
0.0
  0
VERTEX
  5
436
  8
MAG_GRIDS_AS_SURVEYED
 10
737326.37491547153
 20
4560320.7117985571
 30
0.0
  0
SEQEND
  5
437
  8
MAG_GRIDS_AS_SURVEYED
  0
POLYLINE
  5
83
  8
MAG_GRIDS_AS_SURVEYED
 66
     1
 10
0.0
 20
0.0
 30
0.0
 70
     1
 40
0.5
 41
0.5
  0
VERTEX
  5
438
  8
MAG_GRIDS_AS_SURVEYED
 10
737299.97073879733
 20
4560266.8339788681
 30
0.0
  0
VERTEX
  5
439
  8
MAG_GRIDS_AS_SURVEYED
 10
737326.90964864136
 20
4560253.6318905344
 30
0.0
  0
VERTEX
  5
43A
  8
MAG_GRIDS_AS_SURVEYED
 10
737340.11173697817
 20
4560280.5708003743
 30
0.0
  0
VERTEX
  5
43B
  8
MAG_GRIDS_AS_SURVEYED
 10
737313.17282713472
 20
4560293.7728887107
 30
0.0
  0
SEQEND
  5
43C
  8
MAG_GRIDS_AS_SURVEYED
  0
POLYLINE
  5
84
  8
MAG_GRIDS_AS_SURVEYED
 66
     1
 10
0.0
 20
0.0
 30
0.0
 70
     1
 40
0.5
 41
0.5
  0
VERTEX
  5
43D
  8
MAG_GRIDS_AS_SURVEYED
 10
737286.76865046076
 20
4560239.8950690264
 30
0.0
  0
VERTEX
  5
43E
  8
MAG_GRIDS_AS_SURVEYED
 10
737313.70756030432
 20
4560226.6929806881
 30
0.0
  0
VERTEX
  5
43F
  8
MAG_GRIDS_AS_SURVEYED
 10
737326.90964864136
 20
4560253.6318905344
 30
0.0
  0
VERTEX
  5
440
  8
MAG_GRIDS_AS_SURVEYED
 10
737299.97073879733
 20
4560266.8339788681
 30
0.0
  0
SEQEND
  5
441
  8
MAG_GRIDS_AS_SURVEYED
  0
POLYLINE
  5
85
  8
MAG_GRIDS_AS_SURVEYED
 66
     1
 10
0.0
 20
0.0
 30
0.0
 70
     1
 40
0.5
 41
0.5
  0
VERTEX
  5
442
  8
MAG_GRIDS_AS_SURVEYED
 10
737273.56656212348
 20
4560212.9561591819
 30
0.0
  0
VERTEX
  5
443
  8
MAG_GRIDS_AS_SURVEYED
 10
737300.50547196751
 20
4560199.7540708417
 30
0.0
  0
VERTEX
  5
444
  8
MAG_GRIDS_AS_SURVEYED
 10
737313.70756030432
 20
4560226.6929806881
 30
0.0
  0
VERTEX
  5
445
  8
MAG_GRIDS_AS_SURVEYED
 10
737286.76865046076
 20
4560239.8950690264
 30
0.0
  0
SEQEND
  5
446
  8
MAG_GRIDS_AS_SURVEYED
  0
POLYLINE
  5
86
  8
MAG_GRIDS_AS_SURVEYED
 66
     1
 10
0.0
 20
0.0
 30
0.0
 70
     1
 40
0.5
 41
0.5
  0
VERTEX
  5
447
  8
MAG_GRIDS_AS_SURVEYED
 10
737204.30681559665
 20
4560318.4951783996
 30
0.0
  0
VERTEX
  5
448
  8
MAG_GRIDS_AS_SURVEYED
 10
737231.12949119625
 20
4560305.0585094038
 30
0.0
  0
VERTEX
  5
449
  8
MAG_GRIDS_AS_SURVEYED
 10
737244.56616019097
 20
4560331.8811850054
 30
0.0
  0
VERTEX
  5
44A
  8
MAG_GRIDS_AS_SURVEYED
 10
737217.74348459125
 20
4560345.3178539984
 30
0.0
  0
SEQEND
  5
44B
  8
MAG_GRIDS_AS_SURVEYED
  0
POLYLINE
  5
87
  8
MAG_GRIDS_AS_SURVEYED
 66
     1
 10
0.0
 20
0.0
 30
0.0
 70
     1
 40
0.5
 41
0.5
  0
VERTEX
  5
44C
  8
MAG_GRIDS_AS_SURVEYED
 10
737190.87014660181
 20
4560291.672502798
 30
0.0
  0
VERTEX
  5
44D
  8
MAG_GRIDS_AS_SURVEYED
 10
737217.69282220153
 20
4560278.2358338041
 30
0.0
  0
VERTEX
  5
44E
  8
MAG_GRIDS_AS_SURVEYED
 10
737231.12949119625
 20
4560305.0585094038
 30
0.0
  0
VERTEX
  5
44F
  8
MAG_GRIDS_AS_SURVEYED
 10
737204.30681559665
 20
4560318.4951783996
 30
0.0
  0
SEQEND
  5
450
  8
MAG_GRIDS_AS_SURVEYED
  0
POLYLINE
  5
88
  8
MAG_GRIDS_AS_SURVEYED
 66
     1
 10
0.0
 20
0.0
 30
0.0
 70
     1
 40
0.5
 41
0.5
  0
VERTEX
  5
451
  8
MAG_GRIDS_AS_SURVEYED
 10
737326.59627016343
 20
4560403.4040337447
 30
0.0
  0
VERTEX
  5
452
  8
MAG_GRIDS_AS_SURVEYED
 10
737353.30066886952
 20
4560389.7338073477
 30
0.0
  0
VERTEX
  5
453
  8
MAG_GRIDS_AS_SURVEYED
 10
737366.97089526791
 20
4560416.4382060552
 30
0.0
  0
VERTEX
  5
454
  8
MAG_GRIDS_AS_SURVEYED
 10
737340.26649656193
 20
4560430.1084324541
 30
0.0
  0
SEQEND
  5
455
  8
MAG_GRIDS_AS_SURVEYED
  0
POLYLINE
  5
89
  8
MAG_GRIDS_AS_SURVEYED
 66
     1
 10
0.0
 20
0.0
 30
0.0
 70
     1
 40
0.5
 41
0.5
  0
VERTEX
  5
456
  8
MAG_GRIDS_AS_SURVEYED
 10
737312.92604376422
 20
4560376.6996350419
 30
0.0
  0
VERTEX
  5
457
  8
MAG_GRIDS_AS_SURVEYED
 10
737339.63044246985
 20
4560363.0294086421
 30
0.0
  0
VERTEX
  5
458
  8
MAG_GRIDS_AS_SURVEYED
 10
737353.30066886835
 20
4560389.7338073477
 30
0.0
  0
VERTEX
  5
459
  8
MAG_GRIDS_AS_SURVEYED
 10
737326.5962701625
 20
4560403.4040337484
 30
0.0
  0
SEQEND
  5
45A
  8
MAG_GRIDS_AS_SURVEYED
  0
POLYLINE
  5
8A
  8
MAG_GRIDS_AS_SURVEYED
 66
     1
 10
0.0
 20
0.0
 30
0.0
 70
     1
 40
0.5
 41
0.5
  0
VERTEX
  5
45B
  8
MAG_GRIDS_AS_SURVEYED
 10
737299.25581736525
 20
4560349.9952363344
 30
0.0
  0
VERTEX
  5
45C
  8
MAG_GRIDS_AS_SURVEYED
 10
737325.96021607076
 20
4560336.3250099374
 30
0.0
  0
VERTEX
  5
45D
  8
MAG_GRIDS_AS_SURVEYED
 10
737339.63044246938
 20
4560363.0294086421
 30
0.0
  0
VERTEX
  5
45E
  8
MAG_GRIDS_AS_SURVEYED
 10
737312.92604376422
 20
4560376.6996350419
 30
0.0
  0
SEQEND
  5
45F
  8
MAG_GRIDS_AS_SURVEYED
  0
POLYLINE
  5
8B
  8
MAG_GRIDS_AS_SURVEYED
 66
     1
 10
0.0
 20
0.0
 30
0.0
 70
     1
 40
0.5
 41
0.5
  0
VERTEX
  5
460
  8
MAG_GRIDS_AS_SURVEYED
 10
737285.58559096674
 20
4560323.2908376278
 30
0.0
  0
VERTEX
  5
461
  8
MAG_GRIDS_AS_SURVEYED
 10
737312.28998967237
 20
4560309.620611228
 30
0.0
  0
VERTEX
  5
462
  8
MAG_GRIDS_AS_SURVEYED
 10
737325.96021607111
 20
4560336.3250099337
 30
0.0
  0
VERTEX
  5
463
  8
MAG_GRIDS_AS_SURVEYED
 10
737299.25581736525
 20
4560349.9952363344
 30
0.0
  0
SEQEND
  5
464
  8
MAG_GRIDS_AS_SURVEYED
  0
POLYLINE
  5
8C
  8
MAG_GRIDS_AS_SURVEYED
 66
     1
 10
0.0
 20
0.0
 30
0.0
 70
     1
 40
0.5
 41
0.5
  0
VERTEX
  5
465
  8
MAG_GRIDS_AS_SURVEYED
 10
737271.91536456812
 20
4560296.5864389203
 30
0.0
  0
VERTEX
  5
466
  8
MAG_GRIDS_AS_SURVEYED
 10
737298.61976327375
 20
4560282.9162125252
 30
0.0
  0
VERTEX
  5
467
  8
MAG_GRIDS_AS_SURVEYED
 10
737312.28998967237
 20
4560309.620611228
 30
0.0
  0
VERTEX
  5
468
  8
MAG_GRIDS_AS_SURVEYED
 10
737285.58559096674
 20
4560323.2908376278
 30
0.0
  0
SEQEND
  5
469
  8
MAG_GRIDS_AS_SURVEYED
  0
POLYLINE
  5
8D
  8
MAG_GRIDS_AS_SURVEYED
 66
     1
 10
0.0
 20
0.0
 30
0.0
 70
     1
 40
0.5
 41
0.5
  0
VERTEX
  5
46A
  8
MAG_GRIDS_AS_SURVEYED
 10
737258.24513816985
 20
4560269.8820402157
 30
0.0
  0
VERTEX
  5
46B
  8
MAG_GRIDS_AS_SURVEYED
 10
737284.94953687536
 20
4560256.2118138168
 30
0.0
  0
VERTEX
  5
46C
  8
MAG_GRIDS_AS_SURVEYED
 10
737298.61976327375
 20
4560282.9162125252
 30
0.0
  0
VERTEX
  5
46D
  8
MAG_GRIDS_AS_SURVEYED
 10
737271.91536456812
 20
4560296.5864389203
 30
0.0
  0
SEQEND
  5
46E
  8
MAG_GRIDS_AS_SURVEYED
  0
POLYLINE
  5
8E
  8
MAG_GRIDS_AS_SURVEYED
 66
     1
 10
0.0
 20
0.0
 30
0.0
 70
     1
 40
0.5
 41
0.5
  0
VERTEX
  5
46F
  8
MAG_GRIDS_AS_SURVEYED
 10
737244.57491177099
 20
4560243.177641511
 30
0.0
  0
VERTEX
  5
470
  8
MAG_GRIDS_AS_SURVEYED
 10
737271.27931047685
 20
4560229.5074151121
 30
0.0
  0
VERTEX
  5
471
  8
MAG_GRIDS_AS_SURVEYED
 10
737284.94953687536
 20
4560256.2118138168
 30
0.0
  0
VERTEX
  5
472
  8
MAG_GRIDS_AS_SURVEYED
 10
737258.24513816985
 20
4560269.8820402157
 30
0.0
  0
SEQEND
  5
473
  8
MAG_GRIDS_AS_SURVEYED
  0
POLYLINE
  5
8F
  8
MAG_GRIDS_AS_SURVEYED
 66
     1
 10
0.0
 20
0.0
 30
0.0
 70
     1
 40
0.5
 41
0.5
  0
VERTEX
  5
474
  8
MAG_GRIDS_AS_SURVEYED
 10
737271.43949790427
 20
4560385.5265356516
 30
0.0
  0
VERTEX
  5
475
  8
MAG_GRIDS_AS_SURVEYED
 10
737298.26217350399
 20
4560372.0898666577
 30
0.0
  0
VERTEX
  5
476
  8
MAG_GRIDS_AS_SURVEYED
 10
737311.69884249952
 20
4560398.9125422575
 30
0.0
  0
VERTEX
  5
477
  8
MAG_GRIDS_AS_SURVEYED
 10
737284.87616689934
 20
4560412.3492112523
 30
0.0
  0
SEQEND
  5
478
  8
MAG_GRIDS_AS_SURVEYED
  0
POLYLINE
  5
90
  8
MAG_GRIDS_AS_SURVEYED
 66
     1
 10
0.0
 20
0.0
 30
0.0
 70
     1
 40
0.5
 41
0.5
  0
VERTEX
  5
479
  8
MAG_GRIDS_AS_SURVEYED
 10
737258.00282918557
 20
4560358.7038606014
 30
0.0
  0
VERTEX
  5
47A
  8
MAG_GRIDS_AS_SURVEYED
 10
737284.82550478564
 20
4560345.2671916047
 30
0.0
  0
VERTEX
  5
47B
  8
MAG_GRIDS_AS_SURVEYED
 10
737298.26217378036
 20
4560372.0898672091
 30
0.0
  0
VERTEX
  5
47C
  8
MAG_GRIDS_AS_SURVEYED
 10
737271.43949818076
 20
4560385.5265361993
 30
0.0
  0
SEQEND
  5
47D
  8
MAG_GRIDS_AS_SURVEYED
  0
POLYLINE
  5
91
  8
MAG_GRIDS_AS_SURVEYED
 66
     1
 10
0.0
 20
0.0
 30
0.0
 70
     1
 40
0.5
 41
0.5
  0
VERTEX
  5
47E
  8
MAG_GRIDS_AS_SURVEYED
 10
737244.56616019097
 20
4560331.8811850008
 30
0.0
  0
VERTEX
  5
47F
  8
MAG_GRIDS_AS_SURVEYED
 10
737271.38883579057
 20
4560318.444516005
 30
0.0
  0
VERTEX
  5
480
  8
MAG_GRIDS_AS_SURVEYED
 10
737284.82550478564
 20
4560345.2671916047
 30
0.0
  0
VERTEX
  5
481
  8
MAG_GRIDS_AS_SURVEYED
 10
737258.00282918557
 20
4560358.7038606014
 30
0.0
  0
SEQEND
  5
482
  8
MAG_GRIDS_AS_SURVEYED
  0
POLYLINE
  5
92
  8
MAG_GRIDS_AS_SURVEYED
 66
     1
 10
0.0
 20
0.0
 30
0.0
 70
     1
 40
0.5
 41
0.5
  0
VERTEX
  5
483
  8
MAG_GRIDS_AS_SURVEYED
 10
737231.1294911959
 20
4560305.0585094038
 30
0.0
  0
VERTEX
  5
484
  8
MAG_GRIDS_AS_SURVEYED
 10
737257.95216679573
 20
4560291.6218404062
 30
0.0
  0
VERTEX
  5
485
  8
MAG_GRIDS_AS_SURVEYED
 10
737271.38883579057
 20
4560318.444516005
 30
0.0
  0
VERTEX
  5
486
  8
MAG_GRIDS_AS_SURVEYED
 10
737244.56616019097
 20
4560331.8811850008
 30
0.0
  0
SEQEND
  5
487
  8
MAG_GRIDS_AS_SURVEYED
  0
POLYLINE
  5
93
  8
MAG_GRIDS_AS_SURVEYED
 66
     1
 10
0.0
 20
0.0
 30
0.0
 70
     1
 40
0.5
 41
0.5
  0
VERTEX
  5
488
  8
MAG_GRIDS_AS_SURVEYED
 10
737217.69282220153
 20
4560278.2358338041
 30
0.0
  0
VERTEX
  5
489
  8
MAG_GRIDS_AS_SURVEYED
 10
737244.51549780066
 20
4560264.7991648093
 30
0.0
  0
VERTEX
  5
48A
  8
MAG_GRIDS_AS_SURVEYED
 10
737257.95216679573
 20
4560291.6218404062
 30
0.0
  0
VERTEX
  5
48B
  8
MAG_GRIDS_AS_SURVEYED
 10
737231.1294911959
 20
4560305.0585094038
 30
0.0
  0
SEQEND
  5
48C
  8
MAG_GRIDS_AS_SURVEYED
  0
ENDSEC
  0
EOF
