  0
SECTION
  2
HEADER
  9
$ACADVER
  1
AC1009
  9
$INSBASE
 10
0.0
 20
0.0
 30
0.0
  9
$EXTMIN
 10
733965.9088371679
 20
4555808.4163237074
 30
0.0
  9
$EXTMAX
 10
734490.89338215988
 20
4556178.4389124606
 30
0.0
  9
$LIMMIN
 10
0.0
 20
0.0
  9
$LIMMAX
 10
12.0
 20
9.0
  9
$ORTHOMODE
 70
     0
  9
$REGENMODE
 70
     1
  9
$FILLMODE
 70
     1
  9
$QTEXTMODE
 70
     0
  9
$MIRRTEXT
 70
     1
  9
$DRAGMODE
 70
     2
  9
$LTSCALE
 40
1.0
  9
$OSMODE
 70
   557
  9
$ATTMODE
 70
     1
  9
$TEXTSIZE
 40
8.0
  9
$TRACEWID
 40
0.05
  9
$TEXTSTYLE
  7
STANDARD
  9
$CLAYER
  8
MAG_GRID_NOS
  9
$CELTYPE
  6
BYLAYER
  9
$CECOLOR
 62
   256
  9
$DIMSCALE
 40
1.0
  9
$DIMASZ
 40
0.18
  9
$DIMEXO
 40
0.0625
  9
$DIMDLI
 40
0.38
  9
$DIMRND
 40
0.0
  9
$DIMDLE
 40
0.0
  9
$DIMEXE
 40
0.18
  9
$DIMTP
 40
0.0
  9
$DIMTM
 40
0.0
  9
$DIMTXT
 40
0.18
  9
$DIMCEN
 40
0.09
  9
$DIMTSZ
 40
0.0
  9
$DIMTOL
 70
     0
  9
$DIMLIM
 70
     0
  9
$DIMTIH
 70
     1
  9
$DIMTOH
 70
     1
  9
$DIMSE1
 70
     0
  9
$DIMSE2
 70
     0
  9
$DIMTAD
 70
     0
  9
$DIMZIN
 70
     0
  9
$DIMBLK
  1

  9
$DIMASO
 70
     1
  9
$DIMSHO
 70
     1
  9
$DIMPOST
  1

  9
$DIMAPOST
  1

  9
$DIMALT
 70
     0
  9
$DIMALTD
 70
     2
  9
$DIMALTF
 40
25.399999999999999
  9
$DIMLFAC
 40
1.0
  9
$DIMTOFL
 70
     0
  9
$DIMTVP
 40
0.0
  9
$DIMTIX
 70
     0
  9
$DIMSOXD
 70
     0
  9
$DIMSAH
 70
     0
  9
$DIMBLK1
  1

  9
$DIMBLK2
  1

  9
$DIMSTYLE
  2
STANDARD
  9
$DIMCLRD
 70
     0
  9
$DIMCLRE
 70
     0
  9
$DIMCLRT
 70
     0
  9
$DIMTFAC
 40
1.0
  9
$DIMGAP
 40
0.09
  9
$LUNITS
 70
     2
  9
$LUPREC
 70
     4
  9
$SKETCHINC
 40
0.1
  9
$FILLETRAD
 40
0.5
  9
$AUNITS
 70
     0
  9
$AUPREC
 70
     0
  9
$MENU
  1
.
  9
$ELEVATION
 40
0.0
  9
$PELEVATION
 40
0.0
  9
$THICKNESS
 40
0.0
  9
$LIMCHECK
 70
     0
  9
$BLIPMODE
 70
     0
  9
$CHAMFERA
 40
0.5
  9
$CHAMFERB
 40
0.5
  9
$SKPOLY
 70
     0
  9
$TDCREATE
 40
2454974.6445596418
  9
$TDUPDATE
 40
2456117.6051197108
  9
$TDINDWG
 40
12.571083287
  9
$TDUSRTIMER
 40
12.571083101899999
  9
$USRTIMER
 70
     1
  9
$ANGBASE
 50
0.0
  9
$ANGDIR
 70
     1
  9
$PDMODE
 70
    66
  9
$PDSIZE
 40
10.0
  9
$PLINEWID
 40
0.0
  9
$COORDS
 70
     1
  9
$SPLFRAME
 70
     0
  9
$SPLINETYPE
 70
     6
  9
$SPLINESEGS
 70
     8
  9
$ATTDIA
 70
     0
  9
$ATTREQ
 70
     1
  9
$HANDLING
 70
     1
  9
$HANDSEED
  5
7BF
  9
$SURFTAB1
 70
     6
  9
$SURFTAB2
 70
     6
  9
$SURFTYPE
 70
     6
  9
$SURFU
 70
     6
  9
$SURFV
 70
     6
  9
$UCSNAME
  2

  9
$UCSORG
 10
0.0
 20
0.0
 30
0.0
  9
$UCSXDIR
 10
1.0
 20
0.0
 30
0.0
  9
$UCSYDIR
 10
0.0
 20
1.0
 30
0.0
  9
$PUCSNAME
  2

  9
$PUCSORG
 10
0.0
 20
0.0
 30
0.0
  9
$PUCSXDIR
 10
1.0
 20
0.0
 30
0.0
  9
$PUCSYDIR
 10
0.0
 20
1.0
 30
0.0
  9
$USERI1
 70
     0
  9
$USERI2
 70
     0
  9
$USERI3
 70
     0
  9
$USERI4
 70
     0
  9
$USERI5
 70
     0
  9
$USERR1
 40
0.0
  9
$USERR2
 40
0.0
  9
$USERR3
 40
0.0
  9
$USERR4
 40
0.0
  9
$USERR5
 40
0.0
  9
$WORLDVIEW
 70
     1
  9
$SHADEDGE
 70
     3
  9
$SHADEDIF
 70
    70
  9
$TILEMODE
 70
     1
  9
$MAXACTVP
 70
    64
  9
$PLIMCHECK
 70
     0
  9
$PEXTMIN
 10
0.0
 20
0.0
 30
0.0
  9
$PEXTMAX
 10
0.0
 20
0.0
 30
0.0
  9
$PLIMMIN
 10
0.0
 20
0.0
  9
$PLIMMAX
 10
12.0
 20
9.0
  9
$UNITMODE
 70
     0
  9
$VISRETAIN
 70
     1
  9
$PLINEGEN
 70
     0
  9
$PSLTSCALE
 70
     1
  0
ENDSEC
  0
SECTION
  2
TABLES
  0
TABLE
  2
VPORT
 70
     1
  0
VPORT
  2
*ACTIVE
 70
     0
 10
0.0
 20
0.0
 11
1.0
 21
1.0
 12
734330.21651746589
 22
4556214.5043301592
 13
0.0
 23
0.0
 14
1.0
 24
1.0
 15
0.5
 25
0.5
 16
0.0
 26
0.0
 36
1.0
 17
0.0
 27
0.0
 37
0.0
 40
901.63525921804103
 41
1.136898395721925
 42
50.0
 43
0.0
 44
0.0
 50
0.0
 51
0.0
 71
     0
 72
   100
 73
     1
 74
     2
 75
     0
 76
     0
 77
     0
 78
     0
  0
ENDTAB
  0
TABLE
  2
LTYPE
 70
     1
  0
LTYPE
  2
CONTINUOUS
 70
     0
  3
Solid line
 72
    65
 73
     0
 40
0.0
  0
ENDTAB
  0
TABLE
  2
LAYER
 70
     3
  0
LAYER
  2
0
 70
     0
 62
    -1
  6
CONTINUOUS
  0
LAYER
  2
MAG_GRID_NOS
 70
     0
 62
     2
  6
CONTINUOUS
  0
LAYER
  2
MAG_GRIDS_AS_SURVEYED
 70
     0
 62
     1
  6
CONTINUOUS
  0
ENDTAB
  0
TABLE
  2
STYLE
 70
     3
  0
STYLE
  2
STANDARD
 70
     0
 40
0.0
 41
1.0
 50
0.0
 71
     0
 42
8.0
  3
txt
  4

  0
STYLE
  2
ANNOTATIVE
 70
     0
 40
0.0
 41
1.0
 50
0.0
 71
     0
 42
0.2
  3
txt
  4

  0
STYLE
  2
LEGEND
 70
     0
 40
0.0
 41
1.0
 50
0.0
 71
     0
 42
8.0
  3
txt
  4

  0
ENDTAB
  0
TABLE
  2
VIEW
 70
     0
  0
ENDTAB
  0
TABLE
  2
UCS
 70
     0
  0
ENDTAB
  0
TABLE
  2
APPID
 70
    10
  0
APPID
  2
ACAD
 70
     0
  0
APPID
  2
ACADANNOTATIVE
 70
     0
  0
APPID
  2
ADE
 70
     0
  0
APPID
  2
ADE_PROJECTION
 70
     0
  0
APPID
  2
ACMAPDMDISPLAYSTYLEREGAPP
 70
     0
  0
APPID
  2
MAPGWS
 70
     0
  0
APPID
  2
DCO15
 70
     0
  0
APPID
  2
ACAD_MLEADERVER
 70
     0
  0
APPID
  2
ACAD_EXEMPT_FROM_CAD_STANDARDS
 70
     0
  0
APPID
  2
ACADANNOPO
 70
     0
  0
ENDTAB
  0
TABLE
  2
DIMSTYLE
 70
     2
  0
DIMSTYLE
  2
STANDARD
 70
     0
  3

  4

  5

  6

  7

 40
1.0
 41
0.18
 42
0.0625
 43
0.38
 44
0.18
 45
0.0
 46
0.0
 47
0.0
 48
0.0
140
0.18
141
0.09
142
0.0
143
25.399999999999999
144
1.0
145
0.0
146
1.0
147
0.09
 71
     0
 72
     0
 73
     1
 74
     1
 75
     0
 76
     0
 77
     0
 78
     0
170
     0
171
     2
172
     0
173
     0
174
     0
175
     0
176
     0
177
     0
178
     0
  0
DIMSTYLE
  2
ANNOTATIVE
 70
     0
  3

  4

  5

  6

  7

 40
1.0
 41
0.18
 42
0.0625
 43
0.38
 44
0.18
 45
0.0
 46
0.0
 47
0.0
 48
0.0
140
0.18
141
0.09
142
0.0
143
25.399999999999999
144
1.0
145
0.0
146
1.0
147
0.09
 71
     0
 72
     0
 73
     1
 74
     1
 75
     0
 76
     0
 77
     0
 78
     0
170
     0
171
     2
172
     0
173
     0
174
     0
175
     0
176
     0
177
     0
178
     0
  0
ENDTAB
  0
ENDSEC
  0
SECTION
  2
BLOCKS
  0
BLOCK
  8
0
  2
$MODEL_SPACE
 70
     0
 10
0.0
 20
0.0
 30
0.0
  3
$MODEL_SPACE
  1

  0
ENDBLK
  5
62C
  8
0
  0
BLOCK
 67
     1
  8
0
  2
$PAPER_SPACE
 70
     0
 10
0.0
 20
0.0
 30
0.0
  3
$PAPER_SPACE
  1

  0
ENDBLK
  5
628
 67
     1
  8
0
  0
ENDSEC
  0
SECTION
  2
ENTITIES
  0
TEXT
  5
73
  8
MAG_GRID_NOS
 10
734168.07071305416
 20
4556009.9066501297
 30
0.0
 40
8.0
  1
SECTOR A001
  0
TEXT
  5
74
  8
MAG_GRID_NOS
 10
734325.04817276425
 20
4555997.5776371313
 30
0.0
 40
8.0
  1
SECTORS A049 & A051
  0
TEXT
  5
75
  8
MAG_GRID_NOS
 10
734258.89338216011
 20
4555842.3441517623
 30
0.0
 40
8.0
  1
SECTORS A052, A054, A056 & A068
  0
TEXT
  5
76
  8
MAG_GRID_NOS
 10
734009.69001948542
 20
4555902.4176905816
 30
0.0
 40
8.0
  1
SECTOR A077
  0
POLYLINE
  5
77
  8
MAG_GRIDS_AS_SURVEYED
 66
     1
 10
0.0
 20
0.0
 30
0.0
 70
     1
 40
0.5
 41
0.5
  0
VERTEX
  5
66B
  8
MAG_GRIDS_AS_SURVEYED
 10
734120.5627783594
 20
4555942.7182612708
 30
0.0
  0
VERTEX
  5
66C
  8
MAG_GRIDS_AS_SURVEYED
 10
734148.07321584458
 20
4555954.6838715496
 30
0.0
  0
VERTEX
  5
66D
  8
MAG_GRIDS_AS_SURVEYED
 10
734136.1076055672
 20
4555982.1943090353
 30
0.0
  0
VERTEX
  5
66E
  8
MAG_GRIDS_AS_SURVEYED
 10
734108.59716808109
 20
4555970.2286987584
 30
0.0
  0
SEQEND
  5
66F
  8
MAG_GRIDS_AS_SURVEYED
  0
POLYLINE
  5
79
  8
MAG_GRIDS_AS_SURVEYED
 66
     1
 10
0.0
 20
0.0
 30
0.0
 70
     1
 40
0.5
 41
0.5
  0
VERTEX
  5
670
  8
MAG_GRIDS_AS_SURVEYED
 10
734343.09099999955
 20
4556036.4029999999
 30
0.0
  0
VERTEX
  5
671
  8
MAG_GRIDS_AS_SURVEYED
 10
734362.16499999946
 20
4556059.5600000015
 30
0.0
  0
VERTEX
  5
672
  8
MAG_GRIDS_AS_SURVEYED
 10
734339.0079999998
 20
4556078.6340000005
 30
0.0
  0
VERTEX
  5
673
  8
MAG_GRIDS_AS_SURVEYED
 10
734319.93399999966
 20
4556055.4770000009
 30
0.0
  0
SEQEND
  5
674
  8
MAG_GRIDS_AS_SURVEYED
  0
POLYLINE
  5
7A
  8
MAG_GRIDS_AS_SURVEYED
 66
     1
 10
0.0
 20
0.0
 30
0.0
 70
     1
 40
0.5
 41
0.5
  0
VERTEX
  5
675
  8
MAG_GRIDS_AS_SURVEYED
 10
734089.47312394495
 20
4555863.7661657427
 30
0.0
  0
VERTEX
  5
676
  8
MAG_GRIDS_AS_SURVEYED
 10
734116.98356143024
 20
4555875.7317760233
 30
0.0
  0
VERTEX
  5
677
  8
MAG_GRIDS_AS_SURVEYED
 10
734105.0179511531
 20
4555903.2422135072
 30
0.0
  0
VERTEX
  5
678
  8
MAG_GRIDS_AS_SURVEYED
 10
734077.50751366664
 20
4555891.2766032303
 30
0.0
  0
SEQEND
  5
679
  8
MAG_GRIDS_AS_SURVEYED
  0
POLYLINE
  5
7B
  8
MAG_GRIDS_AS_SURVEYED
 66
     1
 10
0.0
 20
0.0
 30
0.0
 70
     1
 40
0.5
 41
0.5
  0
VERTEX
  5
67A
  8
MAG_GRIDS_AS_SURVEYED
 10
734101.43873422302
 20
4555836.2557282569
 30
0.0
  0
VERTEX
  5
67B
  8
MAG_GRIDS_AS_SURVEYED
 10
734128.94917170878
 20
4555848.2213385357
 30
0.0
  0
VERTEX
  5
67C
  8
MAG_GRIDS_AS_SURVEYED
 10
734116.98356143024
 20
4555875.7317760233
 30
0.0
  0
VERTEX
  5
67D
  8
MAG_GRIDS_AS_SURVEYED
 10
734089.47312394495
 20
4555863.7661657427
 30
0.0
  0
SEQEND
  5
67E
  8
MAG_GRIDS_AS_SURVEYED
  0
POLYLINE
  5
7C
  8
MAG_GRIDS_AS_SURVEYED
 66
     1
 10
0.0
 20
0.0
 30
0.0
 70
     1
 40
0.5
 41
0.5
  0
VERTEX
  5
67F
  8
MAG_GRIDS_AS_SURVEYED
 10
734113.40434450156
 20
4555808.7452907721
 30
0.0
  0
VERTEX
  5
680
  8
MAG_GRIDS_AS_SURVEYED
 10
734140.91478198674
 20
4555820.710901049
 30
0.0
  0
VERTEX
  5
681
  8
MAG_GRIDS_AS_SURVEYED
 10
734128.94917170878
 20
4555848.2213385357
 30
0.0
  0
VERTEX
  5
682
  8
MAG_GRIDS_AS_SURVEYED
 10
734101.43873422302
 20
4555836.2557282569
 30
0.0
  0
SEQEND
  5
683
  8
MAG_GRIDS_AS_SURVEYED
  0
POLYLINE
  5
7D
  8
MAG_GRIDS_AS_SURVEYED
 66
     1
 10
0.0
 20
0.0
 30
0.0
 70
     1
 40
0.5
 41
0.5
  0
VERTEX
  5
684
  8
MAG_GRIDS_AS_SURVEYED
 10
734065.54190338752
 20
4555918.787040716
 30
0.0
  0
VERTEX
  5
685
  8
MAG_GRIDS_AS_SURVEYED
 10
734093.05234087375
 20
4555930.7526509929
 30
0.0
  0
VERTEX
  5
686
  8
MAG_GRIDS_AS_SURVEYED
 10
734081.08673059486
 20
4555958.2630884787
 30
0.0
  0
VERTEX
  5
687
  8
MAG_GRIDS_AS_SURVEYED
 10
734053.57629310887
 20
4555946.297478199
 30
0.0
  0
SEQEND
  5
688
  8
MAG_GRIDS_AS_SURVEYED
  0
POLYLINE
  5
7E
  8
MAG_GRIDS_AS_SURVEYED
 66
     1
 10
0.0
 20
0.0
 30
0.0
 70
     1
 40
0.5
 41
0.5
  0
VERTEX
  5
689
  8
MAG_GRIDS_AS_SURVEYED
 10
733978.20341451094
 20
4556044.3736178689
 30
0.0
  0
VERTEX
  5
68A
  8
MAG_GRIDS_AS_SURVEYED
 10
734005.71385199646
 20
4556056.3392281448
 30
0.0
  0
VERTEX
  5
68B
  8
MAG_GRIDS_AS_SURVEYED
 10
733993.74824171874
 20
4556083.8496656334
 30
0.0
  0
VERTEX
  5
68C
  8
MAG_GRIDS_AS_SURVEYED
 10
733966.23780423263
 20
4556071.8840553546
 30
0.0
  0
SEQEND
  5
68D
  8
MAG_GRIDS_AS_SURVEYED
  0
POLYLINE
  5
7F
  8
MAG_GRIDS_AS_SURVEYED
 66
     1
 10
0.0
 20
0.0
 30
0.0
 70
     1
 40
0.5
 41
0.5
  0
VERTEX
  5
68E
  8
MAG_GRIDS_AS_SURVEYED
 10
733990.16902478994
 20
4556016.8631803831
 30
0.0
  0
VERTEX
  5
68F
  8
MAG_GRIDS_AS_SURVEYED
 10
734017.67946227512
 20
4556028.8287906609
 30
0.0
  0
VERTEX
  5
690
  8
MAG_GRIDS_AS_SURVEYED
 10
734005.71385199646
 20
4556056.3392281448
 30
0.0
  0
VERTEX
  5
691
  8
MAG_GRIDS_AS_SURVEYED
 10
733978.20341451094
 20
4556044.3736178689
 30
0.0
  0
SEQEND
  5
692
  8
MAG_GRIDS_AS_SURVEYED
  0
POLYLINE
  5
80
  8
MAG_GRIDS_AS_SURVEYED
 66
     1
 10
0.0
 20
0.0
 30
0.0
 70
     1
 40
0.5
 41
0.5
  0
VERTEX
  5
693
  8
MAG_GRIDS_AS_SURVEYED
 10
734002.13463506778
 20
4555989.3527428964
 30
0.0
  0
VERTEX
  5
694
  8
MAG_GRIDS_AS_SURVEYED
 10
734029.64507255331
 20
4556001.3183531752
 30
0.0
  0
VERTEX
  5
695
  8
MAG_GRIDS_AS_SURVEYED
 10
734017.67946227512
 20
4556028.8287906609
 30
0.0
  0
VERTEX
  5
696
  8
MAG_GRIDS_AS_SURVEYED
 10
733990.16902478994
 20
4556016.8631803831
 30
0.0
  0
SEQEND
  5
697
  8
MAG_GRIDS_AS_SURVEYED
  0
POLYLINE
  5
81
  8
MAG_GRIDS_AS_SURVEYED
 66
     1
 10
0.0
 20
0.0
 30
0.0
 70
     1
 40
0.5
 41
0.5
  0
VERTEX
  5
698
  8
MAG_GRIDS_AS_SURVEYED
 10
734283.64637389581
 20
4555895.2809925629
 30
0.0
  0
VERTEX
  5
699
  8
MAG_GRIDS_AS_SURVEYED
 10
734300.73324281548
 20
4555919.9394375756
 30
0.0
  0
VERTEX
  5
69A
  8
MAG_GRIDS_AS_SURVEYED
 10
734276.07479780016
 20
4555937.0263064979
 30
0.0
  0
VERTEX
  5
69B
  8
MAG_GRIDS_AS_SURVEYED
 10
734258.98792888096
 20
4555912.3678614842
 30
0.0
  0
SEQEND
  5
69C
  8
MAG_GRIDS_AS_SURVEYED
  0
POLYLINE
  5
82
  8
MAG_GRIDS_AS_SURVEYED
 66
     1
 10
0.0
 20
0.0
 30
0.0
 70
     1
 40
0.5
 41
0.5
  0
VERTEX
  5
69D
  8
MAG_GRIDS_AS_SURVEYED
 10
734234.32948386425
 20
4555929.4547304008
 30
0.0
  0
VERTEX
  5
69E
  8
MAG_GRIDS_AS_SURVEYED
 10
734251.41635278368
 20
4555954.1131754164
 30
0.0
  0
VERTEX
  5
69F
  8
MAG_GRIDS_AS_SURVEYED
 10
734226.7579077686
 20
4555971.2000443358
 30
0.0
  0
VERTEX
  5
6A0
  8
MAG_GRIDS_AS_SURVEYED
 10
734209.67103884951
 20
4555946.5415993221
 30
0.0
  0
SEQEND
  5
6A1
  8
MAG_GRIDS_AS_SURVEYED
  0
POLYLINE
  5
83
  8
MAG_GRIDS_AS_SURVEYED
 66
     1
 10
0.0
 20
0.0
 30
0.0
 70
     1
 40
0.5
 41
0.5
  0
VERTEX
  5
6A2
  8
MAG_GRIDS_AS_SURVEYED
 10
734217.24261494528
 20
4555904.7962853871
 30
0.0
  0
VERTEX
  5
6A3
  8
MAG_GRIDS_AS_SURVEYED
 10
734234.32948386495
 20
4555929.4547304008
 30
0.0
  0
VERTEX
  5
6A4
  8
MAG_GRIDS_AS_SURVEYED
 10
734209.67103884951
 20
4555946.5415993221
 30
0.0
  0
VERTEX
  5
6A5
  8
MAG_GRIDS_AS_SURVEYED
 10
734192.5841699302
 20
4555921.8831543084
 30
0.0
  0
SEQEND
  5
6A6
  8
MAG_GRIDS_AS_SURVEYED
  0
POLYLINE
  5
84
  8
MAG_GRIDS_AS_SURVEYED
 66
     1
 10
0.0
 20
0.0
 30
0.0
 70
     1
 40
0.5
 41
0.5
  0
VERTEX
  5
6A7
  8
MAG_GRIDS_AS_SURVEYED
 10
734200.15574602596
 20
4555880.1378403716
 30
0.0
  0
VERTEX
  5
6A8
  8
MAG_GRIDS_AS_SURVEYED
 10
734217.24261494528
 20
4555904.7962853871
 30
0.0
  0
VERTEX
  5
6A9
  8
MAG_GRIDS_AS_SURVEYED
 10
734192.58416992985
 20
4555921.8831543038
 30
0.0
  0
VERTEX
  5
6AA
  8
MAG_GRIDS_AS_SURVEYED
 10
734175.49730101065
 20
4555897.224709291
 30
0.0
  0
SEQEND
  5
6AB
  8
MAG_GRIDS_AS_SURVEYED
  0
POLYLINE
  5
85
  8
MAG_GRIDS_AS_SURVEYED
 66
     1
 10
0.0
 20
0.0
 30
0.0
 70
     1
 40
0.5
 41
0.5
  0
VERTEX
  5
6AC
  8
MAG_GRIDS_AS_SURVEYED
 10
734258.9879288805
 20
4555912.3678614805
 30
0.0
  0
VERTEX
  5
6AD
  8
MAG_GRIDS_AS_SURVEYED
 10
734276.07479779969
 20
4555937.0263064951
 30
0.0
  0
VERTEX
  5
6AE
  8
MAG_GRIDS_AS_SURVEYED
 10
734251.41635278449
 20
4555954.1131754164
 30
0.0
  0
VERTEX
  5
6AF
  8
MAG_GRIDS_AS_SURVEYED
 10
734234.32948386553
 20
4555929.4547304008
 30
0.0
  0
SEQEND
  5
6B0
  8
MAG_GRIDS_AS_SURVEYED
  0
POLYLINE
  5
86
  8
MAG_GRIDS_AS_SURVEYED
 66
     1
 10
0.0
 20
0.0
 30
0.0
 70
     1
 40
0.5
 41
0.5
  0
VERTEX
  5
6B1
  8
MAG_GRIDS_AS_SURVEYED
 10
734241.9010599613
 20
4555887.7094164658
 30
0.0
  0
VERTEX
  5
6B2
  8
MAG_GRIDS_AS_SURVEYED
 10
734258.98792888084
 20
4555912.3678614823
 30
0.0
  0
VERTEX
  5
6B3
  8
MAG_GRIDS_AS_SURVEYED
 10
734234.32948386553
 20
4555929.4547304008
 30
0.0
  0
VERTEX
  5
6B4
  8
MAG_GRIDS_AS_SURVEYED
 10
734217.24261494633
 20
4555904.7962853881
 30
0.0
  0
SEQEND
  5
6B5
  8
MAG_GRIDS_AS_SURVEYED
  0
POLYLINE
  5
87
  8
MAG_GRIDS_AS_SURVEYED
 66
     1
 10
0.0
 20
0.0
 30
0.0
 70
     1
 40
0.5
 41
0.5
  0
VERTEX
  5
6B6
  8
MAG_GRIDS_AS_SURVEYED
 10
734224.81419104186
 20
4555863.0509714512
 30
0.0
  0
VERTEX
  5
6B7
  8
MAG_GRIDS_AS_SURVEYED
 10
734241.9010599613
 20
4555887.7094164658
 30
0.0
  0
VERTEX
  5
6B8
  8
MAG_GRIDS_AS_SURVEYED
 10
734217.24261494598
 20
4555904.7962853862
 30
0.0
  0
VERTEX
  5
6B9
  8
MAG_GRIDS_AS_SURVEYED
 10
734200.15574602678
 20
4555880.1378403734
 30
0.0
  0
SEQEND
  5
6BA
  8
MAG_GRIDS_AS_SURVEYED
  0
POLYLINE
  5
88
  8
MAG_GRIDS_AS_SURVEYED
 66
     1
 10
0.0
 20
0.0
 30
0.0
 70
     1
 40
0.5
 41
0.5
  0
VERTEX
  5
6BB
  8
MAG_GRIDS_AS_SURVEYED
 10
734207.72732212231
 20
4555838.3925264338
 30
0.0
  0
VERTEX
  5
6BC
  8
MAG_GRIDS_AS_SURVEYED
 10
734224.81419104186
 20
4555863.0509714512
 30
0.0
  0
VERTEX
  5
6BD
  8
MAG_GRIDS_AS_SURVEYED
 10
734200.15574602655
 20
4555880.1378403697
 30
0.0
  0
VERTEX
  5
6BE
  8
MAG_GRIDS_AS_SURVEYED
 10
734183.06887710735
 20
4555855.479395357
 30
0.0
  0
SEQEND
  5
6BF
  8
MAG_GRIDS_AS_SURVEYED
  0
POLYLINE
  5
89
  8
MAG_GRIDS_AS_SURVEYED
 66
     1
 10
0.0
 20
0.0
 30
0.0
 70
     1
 40
0.5
 41
0.5
  0
VERTEX
  5
6C0
  8
MAG_GRIDS_AS_SURVEYED
 10
734266.55950497661
 20
4555870.6225475473
 30
0.0
  0
VERTEX
  5
6C1
  8
MAG_GRIDS_AS_SURVEYED
 10
734283.64637389581
 20
4555895.2809925629
 30
0.0
  0
VERTEX
  5
6C2
  8
MAG_GRIDS_AS_SURVEYED
 10
734258.98792888084
 20
4555912.3678614823
 30
0.0
  0
VERTEX
  5
6C3
  8
MAG_GRIDS_AS_SURVEYED
 10
734241.90105996164
 20
4555887.7094164677
 30
0.0
  0
SEQEND
  5
6C4
  8
MAG_GRIDS_AS_SURVEYED
  0
POLYLINE
  5
8A
  8
MAG_GRIDS_AS_SURVEYED
 66
     1
 10
0.0
 20
0.0
 30
0.0
 70
     1
 40
0.5
 41
0.5
  0
VERTEX
  5
6C5
  8
MAG_GRIDS_AS_SURVEYED
 10
734249.47263605706
 20
4555845.964102529
 30
0.0
  0
VERTEX
  5
6C6
  8
MAG_GRIDS_AS_SURVEYED
 10
734266.55950497661
 20
4555870.6225475473
 30
0.0
  0
VERTEX
  5
6C7
  8
MAG_GRIDS_AS_SURVEYED
 10
734241.9010599613
 20
4555887.7094164658
 30
0.0
  0
VERTEX
  5
6C8
  8
MAG_GRIDS_AS_SURVEYED
 10
734224.81419104186
 20
4555863.0509714521
 30
0.0
  0
SEQEND
  5
6C9
  8
MAG_GRIDS_AS_SURVEYED
  0
POLYLINE
  5
8B
  8
MAG_GRIDS_AS_SURVEYED
 66
     1
 10
0.0
 20
0.0
 30
0.0
 70
     1
 40
0.5
 41
0.5
  0
VERTEX
  5
6CA
  8
MAG_GRIDS_AS_SURVEYED
 10
734232.38576713775
 20
4555821.3056575162
 30
0.0
  0
VERTEX
  5
6CB
  8
MAG_GRIDS_AS_SURVEYED
 10
734249.47263605706
 20
4555845.964102529
 30
0.0
  0
VERTEX
  5
6CC
  8
MAG_GRIDS_AS_SURVEYED
 10
734224.81419104186
 20
4555863.0509714512
 30
0.0
  0
VERTEX
  5
6CD
  8
MAG_GRIDS_AS_SURVEYED
 10
734207.72732212266
 20
4555838.3925264357
 30
0.0
  0
SEQEND
  5
6CE
  8
MAG_GRIDS_AS_SURVEYED
  0
POLYLINE
  5
8C
  8
MAG_GRIDS_AS_SURVEYED
 66
     1
 10
0.0
 20
0.0
 30
0.0
 70
     1
 40
0.5
 41
0.5
  0
VERTEX
  5
6CF
  8
MAG_GRIDS_AS_SURVEYED
 10
734170.56999999983
 20
4555973.165000001
 30
0.0
  0
VERTEX
  5
6D0
  8
MAG_GRIDS_AS_SURVEYED
 10
734200.14500000095
 20
4555968.0950000035
 30
0.0
  0
VERTEX
  5
6D1
  8
MAG_GRIDS_AS_SURVEYED
 10
734205.2150000009
 20
4555997.6700000018
 30
0.0
  0
VERTEX
  5
6D2
  8
MAG_GRIDS_AS_SURVEYED
 10
734175.64000000001
 20
4556002.7400000012
 30
0.0
  0
SEQEND
  5
6D3
  8
MAG_GRIDS_AS_SURVEYED
  0
POLYLINE
  5
8D
  8
MAG_GRIDS_AS_SURVEYED
 66
     1
 10
0.0
 20
0.0
 30
0.0
 70
     1
 40
0.5
 41
0.5
  0
VERTEX
  5
6D4
  8
MAG_GRIDS_AS_SURVEYED
 10
734165.50000000023
 20
4555943.5899999999
 30
0.0
  0
VERTEX
  5
6D5
  8
MAG_GRIDS_AS_SURVEYED
 10
734195.07500000065
 20
4555938.5199999986
 30
0.0
  0
VERTEX
  5
6D6
  8
MAG_GRIDS_AS_SURVEYED
 10
734200.14500000095
 20
4555968.0950000035
 30
0.0
  0
VERTEX
  5
6D7
  8
MAG_GRIDS_AS_SURVEYED
 10
734170.56999999983
 20
4555973.165000001
 30
0.0
  0
SEQEND
  5
6D8
  8
MAG_GRIDS_AS_SURVEYED
  0
POLYLINE
  5
8E
  8
MAG_GRIDS_AS_SURVEYED
 66
     1
 10
0.0
 20
0.0
 30
0.0
 70
     1
 40
0.5
 41
0.5
  0
VERTEX
  5
6D9
  8
MAG_GRIDS_AS_SURVEYED
 10
734140.99499999965
 20
4555978.2350000022
 30
0.0
  0
VERTEX
  5
6DA
  8
MAG_GRIDS_AS_SURVEYED
 10
734170.56999999983
 20
4555973.165000001
 30
0.0
  0
VERTEX
  5
6DB
  8
MAG_GRIDS_AS_SURVEYED
 10
734175.64000000001
 20
4556002.7400000012
 30
0.0
  0
VERTEX
  5
6DC
  8
MAG_GRIDS_AS_SURVEYED
 10
734146.06499999925
 20
4556007.8100000042
 30
0.0
  0
SEQEND
  5
6DD
  8
MAG_GRIDS_AS_SURVEYED
  0
POLYLINE
  5
8F
  8
MAG_GRIDS_AS_SURVEYED
 66
     1
 10
0.0
 20
0.0
 30
0.0
 70
     1
 40
0.5
 41
0.5
  0
VERTEX
  5
6DE
  8
MAG_GRIDS_AS_SURVEYED
 10
734135.92499999923
 20
4555948.6600000001
 30
0.0
  0
VERTEX
  5
6DF
  8
MAG_GRIDS_AS_SURVEYED
 10
734165.50000000023
 20
4555943.5899999999
 30
0.0
  0
VERTEX
  5
6E0
  8
MAG_GRIDS_AS_SURVEYED
 10
734170.56999999983
 20
4555973.165000001
 30
0.0
  0
VERTEX
  5
6E1
  8
MAG_GRIDS_AS_SURVEYED
 10
734140.99499999965
 20
4555978.2350000022
 30
0.0
  0
SEQEND
  5
6E2
  8
MAG_GRIDS_AS_SURVEYED
  0
POLYLINE
  5
90
  8
MAG_GRIDS_AS_SURVEYED
 66
     1
 10
0.0
 20
0.0
 30
0.0
 70
     1
 40
0.5
 41
0.5
  0
VERTEX
  5
6E3
  8
MAG_GRIDS_AS_SURVEYED
 10
734168.42521947203
 20
4555832.6765113277
 30
0.0
  0
VERTEX
  5
6E4
  8
MAG_GRIDS_AS_SURVEYED
 10
734195.93565695814
 20
4555844.6421216084
 30
0.0
  0
VERTEX
  5
6E5
  8
MAG_GRIDS_AS_SURVEYED
 10
734183.97004667949
 20
4555872.1525590923
 30
0.0
  0
VERTEX
  5
6E6
  8
MAG_GRIDS_AS_SURVEYED
 10
734156.45960919419
 20
4555860.1869488116
 30
0.0
  0
SEQEND
  5
6E7
  8
MAG_GRIDS_AS_SURVEYED
  0
POLYLINE
  5
91
  8
MAG_GRIDS_AS_SURVEYED
 66
     1
 10
0.0
 20
0.0
 30
0.0
 70
     1
 40
0.5
 41
0.5
  0
VERTEX
  5
6E8
  8
MAG_GRIDS_AS_SURVEYED
 10
734105.01795115182
 20
4555903.2422135072
 30
0.0
  0
VERTEX
  5
6E9
  8
MAG_GRIDS_AS_SURVEYED
 10
734132.5283886384
 20
4555915.207823785
 30
0.0
  0
VERTEX
  5
6EA
  8
MAG_GRIDS_AS_SURVEYED
 10
734120.56277835974
 20
4555942.7182612708
 30
0.0
  0
VERTEX
  5
6EB
  8
MAG_GRIDS_AS_SURVEYED
 10
734093.05234087375
 20
4555930.7526509939
 30
0.0
  0
SEQEND
  5
6EC
  8
MAG_GRIDS_AS_SURVEYED
  0
POLYLINE
  5
92
  8
MAG_GRIDS_AS_SURVEYED
 66
     1
 10
0.0
 20
0.0
 30
0.0
 70
     1
 40
0.5
 41
0.5
  0
VERTEX
  5
6ED
  8
MAG_GRIDS_AS_SURVEYED
 10
734116.98356143024
 20
4555875.7317760233
 30
0.0
  0
VERTEX
  5
6EE
  8
MAG_GRIDS_AS_SURVEYED
 10
734144.49399891554
 20
4555887.6973863002
 30
0.0
  0
VERTEX
  5
6EF
  8
MAG_GRIDS_AS_SURVEYED
 10
734132.5283886384
 20
4555915.207823785
 30
0.0
  0
VERTEX
  5
6F0
  8
MAG_GRIDS_AS_SURVEYED
 10
734105.01795115182
 20
4555903.2422135072
 30
0.0
  0
SEQEND
  5
6F1
  8
MAG_GRIDS_AS_SURVEYED
  0
POLYLINE
  5
93
  8
MAG_GRIDS_AS_SURVEYED
 66
     1
 10
0.0
 20
0.0
 30
0.0
 70
     1
 40
0.5
 41
0.5
  0
VERTEX
  5
6F2
  8
MAG_GRIDS_AS_SURVEYED
 10
734128.94917170808
 20
4555848.2213385347
 30
0.0
  0
VERTEX
  5
6F3
  8
MAG_GRIDS_AS_SURVEYED
 10
734156.45960919419
 20
4555860.1869488116
 30
0.0
  0
VERTEX
  5
6F4
  8
MAG_GRIDS_AS_SURVEYED
 10
734144.49399891554
 20
4555887.6973863002
 30
0.0
  0
VERTEX
  5
6F5
  8
MAG_GRIDS_AS_SURVEYED
 10
734116.98356143024
 20
4555875.7317760233
 30
0.0
  0
SEQEND
  5
6F6
  8
MAG_GRIDS_AS_SURVEYED
  0
POLYLINE
  5
94
  8
MAG_GRIDS_AS_SURVEYED
 66
     1
 10
0.0
 20
0.0
 30
0.0
 70
     1
 40
0.5
 41
0.5
  0
VERTEX
  5
6F7
  8
MAG_GRIDS_AS_SURVEYED
 10
734140.91478198674
 20
4555820.710901049
 30
0.0
  0
VERTEX
  5
6F8
  8
MAG_GRIDS_AS_SURVEYED
 10
734168.42521947203
 20
4555832.6765113277
 30
0.0
  0
VERTEX
  5
6F9
  8
MAG_GRIDS_AS_SURVEYED
 10
734156.45960919419
 20
4555860.1869488116
 30
0.0
  0
VERTEX
  5
6FA
  8
MAG_GRIDS_AS_SURVEYED
 10
734128.94917170808
 20
4555848.2213385347
 30
0.0
  0
SEQEND
  5
6FB
  8
MAG_GRIDS_AS_SURVEYED
  0
POLYLINE
  5
95
  8
MAG_GRIDS_AS_SURVEYED
 66
     1
 10
0.0
 20
0.0
 30
0.0
 70
     1
 40
0.5
 41
0.5
  0
VERTEX
  5
6FC
  8
MAG_GRIDS_AS_SURVEYED
 10
734124.14199528913
 20
4556009.7047465229
 30
0.0
  0
VERTEX
  5
6FD
  8
MAG_GRIDS_AS_SURVEYED
 10
734151.65243277501
 20
4556021.6703568008
 30
0.0
  0
VERTEX
  5
6FE
  8
MAG_GRIDS_AS_SURVEYED
 10
734139.68682249635
 20
4556049.1807942856
 30
0.0
  0
VERTEX
  5
6FF
  8
MAG_GRIDS_AS_SURVEYED
 10
734112.17638501059
 20
4556037.2151840078
 30
0.0
  0
SEQEND
  5
700
  8
MAG_GRIDS_AS_SURVEYED
  0
POLYLINE
  5
96
  8
MAG_GRIDS_AS_SURVEYED
 66
     1
 10
0.0
 20
0.0
 30
0.0
 70
     1
 40
0.5
 41
0.5
  0
VERTEX
  5
701
  8
MAG_GRIDS_AS_SURVEYED
 10
734084.6659475253
 20
4556025.2495737281
 30
0.0
  0
VERTEX
  5
702
  8
MAG_GRIDS_AS_SURVEYED
 10
734112.17638501059
 20
4556037.2151840078
 30
0.0
  0
VERTEX
  5
703
  8
MAG_GRIDS_AS_SURVEYED
 10
734100.21077473264
 20
4556064.7256214907
 30
0.0
  0
VERTEX
  5
704
  8
MAG_GRIDS_AS_SURVEYED
 10
734072.70033724664
 20
4556052.7600112148
 30
0.0
  0
SEQEND
  5
705
  8
MAG_GRIDS_AS_SURVEYED
  0
POLYLINE
  5
97
  8
MAG_GRIDS_AS_SURVEYED
 66
     1
 10
0.0
 20
0.0
 30
0.0
 70
     1
 40
0.5
 41
0.5
  0
VERTEX
  5
706
  8
MAG_GRIDS_AS_SURVEYED
 10
734096.63155780325
 20
4555997.7391362432
 30
0.0
  0
VERTEX
  5
707
  8
MAG_GRIDS_AS_SURVEYED
 10
734124.14199528913
 20
4556009.7047465229
 30
0.0
  0
VERTEX
  5
708
  8
MAG_GRIDS_AS_SURVEYED
 10
734112.17638501059
 20
4556037.2151840078
 30
0.0
  0
VERTEX
  5
709
  8
MAG_GRIDS_AS_SURVEYED
 10
734084.6659475253
 20
4556025.2495737281
 30
0.0
  0
SEQEND
  5
70A
  8
MAG_GRIDS_AS_SURVEYED
  0
POLYLINE
  5
98
  8
MAG_GRIDS_AS_SURVEYED
 66
     1
 10
0.0
 20
0.0
 30
0.0
 70
     1
 40
0.5
 41
0.5
  0
VERTEX
  5
70B
  8
MAG_GRIDS_AS_SURVEYED
 10
734108.59716808109
 20
4555970.2286987584
 30
0.0
  0
VERTEX
  5
70C
  8
MAG_GRIDS_AS_SURVEYED
 10
734136.10760556685
 20
4555982.1943090372
 30
0.0
  0
VERTEX
  5
70D
  8
MAG_GRIDS_AS_SURVEYED
 10
734124.14199528913
 20
4556009.7047465229
 30
0.0
  0
VERTEX
  5
70E
  8
MAG_GRIDS_AS_SURVEYED
 10
734096.63155780325
 20
4555997.7391362432
 30
0.0
  0
SEQEND
  5
70F
  8
MAG_GRIDS_AS_SURVEYED
  0
POLYLINE
  5
99
  8
MAG_GRIDS_AS_SURVEYED
 66
     1
 10
0.0
 20
0.0
 30
0.0
 70
     1
 40
0.5
 41
0.5
  0
VERTEX
  5
710
  8
MAG_GRIDS_AS_SURVEYED
 10
734045.18989976065
 20
4556040.7944009379
 30
0.0
  0
VERTEX
  5
711
  8
MAG_GRIDS_AS_SURVEYED
 10
734072.70033724664
 20
4556052.7600112148
 30
0.0
  0
VERTEX
  5
712
  8
MAG_GRIDS_AS_SURVEYED
 10
734060.73472696799
 20
4556080.2704487015
 30
0.0
  0
VERTEX
  5
713
  8
MAG_GRIDS_AS_SURVEYED
 10
734033.22428948199
 20
4556068.3048384227
 30
0.0
  0
SEQEND
  5
714
  8
MAG_GRIDS_AS_SURVEYED
  0
POLYLINE
  5
9A
  8
MAG_GRIDS_AS_SURVEYED
 66
     1
 10
0.0
 20
0.0
 30
0.0
 70
     1
 40
0.5
 41
0.5
  0
VERTEX
  5
715
  8
MAG_GRIDS_AS_SURVEYED
 10
734057.15551003895
 20
4556013.2839634521
 30
0.0
  0
VERTEX
  5
716
  8
MAG_GRIDS_AS_SURVEYED
 10
734084.6659475253
 20
4556025.2495737281
 30
0.0
  0
VERTEX
  5
717
  8
MAG_GRIDS_AS_SURVEYED
 10
734072.70033724664
 20
4556052.7600112148
 30
0.0
  0
VERTEX
  5
718
  8
MAG_GRIDS_AS_SURVEYED
 10
734045.18989976065
 20
4556040.7944009379
 30
0.0
  0
SEQEND
  5
719
  8
MAG_GRIDS_AS_SURVEYED
  0
POLYLINE
  5
9B
  8
MAG_GRIDS_AS_SURVEYED
 66
     1
 10
0.0
 20
0.0
 30
0.0
 70
     1
 40
0.5
 41
0.5
  0
VERTEX
  5
71A
  8
MAG_GRIDS_AS_SURVEYED
 10
734069.12112031796
 20
4555985.7735259663
 30
0.0
  0
VERTEX
  5
71B
  8
MAG_GRIDS_AS_SURVEYED
 10
734096.63155780325
 20
4555997.7391362432
 30
0.0
  0
VERTEX
  5
71C
  8
MAG_GRIDS_AS_SURVEYED
 10
734084.6659475253
 20
4556025.2495737281
 30
0.0
  0
VERTEX
  5
71D
  8
MAG_GRIDS_AS_SURVEYED
 10
734057.15551003895
 20
4556013.2839634521
 30
0.0
  0
SEQEND
  5
71E
  8
MAG_GRIDS_AS_SURVEYED
  0
POLYLINE
  5
9C
  8
MAG_GRIDS_AS_SURVEYED
 66
     1
 10
0.0
 20
0.0
 30
0.0
 70
     1
 40
0.5
 41
0.5
  0
VERTEX
  5
71F
  8
MAG_GRIDS_AS_SURVEYED
 10
734081.08673059486
 20
4555958.2630884787
 30
0.0
  0
VERTEX
  5
720
  8
MAG_GRIDS_AS_SURVEYED
 10
734108.59716808109
 20
4555970.2286987584
 30
0.0
  0
VERTEX
  5
721
  8
MAG_GRIDS_AS_SURVEYED
 10
734096.63155780325
 20
4555997.7391362432
 30
0.0
  0
VERTEX
  5
722
  8
MAG_GRIDS_AS_SURVEYED
 10
734069.12112031796
 20
4555985.7735259663
 30
0.0
  0
SEQEND
  5
723
  8
MAG_GRIDS_AS_SURVEYED
  0
POLYLINE
  5
9D
  8
MAG_GRIDS_AS_SURVEYED
 66
     1
 10
0.0
 20
0.0
 30
0.0
 70
     1
 40
0.5
 41
0.5
  0
VERTEX
  5
724
  8
MAG_GRIDS_AS_SURVEYED
 10
734093.05234087375
 20
4555930.7526509939
 30
0.0
  0
VERTEX
  5
725
  8
MAG_GRIDS_AS_SURVEYED
 10
734120.56277835974
 20
4555942.7182612708
 30
0.0
  0
VERTEX
  5
726
  8
MAG_GRIDS_AS_SURVEYED
 10
734108.59716808109
 20
4555970.2286987584
 30
0.0
  0
VERTEX
  5
727
  8
MAG_GRIDS_AS_SURVEYED
 10
734081.08673059486
 20
4555958.2630884787
 30
0.0
  0
SEQEND
  5
728
  8
MAG_GRIDS_AS_SURVEYED
  0
POLYLINE
  5
9E
  8
MAG_GRIDS_AS_SURVEYED
 66
     1
 10
0.0
 20
0.0
 30
0.0
 70
     1
 40
0.5
 41
0.5
  0
VERTEX
  5
729
  8
MAG_GRIDS_AS_SURVEYED
 10
734005.71385199646
 20
4556056.3392281448
 30
0.0
  0
VERTEX
  5
72A
  8
MAG_GRIDS_AS_SURVEYED
 10
734033.22428948199
 20
4556068.3048384227
 30
0.0
  0
VERTEX
  5
72B
  8
MAG_GRIDS_AS_SURVEYED
 10
734021.25867920462
 20
4556095.8152759094
 30
0.0
  0
VERTEX
  5
72C
  8
MAG_GRIDS_AS_SURVEYED
 10
733993.74824171839
 20
4556083.8496656315
 30
0.0
  0
SEQEND
  5
72D
  8
MAG_GRIDS_AS_SURVEYED
  0
POLYLINE
  5
9F
  8
MAG_GRIDS_AS_SURVEYED
 66
     1
 10
0.0
 20
0.0
 30
0.0
 70
     1
 40
0.5
 41
0.5
  0
VERTEX
  5
72E
  8
MAG_GRIDS_AS_SURVEYED
 10
734017.67946227512
 20
4556028.82879066
 30
0.0
  0
VERTEX
  5
72F
  8
MAG_GRIDS_AS_SURVEYED
 10
734045.18989976065
 20
4556040.7944009379
 30
0.0
  0
VERTEX
  5
730
  8
MAG_GRIDS_AS_SURVEYED
 10
734033.22428948199
 20
4556068.3048384227
 30
0.0
  0
VERTEX
  5
731
  8
MAG_GRIDS_AS_SURVEYED
 10
734005.71385199646
 20
4556056.3392281448
 30
0.0
  0
SEQEND
  5
732
  8
MAG_GRIDS_AS_SURVEYED
  0
POLYLINE
  5
A0
  8
MAG_GRIDS_AS_SURVEYED
 66
     1
 10
0.0
 20
0.0
 30
0.0
 70
     1
 40
0.5
 41
0.5
  0
VERTEX
  5
733
  8
MAG_GRIDS_AS_SURVEYED
 10
734029.64507255331
 20
4556001.3183531743
 30
0.0
  0
VERTEX
  5
734
  8
MAG_GRIDS_AS_SURVEYED
 10
734057.15551003895
 20
4556013.2839634521
 30
0.0
  0
VERTEX
  5
735
  8
MAG_GRIDS_AS_SURVEYED
 10
734045.18989976065
 20
4556040.7944009379
 30
0.0
  0
VERTEX
  5
736
  8
MAG_GRIDS_AS_SURVEYED
 10
734017.67946227512
 20
4556028.82879066
 30
0.0
  0
SEQEND
  5
737
  8
MAG_GRIDS_AS_SURVEYED
  0
POLYLINE
  5
A1
  8
MAG_GRIDS_AS_SURVEYED
 66
     1
 10
0.0
 20
0.0
 30
0.0
 70
     1
 40
0.5
 41
0.5
  0
VERTEX
  5
738
  8
MAG_GRIDS_AS_SURVEYED
 10
734041.61068283138
 20
4555973.8079156866
 30
0.0
  0
VERTEX
  5
739
  8
MAG_GRIDS_AS_SURVEYED
 10
734069.12112031796
 20
4555985.7735259663
 30
0.0
  0
VERTEX
  5
73A
  8
MAG_GRIDS_AS_SURVEYED
 10
734057.15551003895
 20
4556013.2839634521
 30
0.0
  0
VERTEX
  5
73B
  8
MAG_GRIDS_AS_SURVEYED
 10
734029.64507255331
 20
4556001.3183531743
 30
0.0
  0
SEQEND
  5
73C
  8
MAG_GRIDS_AS_SURVEYED
  0
POLYLINE
  5
A2
  8
MAG_GRIDS_AS_SURVEYED
 66
     1
 10
0.0
 20
0.0
 30
0.0
 70
     1
 40
0.5
 41
0.5
  0
VERTEX
  5
73D
  8
MAG_GRIDS_AS_SURVEYED
 10
734053.57629310945
 20
4555946.2974782009
 30
0.0
  0
VERTEX
  5
73E
  8
MAG_GRIDS_AS_SURVEYED
 10
734081.08673059486
 20
4555958.2630884787
 30
0.0
  0
VERTEX
  5
73F
  8
MAG_GRIDS_AS_SURVEYED
 10
734069.12112031796
 20
4555985.7735259663
 30
0.0
  0
VERTEX
  5
740
  8
MAG_GRIDS_AS_SURVEYED
 10
734041.61068283138
 20
4555973.8079156866
 30
0.0
  0
SEQEND
  5
741
  8
MAG_GRIDS_AS_SURVEYED
  0
POLYLINE
  5
A3
  8
MAG_GRIDS_AS_SURVEYED
 66
     1
 10
0.0
 20
0.0
 30
0.0
 70
     1
 40
0.5
 41
0.5
  0
VERTEX
  5
742
  8
MAG_GRIDS_AS_SURVEYED
 10
734269.53700000013
 20
4556135.8559999997
 30
0.0
  0
VERTEX
  5
743
  8
MAG_GRIDS_AS_SURVEYED
 10
734288.6109999998
 20
4556159.0129999984
 30
0.0
  0
VERTEX
  5
744
  8
MAG_GRIDS_AS_SURVEYED
 10
734265.45399999968
 20
4556178.0869999984
 30
0.0
  0
VERTEX
  5
745
  8
MAG_GRIDS_AS_SURVEYED
 10
734246.38
 20
4556154.9299999988
 30
0.0
  0
SEQEND
  5
746
  8
MAG_GRIDS_AS_SURVEYED
  0
POLYLINE
  5
A4
  8
MAG_GRIDS_AS_SURVEYED
 66
     1
 10
0.0
 20
0.0
 30
0.0
 70
     1
 40
0.5
 41
0.5
  0
VERTEX
  5
747
  8
MAG_GRIDS_AS_SURVEYED
 10
734292.69400000025
 20
4556116.7819999997
 30
0.0
  0
VERTEX
  5
748
  8
MAG_GRIDS_AS_SURVEYED
 10
734311.76799999981
 20
4556139.9389999984
 30
0.0
  0
VERTEX
  5
749
  8
MAG_GRIDS_AS_SURVEYED
 10
734288.6109999998
 20
4556159.0129999984
 30
0.0
  0
VERTEX
  5
74A
  8
MAG_GRIDS_AS_SURVEYED
 10
734269.53700000013
 20
4556135.8559999997
 30
0.0
  0
SEQEND
  5
74B
  8
MAG_GRIDS_AS_SURVEYED
  0
POLYLINE
  5
A5
  8
MAG_GRIDS_AS_SURVEYED
 66
     1
 10
0.0
 20
0.0
 30
0.0
 70
     1
 40
0.5
 41
0.5
  0
VERTEX
  5
74C
  8
MAG_GRIDS_AS_SURVEYED
 10
734315.85099999956
 20
4556097.7079999978
 30
0.0
  0
VERTEX
  5
74D
  8
MAG_GRIDS_AS_SURVEYED
 10
734334.92499999935
 20
4556120.8649999956
 30
0.0
  0
VERTEX
  5
74E
  8
MAG_GRIDS_AS_SURVEYED
 10
734311.76799999981
 20
4556139.9389999984
 30
0.0
  0
VERTEX
  5
74F
  8
MAG_GRIDS_AS_SURVEYED
 10
734292.69400000025
 20
4556116.7819999997
 30
0.0
  0
SEQEND
  5
750
  8
MAG_GRIDS_AS_SURVEYED
  0
POLYLINE
  5
A6
  8
MAG_GRIDS_AS_SURVEYED
 66
     1
 10
0.0
 20
0.0
 30
0.0
 70
     1
 40
0.5
 41
0.5
  0
VERTEX
  5
751
  8
MAG_GRIDS_AS_SURVEYED
 10
734339.00799999957
 20
4556078.6339999977
 30
0.0
  0
VERTEX
  5
752
  8
MAG_GRIDS_AS_SURVEYED
 10
734358.08199999935
 20
4556101.7909999983
 30
0.0
  0
VERTEX
  5
753
  8
MAG_GRIDS_AS_SURVEYED
 10
734334.92499999935
 20
4556120.8649999956
 30
0.0
  0
VERTEX
  5
754
  8
MAG_GRIDS_AS_SURVEYED
 10
734315.85099999956
 20
4556097.7079999978
 30
0.0
  0
SEQEND
  5
755
  8
MAG_GRIDS_AS_SURVEYED
  0
POLYLINE
  5
A7
  8
MAG_GRIDS_AS_SURVEYED
 66
     1
 10
0.0
 20
0.0
 30
0.0
 70
     1
 40
0.5
 41
0.5
  0
VERTEX
  5
756
  8
MAG_GRIDS_AS_SURVEYED
 10
734250.46300000045
 20
4556112.6989999972
 30
0.0
  0
VERTEX
  5
757
  8
MAG_GRIDS_AS_SURVEYED
 10
734269.53700000013
 20
4556135.8559999997
 30
0.0
  0
VERTEX
  5
758
  8
MAG_GRIDS_AS_SURVEYED
 10
734246.38
 20
4556154.9299999988
 30
0.0
  0
VERTEX
  5
759
  8
MAG_GRIDS_AS_SURVEYED
 10
734227.3060000001
 20
4556131.7729999982
 30
0.0
  0
SEQEND
  5
75A
  8
MAG_GRIDS_AS_SURVEYED
  0
POLYLINE
  5
A8
  8
MAG_GRIDS_AS_SURVEYED
 66
     1
 10
0.0
 20
0.0
 30
0.0
 70
     1
 40
0.5
 41
0.5
  0
VERTEX
  5
75B
  8
MAG_GRIDS_AS_SURVEYED
 10
734273.62
 20
4556093.6249999991
 30
0.0
  0
VERTEX
  5
75C
  8
MAG_GRIDS_AS_SURVEYED
 10
734292.69400000025
 20
4556116.7819999997
 30
0.0
  0
VERTEX
  5
75D
  8
MAG_GRIDS_AS_SURVEYED
 10
734269.53700000013
 20
4556135.8559999997
 30
0.0
  0
VERTEX
  5
75E
  8
MAG_GRIDS_AS_SURVEYED
 10
734250.46300000045
 20
4556112.6989999972
 30
0.0
  0
SEQEND
  5
75F
  8
MAG_GRIDS_AS_SURVEYED
  0
POLYLINE
  5
A9
  8
MAG_GRIDS_AS_SURVEYED
 66
     1
 10
0.0
 20
0.0
 30
0.0
 70
     1
 40
0.5
 41
0.5
  0
VERTEX
  5
760
  8
MAG_GRIDS_AS_SURVEYED
 10
734296.77699999965
 20
4556074.5509999981
 30
0.0
  0
VERTEX
  5
761
  8
MAG_GRIDS_AS_SURVEYED
 10
734315.85099999956
 20
4556097.7079999978
 30
0.0
  0
VERTEX
  5
762
  8
MAG_GRIDS_AS_SURVEYED
 10
734292.69400000025
 20
4556116.7819999997
 30
0.0
  0
VERTEX
  5
763
  8
MAG_GRIDS_AS_SURVEYED
 10
734273.62
 20
4556093.6249999991
 30
0.0
  0
SEQEND
  5
764
  8
MAG_GRIDS_AS_SURVEYED
  0
POLYLINE
  5
AA
  8
MAG_GRIDS_AS_SURVEYED
 66
     1
 10
0.0
 20
0.0
 30
0.0
 70
     1
 40
0.5
 41
0.5
  0
VERTEX
  5
765
  8
MAG_GRIDS_AS_SURVEYED
 10
734319.93400000012
 20
4556055.477
 30
0.0
  0
VERTEX
  5
766
  8
MAG_GRIDS_AS_SURVEYED
 10
734339.00799999957
 20
4556078.6339999977
 30
0.0
  0
VERTEX
  5
767
  8
MAG_GRIDS_AS_SURVEYED
 10
734315.85099999956
 20
4556097.7079999978
 30
0.0
  0
VERTEX
  5
768
  8
MAG_GRIDS_AS_SURVEYED
 10
734296.77699999965
 20
4556074.5509999981
 30
0.0
  0
SEQEND
  5
769
  8
MAG_GRIDS_AS_SURVEYED
  0
POLYLINE
  5
AB
  8
MAG_GRIDS_AS_SURVEYED
 66
     1
 10
0.0
 20
0.0
 30
0.0
 70
     1
 40
0.5
 41
0.5
  0
VERTEX
  5
76A
  8
MAG_GRIDS_AS_SURVEYED
 10
734231.38900000043
 20
4556089.5419999957
 30
0.0
  0
VERTEX
  5
76B
  8
MAG_GRIDS_AS_SURVEYED
 10
734250.46300000045
 20
4556112.6989999972
 30
0.0
  0
VERTEX
  5
76C
  8
MAG_GRIDS_AS_SURVEYED
 10
734227.3060000001
 20
4556131.7729999982
 30
0.0
  0
VERTEX
  5
76D
  8
MAG_GRIDS_AS_SURVEYED
 10
734208.23200000019
 20
4556108.6159999957
 30
0.0
  0
SEQEND
  5
76E
  8
MAG_GRIDS_AS_SURVEYED
  0
POLYLINE
  5
AC
  8
MAG_GRIDS_AS_SURVEYED
 66
     1
 10
0.0
 20
0.0
 30
0.0
 70
     1
 40
0.5
 41
0.5
  0
VERTEX
  5
76F
  8
MAG_GRIDS_AS_SURVEYED
 10
734254.54600000056
 20
4556070.4679999966
 30
0.0
  0
VERTEX
  5
770
  8
MAG_GRIDS_AS_SURVEYED
 10
734273.62
 20
4556093.6249999991
 30
0.0
  0
VERTEX
  5
771
  8
MAG_GRIDS_AS_SURVEYED
 10
734250.46300000045
 20
4556112.6989999972
 30
0.0
  0
VERTEX
  5
772
  8
MAG_GRIDS_AS_SURVEYED
 10
734231.38900000043
 20
4556089.5419999957
 30
0.0
  0
SEQEND
  5
773
  8
MAG_GRIDS_AS_SURVEYED
  0
POLYLINE
  5
AD
  8
MAG_GRIDS_AS_SURVEYED
 66
     1
 10
0.0
 20
0.0
 30
0.0
 70
     1
 40
0.5
 41
0.5
  0
VERTEX
  5
774
  8
MAG_GRIDS_AS_SURVEYED
 10
734277.70299999998
 20
4556051.3940000003
 30
0.0
  0
VERTEX
  5
775
  8
MAG_GRIDS_AS_SURVEYED
 10
734296.77699999965
 20
4556074.5509999981
 30
0.0
  0
VERTEX
  5
776
  8
MAG_GRIDS_AS_SURVEYED
 10
734273.62
 20
4556093.6249999991
 30
0.0
  0
VERTEX
  5
777
  8
MAG_GRIDS_AS_SURVEYED
 10
734254.54600000056
 20
4556070.4679999966
 30
0.0
  0
SEQEND
  5
778
  8
MAG_GRIDS_AS_SURVEYED
  0
POLYLINE
  5
AE
  8
MAG_GRIDS_AS_SURVEYED
 66
     1
 10
0.0
 20
0.0
 30
0.0
 70
     1
 40
0.5
 41
0.5
  0
VERTEX
  5
779
  8
MAG_GRIDS_AS_SURVEYED
 10
734300.85999999999
 20
4556032.3200000003
 30
0.0
  0
VERTEX
  5
77A
  8
MAG_GRIDS_AS_SURVEYED
 10
734319.93400000012
 20
4556055.477
 30
0.0
  0
VERTEX
  5
77B
  8
MAG_GRIDS_AS_SURVEYED
 10
734296.77699999965
 20
4556074.5509999981
 30
0.0
  0
VERTEX
  5
77C
  8
MAG_GRIDS_AS_SURVEYED
 10
734277.70299999998
 20
4556051.3940000003
 30
0.0
  0
SEQEND
  5
77D
  8
MAG_GRIDS_AS_SURVEYED
  0
POLYLINE
  5
AF
  8
MAG_GRIDS_AS_SURVEYED
 66
     1
 10
0.0
 20
0.0
 30
0.0
 70
     1
 40
0.5
 41
0.5
  0
VERTEX
  5
77E
  8
MAG_GRIDS_AS_SURVEYED
 10
734324.01699999999
 20
4556013.2459999993
 30
0.0
  0
VERTEX
  5
77F
  8
MAG_GRIDS_AS_SURVEYED
 10
734343.09099999955
 20
4556036.4029999999
 30
0.0
  0
VERTEX
  5
780
  8
MAG_GRIDS_AS_SURVEYED
 10
734319.93400000012
 20
4556055.477
 30
0.0
  0
VERTEX
  5
781
  8
MAG_GRIDS_AS_SURVEYED
 10
734300.85999999999
 20
4556032.3200000003
 30
0.0
  0
SEQEND
  5
782
  8
MAG_GRIDS_AS_SURVEYED
  0
POLYLINE
  5
B0
  8
MAG_GRIDS_AS_SURVEYED
 66
     1
 10
0.0
 20
0.0
 30
0.0
 70
     1
 40
0.5
 41
0.5
  0
VERTEX
  5
783
  8
MAG_GRIDS_AS_SURVEYED
 10
734281.78600000055
 20
4556009.1629999969
 30
0.0
  0
VERTEX
  5
784
  8
MAG_GRIDS_AS_SURVEYED
 10
734300.85999999999
 20
4556032.3200000003
 30
0.0
  0
VERTEX
  5
785
  8
MAG_GRIDS_AS_SURVEYED
 10
734277.70299999998
 20
4556051.3940000003
 30
0.0
  0
VERTEX
  5
786
  8
MAG_GRIDS_AS_SURVEYED
 10
734258.62900000042
 20
4556028.2369999979
 30
0.0
  0
SEQEND
  5
787
  8
MAG_GRIDS_AS_SURVEYED
  0
POLYLINE
  5
B1
  8
MAG_GRIDS_AS_SURVEYED
 66
     1
 10
0.0
 20
0.0
 30
0.0
 70
     1
 40
0.5
 41
0.5
  0
VERTEX
  5
788
  8
MAG_GRIDS_AS_SURVEYED
 10
734304.94300000055
 20
4555990.0889999978
 30
0.0
  0
VERTEX
  5
789
  8
MAG_GRIDS_AS_SURVEYED
 10
734324.01699999999
 20
4556013.2459999993
 30
0.0
  0
VERTEX
  5
78A
  8
MAG_GRIDS_AS_SURVEYED
 10
734300.85999999999
 20
4556032.3200000003
 30
0.0
  0
VERTEX
  5
78B
  8
MAG_GRIDS_AS_SURVEYED
 10
734281.78600000055
 20
4556009.1629999969
 30
0.0
  0
SEQEND
  5
78C
  8
MAG_GRIDS_AS_SURVEYED
  0
ENDSEC
  0
EOF
