  0
SECTION
  2
HEADER
  9
$ACADVER
  1
AC1009
  9
$INSBASE
 10
0.0
 20
0.0
 30
0.0
  9
$EXTMIN
 10
726454.11926263
 20
4548493.7563677523
 30
-0.1525762492710783
  9
$EXTMAX
 10
744167.52649515984
 20
4572915.0066589061
 30
0.2288876569691638
  9
$LIMMIN
 10
0.0
 20
0.0
  9
$LIMMAX
 10
12.0
 20
9.0
  9
$ORTHOMODE
 70
     0
  9
$REGENMODE
 70
     1
  9
$FILLMODE
 70
     1
  9
$QTEXTMODE
 70
     0
  9
$MIRRTEXT
 70
     1
  9
$DRAGMODE
 70
     2
  9
$LTSCALE
 40
1.0
  9
$OSMODE
 70
   613
  9
$ATTMODE
 70
     1
  9
$TEXTSIZE
 40
0.2
  9
$TRACEWID
 40
0.05
  9
$TEXTSTYLE
  7
STANDARD
  9
$CLAYER
  8
CLUSTERS
  9
$CELTYPE
  6
BYLAYER
  9
$CECOLOR
 62
   256
  9
$DIMSCALE
 40
1.0
  9
$DIMASZ
 40
0.18
  9
$DIMEXO
 40
0.0625
  9
$DIMDLI
 40
0.38
  9
$DIMRND
 40
0.0
  9
$DIMDLE
 40
0.0
  9
$DIMEXE
 40
0.18
  9
$DIMTP
 40
0.0
  9
$DIMTM
 40
0.0
  9
$DIMTXT
 40
0.18
  9
$DIMCEN
 40
0.09
  9
$DIMTSZ
 40
0.0
  9
$DIMTOL
 70
     0
  9
$DIMLIM
 70
     0
  9
$DIMTIH
 70
     1
  9
$DIMTOH
 70
     1
  9
$DIMSE1
 70
     0
  9
$DIMSE2
 70
     0
  9
$DIMTAD
 70
     0
  9
$DIMZIN
 70
     0
  9
$DIMBLK
  1

  9
$DIMASO
 70
     1
  9
$DIMSHO
 70
     1
  9
$DIMPOST
  1

  9
$DIMAPOST
  1

  9
$DIMALT
 70
     0
  9
$DIMALTD
 70
     2
  9
$DIMALTF
 40
25.399999999999999
  9
$DIMLFAC
 40
1.0
  9
$DIMTOFL
 70
     0
  9
$DIMTVP
 40
0.0
  9
$DIMTIX
 70
     0
  9
$DIMSOXD
 70
     0
  9
$DIMSAH
 70
     0
  9
$DIMBLK1
  1

  9
$DIMBLK2
  1

  9
$DIMSTYLE
  2
STANDARD
  9
$DIMCLRD
 70
     0
  9
$DIMCLRE
 70
     0
  9
$DIMCLRT
 70
     0
  9
$DIMTFAC
 40
1.0
  9
$DIMGAP
 40
0.09
  9
$LUNITS
 70
     2
  9
$LUPREC
 70
     4
  9
$SKETCHINC
 40
0.1
  9
$FILLETRAD
 40
0.5
  9
$AUNITS
 70
     0
  9
$AUPREC
 70
     0
  9
$MENU
  1
.
  9
$ELEVATION
 40
0.0
  9
$PELEVATION
 40
0.0
  9
$THICKNESS
 40
0.0
  9
$LIMCHECK
 70
     0
  9
$BLIPMODE
 70
     0
  9
$CHAMFERA
 40
0.5
  9
$CHAMFERB
 40
0.5
  9
$SKPOLY
 70
     0
  9
$TDCREATE
 40
2455395.9464814821
  9
$TDUPDATE
 40
2456131.9729169682
  9
$TDINDWG
 40
0.2578766319
  9
$TDUSRTIMER
 40
0.2578766319
  9
$USRTIMER
 70
     1
  9
$ANGBASE
 50
0.0
  9
$ANGDIR
 70
     1
  9
$PDMODE
 70
    66
  9
$PDSIZE
 40
0.0
  9
$PLINEWID
 40
0.0
  9
$COORDS
 70
     1
  9
$SPLFRAME
 70
     0
  9
$SPLINETYPE
 70
     6
  9
$SPLINESEGS
 70
     8
  9
$ATTDIA
 70
     0
  9
$ATTREQ
 70
     1
  9
$HANDLING
 70
     1
  9
$HANDSEED
  5
8AA
  9
$SURFTAB1
 70
     6
  9
$SURFTAB2
 70
     6
  9
$SURFTYPE
 70
     6
  9
$SURFU
 70
     6
  9
$SURFV
 70
     6
  9
$UCSNAME
  2

  9
$UCSORG
 10
0.0
 20
0.0
 30
0.0
  9
$UCSXDIR
 10
1.0
 20
0.0
 30
0.0
  9
$UCSYDIR
 10
0.0
 20
1.0
 30
0.0
  9
$PUCSNAME
  2

  9
$PUCSORG
 10
0.0
 20
0.0
 30
0.0
  9
$PUCSXDIR
 10
1.0
 20
0.0
 30
0.0
  9
$PUCSYDIR
 10
0.0
 20
1.0
 30
0.0
  9
$USERI1
 70
     0
  9
$USERI2
 70
     0
  9
$USERI3
 70
     0
  9
$USERI4
 70
     0
  9
$USERI5
 70
     0
  9
$USERR1
 40
0.0
  9
$USERR2
 40
0.0
  9
$USERR3
 40
0.0
  9
$USERR4
 40
0.0
  9
$USERR5
 40
0.0
  9
$WORLDVIEW
 70
     1
  9
$SHADEDGE
 70
     3
  9
$SHADEDIF
 70
    70
  9
$TILEMODE
 70
     1
  9
$MAXACTVP
 70
    64
  9
$PLIMCHECK
 70
     0
  9
$PEXTMIN
 10
0.0
 20
0.0
 30
0.0
  9
$PEXTMAX
 10
0.0
 20
0.0
 30
0.0
  9
$PLIMMIN
 10
0.0
 20
0.0
  9
$PLIMMAX
 10
12.0
 20
9.0
  9
$UNITMODE
 70
     0
  9
$VISRETAIN
 70
     1
  9
$PLINEGEN
 70
     0
  9
$PSLTSCALE
 70
     1
  0
ENDSEC
  0
SECTION
  2
TABLES
  0
TABLE
  2
VPORT
 70
     1
  0
VPORT
  2
*ACTIVE
 70
     0
 10
0.0
 20
0.0
 11
1.0
 21
1.0
 12
742305.1115024389
 22
4563786.8464402398
 13
0.0
 23
0.0
 14
0.5
 24
0.5
 15
0.5
 25
0.5
 16
0.0
 26
0.0
 36
1.0
 17
0.0
 27
0.0
 37
0.0
 40
39327.49154074688
 41
1.4411764705882351
 42
50.0
 43
0.0
 44
0.0
 50
0.0
 51
0.0
 71
     0
 72
   100
 73
     1
 74
     2
 75
     0
 76
     0
 77
     0
 78
     0
  0
ENDTAB
  0
TABLE
  2
LTYPE
 70
     1
  0
LTYPE
  2
CONTINUOUS
 70
     0
  3
Solid line
 72
    65
 73
     0
 40
0.0
  0
ENDTAB
  0
TABLE
  2
LAYER
 70
     2
  0
LAYER
  2
0
 70
     0
 62
     7
  6
CONTINUOUS
  0
LAYER
  2
CLUSTERS
 70
     0
 62
     6
  6
CONTINUOUS
  0
ENDTAB
  0
TABLE
  2
STYLE
 70
     1
  0
STYLE
  2
STANDARD
 70
     0
 40
0.0
 41
1.0
 50
0.0
 71
     0
 42
0.2
  3
txt
  4

  0
ENDTAB
  0
TABLE
  2
VIEW
 70
     0
  0
ENDTAB
  0
TABLE
  2
UCS
 70
     0
  0
ENDTAB
  0
TABLE
  2
APPID
 70
     3
  0
APPID
  2
ACAD
 70
     0
  0
APPID
  2
ADE
 70
     0
  0
APPID
  2
ACAECLAYERSTANDARD
 70
     0
  0
ENDTAB
  0
TABLE
  2
DIMSTYLE
 70
     1
  0
DIMSTYLE
  2
STANDARD
 70
     0
  3

  4

  5

  6

  7

 40
1.0
 41
0.18
 42
0.0625
 43
0.38
 44
0.18
 45
0.0
 46
0.0
 47
0.0
 48
0.0
140
0.18
141
0.09
142
0.0
143
25.399999999999999
144
1.0
145
0.0
146
1.0
147
0.09
 71
     0
 72
     0
 73
     1
 74
     1
 75
     0
 76
     0
 77
     0
 78
     0
170
     0
171
     2
172
     0
173
     0
174
     0
175
     0
176
     0
177
     0
178
     0
  0
ENDTAB
  0
ENDSEC
  0
SECTION
  2
BLOCKS
  0
BLOCK
  8
0
  2
$MODEL_SPACE
 70
     0
 10
0.0
 20
0.0
 30
0.0
  3
$MODEL_SPACE
  1

  0
ENDBLK
  5
17
  8
0
  0
BLOCK
 67
     1
  8
0
  2
$PAPER_SPACE
 70
     0
 10
0.0
 20
0.0
 30
0.0
  3
$PAPER_SPACE
  1

  0
ENDBLK
  5
1E
 67
     1
  8
0
  0
ENDSEC
  0
SECTION
  2
ENTITIES
  0
POLYLINE
  5
72
  8
CLUSTERS
 66
     1
 10
0.0
 20
0.0
 30
0.0
 70
     1
  0
VERTEX
  5
171
  8
CLUSTERS
 10
732758.06452726817
 20
4560363.3255215064
 30
0.0
  0
VERTEX
  5
172
  8
CLUSTERS
 10
732785.88394565193
 20
4560409.1798225697
 30
0.0
  0
VERTEX
  5
173
  8
CLUSTERS
 10
732777.53808790585
 20
4560442.5284173712
 30
0.0
  0
VERTEX
  5
174
  8
CLUSTERS
 10
732751.10959209513
 20
4560456.4236763967
 30
0.0
  0
VERTEX
  5
175
  8
CLUSTERS
 10
732712.16247081966
 20
4560435.5807878571
 30
0.0
  0
VERTEX
  5
176
  8
CLUSTERS
 10
732705.20753564662
 20
4560407.7903369563
 30
0.0
  0
SEQEND
  5
177
  8
CLUSTERS
  0
POLYLINE
  5
73
  8
CLUSTERS
 66
     1
 10
0.0
 20
0.0
 30
0.0
 70
     1
  0
VERTEX
  5
178
  8
CLUSTERS
 10
731736.58358054247
 20
4559381.7254018644
 30
0.0
  0
VERTEX
  5
179
  8
CLUSTERS
 10
731852.66541612952
 20
4559381.7254018644
 30
0.0
  0
VERTEX
  5
17A
  8
CLUSTERS
 10
731852.66541612952
 20
4559484.8504128056
 30
0.0
  0
VERTEX
  5
17B
  8
CLUSTERS
 10
731736.58358054247
 20
4559484.8504128056
 30
0.0
  0
SEQEND
  5
17C
  8
CLUSTERS
  0
POLYLINE
  5
74
  8
CLUSTERS
 66
     1
 10
0.0
 20
0.0
 30
0.0
 70
     1
  0
VERTEX
  5
17D
  8
CLUSTERS
 10
741659.97432965098
 20
4572152.1775627686
 30
0.0
  0
VERTEX
  5
17E
  8
CLUSTERS
 10
741850.80578963645
 20
4572320.7230783254
 30
0.0
  0
VERTEX
  5
17F
  8
CLUSTERS
 10
741804.20732100948
 20
4572380.6011562953
 30
0.0
  0
VERTEX
  5
180
  8
CLUSTERS
 10
741586.74843760254
 20
4572280.8044019211
 30
0.0
  0
SEQEND
  5
181
  8
CLUSTERS
  0
POLYLINE
  5
75
  8
CLUSTERS
 66
     1
 10
0.0
 20
0.0
 30
0.0
 70
     1
  0
VERTEX
  5
182
  8
CLUSTERS
 10
741779.79869032651
 20
4571996.9381670784
 30
0.0
  0
VERTEX
  5
183
  8
CLUSTERS
 10
741857.46267733455
 20
4572050.1630900716
 30
0.0
  0
VERTEX
  5
184
  8
CLUSTERS
 10
741849.20206866204
 20
4572107.3239704547
 30
0.0
  0
VERTEX
  5
185
  8
CLUSTERS
 10
741719.88657367404
 20
4572052.3808083963
 30
0.0
  0
SEQEND
  5
186
  8
CLUSTERS
  0
POLYLINE
  5
76
  8
CLUSTERS
 66
     1
 10
0.0
 20
0.0
 30
0.0
 70
     1
  0
VERTEX
  5
187
  8
CLUSTERS
 10
741899.62305100216
 20
4571990.2850754652
 30
0.0
  0
VERTEX
  5
188
  8
CLUSTERS
 10
742016.87567550153
 20
4571971.9723143913
 30
0.0
  0
VERTEX
  5
189
  8
CLUSTERS
 10
742016.87567550153
 20
4572126.6598941656
 30
0.0
  0
VERTEX
  5
18A
  8
CLUSTERS
 10
741892.96616330405
 20
4572067.9047733098
 30
0.0
  0
SEQEND
  5
18B
  8
CLUSTERS
  0
POLYLINE
  5
77
  8
CLUSTERS
 66
     1
 10
0.0
 20
0.0
 30
0.0
 70
     1
  0
VERTEX
  5
18C
  8
CLUSTERS
 10
741897.40413089294
 20
4571364.8923094971
 30
0.0
  0
VERTEX
  5
18D
  8
CLUSTERS
 10
741997.25770110416
 20
4571418.1172324894
 30
0.0
  0
VERTEX
  5
18E
  8
CLUSTERS
 10
741963.97313524375
 20
4571480.2129654214
 30
0.0
  0
VERTEX
  5
18F
  8
CLUSTERS
 10
741921.8127615758
 20
4571458.0359088937
 30
0.0
  0
SEQEND
  5
190
  8
CLUSTERS
  0
POLYLINE
  5
78
  8
CLUSTERS
 66
     1
 10
0.0
 20
0.0
 30
0.0
 70
     1
  0
VERTEX
  5
191
  8
CLUSTERS
 10
742255.48836584599
 20
4571140.5267711086
 30
0.0
  0
VERTEX
  5
192
  8
CLUSTERS
 10
742442.50903019705
 20
4571140.5267711086
 30
0.0
  0
VERTEX
  5
193
  8
CLUSTERS
 10
742442.50903019705
 20
4571295.2143508829
 30
0.0
  0
VERTEX
  5
194
  8
CLUSTERS
 10
742255.48836584599
 20
4571295.2143508829
 30
0.0
  0
SEQEND
  5
195
  8
CLUSTERS
  0
POLYLINE
  5
79
  8
CLUSTERS
 66
     1
 10
0.0
 20
0.0
 30
0.0
 70
     1
  0
VERTEX
  5
196
  8
CLUSTERS
 10
743022.91795339109
 20
4570296.1906331377
 30
0.0
  0
VERTEX
  5
197
  8
CLUSTERS
 10
743255.08162456506
 20
4570296.1906331377
 30
0.0
  0
VERTEX
  5
198
  8
CLUSTERS
 10
743255.08162456506
 20
4570450.8781495513
 30
0.0
  0
VERTEX
  5
199
  8
CLUSTERS
 10
743022.91795339109
 20
4570450.8781495513
 30
0.0
  0
SEQEND
  5
19A
  8
CLUSTERS
  0
POLYLINE
  5
7A
  8
CLUSTERS
 66
     1
 10
0.0
 20
0.0
 30
0.0
 70
     1
  0
VERTEX
  5
19B
  8
CLUSTERS
 10
740778.66985380847
 20
4570547.5578948306
 30
0.0
  0
VERTEX
  5
19C
  8
CLUSTERS
 10
740881.85365105444
 20
4570547.5578948306
 30
0.0
  0
VERTEX
  5
19D
  8
CLUSTERS
 10
740881.85365105444
 20
4570663.5735638207
 30
0.0
  0
VERTEX
  5
19E
  8
CLUSTERS
 10
740778.66985380847
 20
4570663.5735638207
 30
0.0
  0
SEQEND
  5
19F
  8
CLUSTERS
  0
POLYLINE
  5
7B
  8
CLUSTERS
 66
     1
 10
0.0
 20
0.0
 30
0.0
 70
     1
  0
VERTEX
  5
1A0
  8
CLUSTERS
 10
740372.38355662453
 20
4570379.979720369
 30
0.0
  0
VERTEX
  5
1A1
  8
CLUSTERS
 10
740469.11846207036
 20
4570379.979720369
 30
0.0
  0
VERTEX
  5
1A2
  8
CLUSTERS
 10
740469.11846207036
 20
4570515.3313130718
 30
0.0
  0
VERTEX
  5
1A3
  8
CLUSTERS
 10
740372.38355662453
 20
4570515.3313130718
 30
0.0
  0
SEQEND
  5
1A4
  8
CLUSTERS
  0
POLYLINE
  5
7C
  8
CLUSTERS
 66
     1
 10
0.0
 20
0.0
 30
0.0
 70
     1
  0
VERTEX
  5
1A5
  8
CLUSTERS
 10
742938.38080370985
 20
4569798.838358351
 30
0.0
  0
VERTEX
  5
1A6
  8
CLUSTERS
 10
743041.56460095604
 20
4569798.838358351
 30
0.0
  0
VERTEX
  5
1A7
  8
CLUSTERS
 10
743059.43288787629
 20
4569897.2325410014
 30
0.0
  0
VERTEX
  5
1A8
  8
CLUSTERS
 10
743003.45626250049
 20
4569915.8808015883
 30
0.0
  0
SEQEND
  5
1A9
  8
CLUSTERS
  0
POLYLINE
  5
7D
  8
CLUSTERS
 66
     1
 10
0.0
 20
0.0
 30
0.0
 70
     1
  0
VERTEX
  5
1AA
  8
CLUSTERS
 10
743286.62618310051
 20
4569450.7914147386
 30
0.0
  0
VERTEX
  5
1AB
  8
CLUSTERS
 10
743389.80998034636
 20
4569450.7914147386
 30
0.0
  0
VERTEX
  5
1AC
  8
CLUSTERS
 10
743389.80998034636
 20
4569553.9164256817
 30
0.0
  0
VERTEX
  5
1AD
  8
CLUSTERS
 10
743286.62618310051
 20
4569553.9164256817
 30
0.0
  0
SEQEND
  5
1AE
  8
CLUSTERS
  0
POLYLINE
  5
7E
  8
CLUSTERS
 66
     1
 10
0.0
 20
0.0
 30
0.0
 70
     1
  0
VERTEX
  5
1AF
  8
CLUSTERS
 10
742899.68694342778
 20
4568973.838144091
 30
0.0
  0
VERTEX
  5
1B0
  8
CLUSTERS
 10
742983.52381053276
 20
4568973.838144091
 30
0.0
  0
VERTEX
  5
1B1
  8
CLUSTERS
 10
742983.52381053276
 20
4569070.5178893702
 30
0.0
  0
VERTEX
  5
1B2
  8
CLUSTERS
 10
742899.68694342778
 20
4569070.5178893702
 30
0.0
  0
SEQEND
  5
1B3
  8
CLUSTERS
  0
POLYLINE
  5
7F
  8
CLUSTERS
 66
     1
 10
0.0
 20
0.0
 30
0.0
 70
     1
  0
VERTEX
  5
1B4
  8
CLUSTERS
 10
742783.60510784097
 20
4569083.4084840585
 30
0.0
  0
VERTEX
  5
1B5
  8
CLUSTERS
 10
742867.44197494595
 20
4569083.4084840585
 30
0.0
  0
VERTEX
  5
1B6
  8
CLUSTERS
 10
742867.44197494595
 20
4569167.1975712879
 30
0.0
  0
VERTEX
  5
1B7
  8
CLUSTERS
 10
742783.60510784097
 20
4569167.1975712879
 30
0.0
  0
SEQEND
  5
1B8
  8
CLUSTERS
  0
POLYLINE
  5
80
  8
CLUSTERS
 66
     1
 10
0.0
 20
0.0
 30
0.0
 70
     1
  0
VERTEX
  5
1B9
  8
CLUSTERS
 10
742628.82941197185
 20
4568967.3928150656
 30
0.0
  0
VERTEX
  5
1BA
  8
CLUSTERS
 10
742738.46222838841
 20
4568967.3928150656
 30
0.0
  0
VERTEX
  5
1BB
  8
CLUSTERS
 10
742738.46222838841
 20
4569064.0725603458
 30
0.0
  0
VERTEX
  5
1BC
  8
CLUSTERS
 10
742628.82941197185
 20
4569064.0725603458
 30
0.0
  0
SEQEND
  5
1BD
  8
CLUSTERS
  0
POLYLINE
  5
81
  8
CLUSTERS
 66
     1
 10
0.0
 20
0.0
 30
0.0
 70
     1
  0
VERTEX
  5
1BE
  8
CLUSTERS
 10
742875.03921289404
 20
4568736.2254925007
 30
0.0
  0
VERTEX
  5
1BF
  8
CLUSTERS
 10
742929.54167858395
 20
4568742.3676827298
 30
0.0
  0
VERTEX
  5
1C0
  8
CLUSTERS
 10
742938.38080370985
 20
4568793.369374943
 30
0.0
  0
VERTEX
  5
1C1
  8
CLUSTERS
 10
742876.98901850299
 20
4568782.9730583001
 30
0.0
  0
SEQEND
  5
1C2
  8
CLUSTERS
  0
POLYLINE
  5
82
  8
CLUSTERS
 66
     1
 10
0.0
 20
0.0
 30
0.0
 70
     1
  0
VERTEX
  5
1C3
  8
CLUSTERS
 10
742724.90128023946
 20
4568717.7212211275
 30
0.0
  0
VERTEX
  5
1C4
  8
CLUSTERS
 10
742802.28912817396
 20
4568717.7212211275
 30
0.0
  0
VERTEX
  5
1C5
  8
CLUSTERS
 10
742802.28912817396
 20
4568788.6196503108
 30
0.0
  0
VERTEX
  5
1C6
  8
CLUSTERS
 10
742724.90128023946
 20
4568788.6196503108
 30
0.0
  0
SEQEND
  5
1C7
  8
CLUSTERS
  0
POLYLINE
  5
83
  8
CLUSTERS
 66
     1
 10
0.0
 20
0.0
 30
0.0
 70
     1
  0
VERTEX
  5
1C8
  8
CLUSTERS
 10
742699.76824073598
 20
4568193.9551062789
 30
0.0
  0
VERTEX
  5
1C9
  8
CLUSTERS
 10
742796.50301881135
 20
4568193.9551062789
 30
0.0
  0
VERTEX
  5
1CA
  8
CLUSTERS
 10
742796.50301881135
 20
4568290.6348515581
 30
0.0
  0
VERTEX
  5
1CB
  8
CLUSTERS
 10
742699.76824073598
 20
4568290.6348515581
 30
0.0
  0
SEQEND
  5
1CC
  8
CLUSTERS
  0
POLYLINE
  5
84
  8
CLUSTERS
 66
     1
 10
0.0
 20
0.0
 30
0.0
 70
     1
  0
VERTEX
  5
1CD
  8
CLUSTERS
 10
742280.5840325813
 20
4567833.0175046204
 30
0.0
  0
VERTEX
  5
1CE
  8
CLUSTERS
 10
742377.3188106569
 20
4567833.0175046204
 30
0.0
  0
VERTEX
  5
1CF
  8
CLUSTERS
 10
742377.3188106569
 20
4567942.587844586
 30
0.0
  0
VERTEX
  5
1D0
  8
CLUSTERS
 10
742280.5840325813
 20
4567942.587844586
 30
0.0
  0
SEQEND
  5
1D1
  8
CLUSTERS
  0
POLYLINE
  5
85
  8
CLUSTERS
 66
     1
 10
0.0
 20
0.0
 30
0.0
 70
     1
  0
VERTEX
  5
1D2
  8
CLUSTERS
 10
741732.41995049885
 20
4568819.1506276783
 30
0.0
  0
VERTEX
  5
1D3
  8
CLUSTERS
 10
741842.05276691518
 20
4568819.1506276783
 30
0.0
  0
VERTEX
  5
1D4
  8
CLUSTERS
 10
741842.05276691518
 20
4568909.3850439331
 30
0.0
  0
VERTEX
  5
1D5
  8
CLUSTERS
 10
741732.41995049885
 20
4568909.3850439331
 30
0.0
  0
SEQEND
  5
1D6
  8
CLUSTERS
  0
POLYLINE
  5
86
  8
CLUSTERS
 66
     1
 10
0.0
 20
0.0
 30
0.0
 70
     1
  0
VERTEX
  5
1D7
  8
CLUSTERS
 10
741229.39874786895
 20
4569695.713347408
 30
0.0
  0
VERTEX
  5
1D8
  8
CLUSTERS
 10
741377.72555193794
 20
4569695.713347408
 30
0.0
  0
VERTEX
  5
1D9
  8
CLUSTERS
 10
741377.72555193794
 20
4569824.6196110854
 30
0.0
  0
VERTEX
  5
1DA
  8
CLUSTERS
 10
741229.39874786895
 20
4569824.6196110854
 30
0.0
  0
SEQEND
  5
1DB
  8
CLUSTERS
  0
POLYLINE
  5
87
  8
CLUSTERS
 66
     1
 10
0.0
 20
0.0
 30
0.0
 70
     1
  0
VERTEX
  5
1DC
  8
CLUSTERS
 10
741409.97052041977
 20
4569457.236743764
 30
0.0
  0
VERTEX
  5
1DD
  8
CLUSTERS
 10
741506.70529849525
 20
4569457.236743764
 30
0.0
  0
VERTEX
  5
1DE
  8
CLUSTERS
 10
741506.70529849525
 20
4569547.4710966581
 30
0.0
  0
VERTEX
  5
1DF
  8
CLUSTERS
 10
741409.97052041977
 20
4569547.4710966581
 30
0.0
  0
SEQEND
  5
1E0
  8
CLUSTERS
  0
POLYLINE
  5
88
  8
CLUSTERS
 66
     1
 10
0.0
 20
0.0
 30
0.0
 70
     1
  0
VERTEX
  5
1E1
  8
CLUSTERS
 10
740004.09096451662
 20
4569721.4946001442
 30
0.0
  0
VERTEX
  5
1E2
  8
CLUSTERS
 10
740133.07071107416
 20
4569721.4946001442
 30
0.0
  0
VERTEX
  5
1E3
  8
CLUSTERS
 10
740133.07071107416
 20
4569824.6196110854
 30
0.0
  0
VERTEX
  5
1E4
  8
CLUSTERS
 10
740004.09096451662
 20
4569824.6196110854
 30
0.0
  0
SEQEND
  5
1E5
  8
CLUSTERS
  0
POLYLINE
  5
89
  8
CLUSTERS
 66
     1
 10
0.0
 20
0.0
 30
0.0
 70
     1
  0
VERTEX
  5
1E6
  8
CLUSTERS
 10
740016.98887548735
 20
4569856.8461928451
 30
0.0
  0
VERTEX
  5
1E7
  8
CLUSTERS
 10
740126.62169190368
 20
4569856.8461928451
 30
0.0
  0
VERTEX
  5
1E8
  8
CLUSTERS
 10
740126.62169190368
 20
4569947.080609099
 30
0.0
  0
VERTEX
  5
1E9
  8
CLUSTERS
 10
740016.98887548735
 20
4569947.080609099
 30
0.0
  0
SEQEND
  5
1EA
  8
CLUSTERS
  0
POLYLINE
  5
8A
  8
CLUSTERS
 66
     1
 10
0.0
 20
0.0
 30
0.0
 70
     1
  0
VERTEX
  5
1EB
  8
CLUSTERS
 10
739797.72324265423
 20
4569186.5335583603
 30
0.0
  0
VERTEX
  5
1EC
  8
CLUSTERS
 10
739868.66219878884
 20
4569186.5335583603
 30
0.0
  0
VERTEX
  5
1ED
  8
CLUSTERS
 10
739868.66219878884
 20
4569276.7679112544
 30
0.0
  0
VERTEX
  5
1EE
  8
CLUSTERS
 10
739797.72324265423
 20
4569276.7679112544
 30
0.0
  0
SEQEND
  5
1EF
  8
CLUSTERS
  0
POLYLINE
  5
8B
  8
CLUSTERS
 66
     1
 10
0.0
 20
0.0
 30
0.0
 70
     1
  0
VERTEX
  5
1F0
  8
CLUSTERS
 10
740532.90798908775
 20
4568658.0177822411
 30
0.0
  0
VERTEX
  5
1F1
  8
CLUSTERS
 10
740636.09178633371
 20
4568658.0177822411
 30
0.0
  0
VERTEX
  5
1F2
  8
CLUSTERS
 10
740636.09178633371
 20
4568741.8068694714
 30
0.0
  0
VERTEX
  5
1F3
  8
CLUSTERS
 10
740532.90798908775
 20
4568741.8068694714
 30
0.0
  0
SEQEND
  5
1F4
  8
CLUSTERS
  0
POLYLINE
  5
8C
  8
CLUSTERS
 66
     1
 10
0.0
 20
0.0
 30
0.0
 70
     1
  0
VERTEX
  5
1F5
  8
CLUSTERS
 10
741487.35836835427
 20
4567594.5409009773
 30
0.0
  0
VERTEX
  5
1F6
  8
CLUSTERS
 10
741603.44020394131
 20
4567594.5409009773
 30
0.0
  0
VERTEX
  5
1F7
  8
CLUSTERS
 10
741603.44020394131
 20
4567697.6659119176
 30
0.0
  0
VERTEX
  5
1F8
  8
CLUSTERS
 10
741487.35836835427
 20
4567697.6659119176
 30
0.0
  0
SEQEND
  5
1F9
  8
CLUSTERS
  0
POLYLINE
  5
8D
  8
CLUSTERS
 66
     1
 10
0.0
 20
0.0
 30
0.0
 70
     1
  0
VERTEX
  5
1FA
  8
CLUSTERS
 10
741015.95394328865
 20
4567648.4808592917
 30
0.0
  0
VERTEX
  5
1FB
  8
CLUSTERS
 10
741111.36967328121
 20
4567648.4808592917
 30
0.0
  0
VERTEX
  5
1FC
  8
CLUSTERS
 10
741139.07517820084
 20
4567755.5453072377
 30
0.0
  0
VERTEX
  5
1FD
  8
CLUSTERS
 10
741015.95394328865
 20
4567746.0598953394
 30
0.0
  0
SEQEND
  5
1FE
  8
CLUSTERS
  0
POLYLINE
  5
8E
  8
CLUSTERS
 66
     1
 10
0.0
 20
0.0
 30
0.0
 70
     1
  0
VERTEX
  5
1FF
  8
CLUSTERS
 10
739877.62270792609
 20
4568025.4906935329
 30
0.0
  0
VERTEX
  5
200
  8
CLUSTERS
 10
739939.75387205824
 20
4568025.4906935329
 30
0.0
  0
VERTEX
  5
201
  8
CLUSTERS
 10
739939.75387205824
 20
4568085.3687081393
 30
0.0
  0
VERTEX
  5
202
  8
CLUSTERS
 10
739877.62270792609
 20
4568085.3687081393
 30
0.0
  0
SEQEND
  5
203
  8
CLUSTERS
  0
POLYLINE
  5
8F
  8
CLUSTERS
 66
     1
 10
0.0
 20
0.0
 30
0.0
 70
     1
  0
VERTEX
  5
204
  8
CLUSTERS
 10
739786.64507289266
 20
4568118.6342929294
 30
0.0
  0
VERTEX
  5
205
  8
CLUSTERS
 10
739833.24341414915
 20
4568118.6342929294
 30
0.0
  0
VERTEX
  5
206
  8
CLUSTERS
 10
739833.24341414915
 20
4568185.1654625107
 30
0.0
  0
VERTEX
  5
207
  8
CLUSTERS
 10
739786.64507289266
 20
4568185.1654625107
 30
0.0
  0
SEQEND
  5
208
  8
CLUSTERS
  0
POLYLINE
  5
90
  8
CLUSTERS
 66
     1
 10
0.0
 20
0.0
 30
0.0
 70
     1
  0
VERTEX
  5
209
  8
CLUSTERS
 10
739706.76216577541
 20
4568012.184446943
 30
0.0
  0
VERTEX
  5
20A
  8
CLUSTERS
 10
739788.86399300175
 20
4568012.184446943
 30
0.0
  0
VERTEX
  5
20B
  8
CLUSTERS
 10
739788.86399300175
 20
4568080.9333348507
 30
0.0
  0
VERTEX
  5
20C
  8
CLUSTERS
 10
739706.76216577541
 20
4568080.9333348507
 30
0.0
  0
SEQEND
  5
20D
  8
CLUSTERS
  0
POLYLINE
  5
91
  8
CLUSTERS
 66
     1
 10
0.0
 20
0.0
 30
0.0
 70
     1
  0
VERTEX
  5
20E
  8
CLUSTERS
 10
739927.40339915839
 20
4567401.181537142
 30
0.0
  0
VERTEX
  5
20F
  8
CLUSTERS
 10
740017.68915806338
 20
4567401.181537142
 30
0.0
  0
VERTEX
  5
210
  8
CLUSTERS
 10
740017.68915806338
 20
4567491.4159533968
 30
0.0
  0
VERTEX
  5
211
  8
CLUSTERS
 10
739927.40339915839
 20
4567491.4159533968
 30
0.0
  0
SEQEND
  5
212
  8
CLUSTERS
  0
POLYLINE
  5
92
  8
CLUSTERS
 66
     1
 10
0.0
 20
0.0
 30
0.0
 70
     1
  0
VERTEX
  5
213
  8
CLUSTERS
 10
739875.81150053535
 20
4567227.1580970166
 30
0.0
  0
VERTEX
  5
214
  8
CLUSTERS
 10
739998.3422279224
 20
4567227.1580970166
 30
0.0
  0
VERTEX
  5
215
  8
CLUSTERS
 10
739998.3422279224
 20
4567323.8377789352
 30
0.0
  0
VERTEX
  5
216
  8
CLUSTERS
 10
739875.81150053535
 20
4567323.8377789352
 30
0.0
  0
SEQEND
  5
217
  8
CLUSTERS
  0
POLYLINE
  5
93
  8
CLUSTERS
 66
     1
 10
0.0
 20
0.0
 30
0.0
 70
     1
  0
VERTEX
  5
218
  8
CLUSTERS
 10
739534.01501294493
 20
4566679.3063338231
 30
0.0
  0
VERTEX
  5
219
  8
CLUSTERS
 10
739688.7908361844
 20
4566679.3063338231
 30
0.0
  0
VERTEX
  5
21A
  8
CLUSTERS
 10
739688.7908361844
 20
4566853.3298373092
 30
0.0
  0
VERTEX
  5
21B
  8
CLUSTERS
 10
739534.01501294493
 20
4566853.3298373092
 30
0.0
  0
SEQEND
  5
21C
  8
CLUSTERS
  0
POLYLINE
  5
94
  8
CLUSTERS
 66
     1
 10
0.0
 20
0.0
 30
0.0
 70
     1
  0
VERTEX
  5
21D
  8
CLUSTERS
 10
738972.95301989187
 20
4566337.704719238
 30
0.0
  0
VERTEX
  5
21E
  8
CLUSTERS
 10
739114.83080479037
 20
4566337.704719238
 30
0.0
  0
VERTEX
  5
21F
  8
CLUSTERS
 10
739114.83080479037
 20
4566492.3922356507
 30
0.0
  0
VERTEX
  5
220
  8
CLUSTERS
 10
738972.95301989187
 20
4566492.3922356507
 30
0.0
  0
SEQEND
  5
221
  8
CLUSTERS
  0
POLYLINE
  5
95
  8
CLUSTERS
 66
     1
 10
0.0
 20
0.0
 30
0.0
 70
     1
  0
VERTEX
  5
222
  8
CLUSTERS
 10
739617.85188005003
 20
4566292.5874794303
 30
0.0
  0
VERTEX
  5
223
  8
CLUSTERS
 10
739766.17868411879
 20
4566292.5874794303
 30
0.0
  0
VERTEX
  5
224
  8
CLUSTERS
 10
739766.17868411879
 20
4566415.0484774448
 30
0.0
  0
VERTEX
  5
225
  8
CLUSTERS
 10
739617.85188005003
 20
4566415.0484774448
 30
0.0
  0
SEQEND
  5
226
  8
CLUSTERS
  0
POLYLINE
  5
96
  8
CLUSTERS
 66
     1
 10
0.0
 20
0.0
 30
0.0
 70
     1
  0
VERTEX
  5
227
  8
CLUSTERS
 10
742087.81463163614
 20
4566621.2985626897
 30
0.0
  0
VERTEX
  5
228
  8
CLUSTERS
 10
742203.8963398526
 20
4566621.2985626897
 30
0.0
  0
VERTEX
  5
229
  8
CLUSTERS
 10
742203.8963398526
 20
4566737.3141683191
 30
0.0
  0
VERTEX
  5
22A
  8
CLUSTERS
 10
742087.81463163614
 20
4566737.3141683191
 30
0.0
  0
SEQEND
  5
22B
  8
CLUSTERS
  0
POLYLINE
  5
97
  8
CLUSTERS
 66
     1
 10
0.0
 20
0.0
 30
0.0
 70
     1
  0
VERTEX
  5
22C
  8
CLUSTERS
 10
741159.16020168108
 20
4565048.6418290157
 30
0.0
  0
VERTEX
  5
22D
  8
CLUSTERS
 10
741242.99706878618
 20
4565048.6418290157
 30
0.0
  0
VERTEX
  5
22E
  8
CLUSTERS
 10
741255.0082765168
 20
4565149.9847444929
 30
0.0
  0
VERTEX
  5
22F
  8
CLUSTERS
 10
741159.16020168108
 20
4565151.7669033203
 30
0.0
  0
SEQEND
  5
230
  8
CLUSTERS
  0
POLYLINE
  5
98
  8
CLUSTERS
 66
     1
 10
0.0
 20
0.0
 30
0.0
 70
     1
  0
VERTEX
  5
231
  8
CLUSTERS
 10
740127.32197447994
 20
4565055.0871580411
 30
0.0
  0
VERTEX
  5
232
  8
CLUSTERS
 10
740249.85282923735
 20
4565055.0871580411
 30
0.0
  0
VERTEX
  5
233
  8
CLUSTERS
 10
740249.85282923735
 20
4565177.5481560556
 30
0.0
  0
VERTEX
  5
234
  8
CLUSTERS
 10
740127.32197447994
 20
4565177.5481560556
 30
0.0
  0
SEQEND
  5
235
  8
CLUSTERS
  0
POLYLINE
  5
99
  8
CLUSTERS
 66
     1
 10
0.0
 20
0.0
 30
0.0
 70
     1
  0
VERTEX
  5
236
  8
CLUSTERS
 10
738800.39717743394
 20
4564705.9204253973
 30
0.0
  0
VERTEX
  5
237
  8
CLUSTERS
 10
738859.48367901589
 20
4564709.0285005094
 30
0.0
  0
VERTEX
  5
238
  8
CLUSTERS
 10
738863.32020347554
 20
4564784.3839726374
 30
0.0
  0
VERTEX
  5
239
  8
CLUSTERS
 10
738773.03431719996
 20
4564784.3839726374
 30
0.0
  0
SEQEND
  5
23A
  8
CLUSTERS
  0
POLYLINE
  5
9A
  8
CLUSTERS
 66
     1
 10
0.0
 20
0.0
 30
0.0
 70
     1
  0
VERTEX
  5
23B
  8
CLUSTERS
 10
738308.70722959284
 20
4565067.97781609
 30
0.0
  0
VERTEX
  5
23C
  8
CLUSTERS
 10
738469.93194463232
 20
4565067.97781609
 30
0.0
  0
VERTEX
  5
23D
  8
CLUSTERS
 10
738469.93194463232
 20
4565203.3294087918
 30
0.0
  0
VERTEX
  5
23E
  8
CLUSTERS
 10
738308.70722959284
 20
4565203.3294087918
 30
0.0
  0
SEQEND
  5
23F
  8
CLUSTERS
  0
POLYLINE
  5
9B
  8
CLUSTERS
 66
     1
 10
0.0
 20
0.0
 30
0.0
 70
     1
  0
VERTEX
  5
240
  8
CLUSTERS
 10
736780.29681893229
 20
4565461.1419361467
 30
0.0
  0
VERTEX
  5
241
  8
CLUSTERS
 10
736909.27656548971
 20
4565461.1419361467
 30
0.0
  0
VERTEX
  5
242
  8
CLUSTERS
 10
736909.27656548971
 20
4565596.4935288494
 30
0.0
  0
VERTEX
  5
243
  8
CLUSTERS
 10
736780.29681893229
 20
4565596.4935288494
 30
0.0
  0
SEQEND
  5
244
  8
CLUSTERS
  0
POLYLINE
  5
9C
  8
CLUSTERS
 66
     1
 10
0.0
 20
0.0
 30
0.0
 70
     1
  0
VERTEX
  5
245
  8
CLUSTERS
 10
736960.86846411275
 20
4565461.1419361467
 30
0.0
  0
VERTEX
  5
246
  8
CLUSTERS
 10
737083.39931887027
 20
4565461.1419361467
 30
0.0
  0
VERTEX
  5
247
  8
CLUSTERS
 10
737083.39931887027
 20
4565596.4935288494
 30
0.0
  0
VERTEX
  5
248
  8
CLUSTERS
 10
736960.86846411275
 20
4565596.4935288494
 30
0.0
  0
SEQEND
  5
249
  8
CLUSTERS
  0
POLYLINE
  5
9D
  8
CLUSTERS
 66
     1
 10
0.0
 20
0.0
 30
0.0
 70
     1
  0
VERTEX
  5
24A
  8
CLUSTERS
 10
737160.78716680477
 20
4565287.1184960222
 30
0.0
  0
VERTEX
  5
24B
  8
CLUSTERS
 10
737257.52207225072
 20
4565287.1184960222
 30
0.0
  0
VERTEX
  5
24C
  8
CLUSTERS
 10
737257.52207225072
 20
4565370.9075832535
 30
0.0
  0
VERTEX
  5
24D
  8
CLUSTERS
 10
737160.78716680477
 20
4565370.9075832535
 30
0.0
  0
SEQEND
  5
24E
  8
CLUSTERS
  0
POLYLINE
  5
9E
  8
CLUSTERS
 66
     1
 10
0.0
 20
0.0
 30
0.0
 70
     1
  0
VERTEX
  5
24F
  8
CLUSTERS
 10
737109.19526818185
 20
4565138.8762452723
 30
0.0
  0
VERTEX
  5
250
  8
CLUSTERS
 10
737212.3790654277
 20
4565138.8762452723
 30
0.0
  0
VERTEX
  5
251
  8
CLUSTERS
 10
737212.3790654277
 20
4565229.1106615262
 30
0.0
  0
VERTEX
  5
252
  8
CLUSTERS
 10
737109.19526818185
 20
4565229.1106615262
 30
0.0
  0
SEQEND
  5
253
  8
CLUSTERS
  0
POLYLINE
  5
9F
  8
CLUSTERS
 66
     1
 10
0.0
 20
0.0
 30
0.0
 70
     1
  0
VERTEX
  5
254
  8
CLUSTERS
 10
730488.04771037609
 20
4562843.0300625879
 30
0.0
  0
VERTEX
  5
255
  8
CLUSTERS
 10
730519.14583558484
 20
4562843.0300625879
 30
0.0
  0
VERTEX
  5
256
  8
CLUSTERS
 10
730519.14583558484
 20
4562874.1104969019
 30
0.0
  0
VERTEX
  5
257
  8
CLUSTERS
 10
730488.04771037609
 20
4562874.1104969019
 30
0.0
  0
SEQEND
  5
258
  8
CLUSTERS
  0
POLYLINE
  5
A0
  8
CLUSTERS
 66
     1
 10
0.0
 20
0.0
 30
0.0
 70
     1
  0
VERTEX
  5
259
  8
CLUSTERS
 10
730461.61427210597
 20
4562777.7611822123
 30
0.0
  0
VERTEX
  5
25A
  8
CLUSTERS
 10
730506.70658550144
 20
4562777.7611822123
 30
0.0
  0
VERTEX
  5
25B
  8
CLUSTERS
 10
730506.70658550144
 20
4562816.6117092632
 30
0.0
  0
VERTEX
  5
25C
  8
CLUSTERS
 10
730461.61427210597
 20
4562816.6117092632
 30
0.0
  0
SEQEND
  5
25D
  8
CLUSTERS
  0
POLYLINE
  5
A1
  8
CLUSTERS
 66
     1
 10
0.0
 20
0.0
 30
0.0
 70
     1
  0
VERTEX
  5
25E
  8
CLUSTERS
 10
729687.27038124145
 20
4562686.07394851
 30
0.0
  0
VERTEX
  5
25F
  8
CLUSTERS
 10
729759.2048645888
 20
4562650.9850078067
 30
0.0
  0
VERTEX
  5
260
  8
CLUSTERS
 10
729724.58813149203
 20
4562721.8164004488
 30
0.0
  0
VERTEX
  5
261
  8
CLUSTERS
 10
729681.81701665418
 20
4562741.2194240624
 30
0.0
  0
SEQEND
  5
262
  8
CLUSTERS
  0
POLYLINE
  5
A2
  8
CLUSTERS
 66
     1
 10
0.0
 20
0.0
 30
0.0
 70
     1
  0
VERTEX
  5
263
  8
CLUSTERS
 10
732525.82096957206
 20
4563656.4540545773
 30
0.0
  0
VERTEX
  5
264
  8
CLUSTERS
 10
732693.49470378202
 20
4563656.4540545773
 30
0.0
  0
VERTEX
  5
265
  8
CLUSTERS
 10
732693.49470378202
 20
4563785.3603182547
 30
0.0
  0
VERTEX
  5
266
  8
CLUSTERS
 10
732525.82096957206
 20
4563785.3603182547
 30
0.0
  0
SEQEND
  5
267
  8
CLUSTERS
  0
POLYLINE
  5
A3
  8
CLUSTERS
 66
     1
 10
0.0
 20
0.0
 30
0.0
 70
     1
  0
VERTEX
  5
268
  8
CLUSTERS
 10
732687.04568461166
 20
4563456.649298355
 30
0.0
  0
VERTEX
  5
269
  8
CLUSTERS
 10
732816.02555853955
 20
4563456.649298355
 30
0.0
  0
VERTEX
  5
26A
  8
CLUSTERS
 10
732816.02555853955
 20
4563630.672801842
 30
0.0
  0
VERTEX
  5
26B
  8
CLUSTERS
 10
732687.04568461166
 20
4563630.672801842
 30
0.0
  0
SEQEND
  5
26C
  8
CLUSTERS
  0
POLYLINE
  5
A4
  8
CLUSTERS
 66
     1
 10
0.0
 20
0.0
 30
0.0
 70
     1
  0
VERTEX
  5
26D
  8
CLUSTERS
 10
731764.84027382697
 20
4562663.8756658556
 30
0.0
  0
VERTEX
  5
26E
  8
CLUSTERS
 10
731938.96302720765
 20
4562663.8756658556
 30
0.0
  0
VERTEX
  5
26F
  8
CLUSTERS
 10
731938.96302720765
 20
4562812.1178532448
 30
0.0
  0
VERTEX
  5
270
  8
CLUSTERS
 10
731764.84027382697
 20
4562812.1178532448
 30
0.0
  0
SEQEND
  5
271
  8
CLUSTERS
  0
POLYLINE
  5
A5
  8
CLUSTERS
 66
     1
 10
0.0
 20
0.0
 30
0.0
 70
     1
  0
VERTEX
  5
272
  8
CLUSTERS
 10
732035.69780528301
 20
4562064.4613971924
 30
0.0
  0
VERTEX
  5
273
  8
CLUSTERS
 10
732190.47362852248
 20
4562064.4613971924
 30
0.0
  0
VERTEX
  5
274
  8
CLUSTERS
 10
732190.47362852248
 20
4562219.1489769667
 30
0.0
  0
VERTEX
  5
275
  8
CLUSTERS
 10
732035.69780528301
 20
4562219.1489769667
 30
0.0
  0
SEQEND
  5
276
  8
CLUSTERS
  0
POLYLINE
  5
A6
  8
CLUSTERS
 66
     1
 10
0.0
 20
0.0
 30
0.0
 70
     1
  0
VERTEX
  5
277
  8
CLUSTERS
 10
733132.02596944803
 20
4562244.930229702
 30
0.0
  0
VERTEX
  5
278
  8
CLUSTERS
 10
733215.86283655302
 20
4562244.930229702
 30
0.0
  0
VERTEX
  5
279
  8
CLUSTERS
 10
733215.86283655302
 20
4562328.7193169333
 30
0.0
  0
VERTEX
  5
27A
  8
CLUSTERS
 10
733132.02596944803
 20
4562328.7193169333
 30
0.0
  0
SEQEND
  5
27B
  8
CLUSTERS
  0
POLYLINE
  5
A7
  8
CLUSTERS
 66
     1
 10
0.0
 20
0.0
 30
0.0
 70
     1
  0
VERTEX
  5
27C
  8
CLUSTERS
 10
733325.49565296934
 20
4562251.3755587274
 30
0.0
  0
VERTEX
  5
27D
  8
CLUSTERS
 10
733435.12846938614
 20
4562251.3755587274
 30
0.0
  0
VERTEX
  5
27E
  8
CLUSTERS
 10
733435.12846938614
 20
4562328.7193169333
 30
0.0
  0
VERTEX
  5
27F
  8
CLUSTERS
 10
733325.49565296934
 20
4562328.7193169333
 30
0.0
  0
SEQEND
  5
280
  8
CLUSTERS
  0
POLYLINE
  5
A8
  8
CLUSTERS
 66
     1
 10
0.0
 20
0.0
 30
0.0
 70
     1
  0
VERTEX
  5
281
  8
CLUSTERS
 10
741314.98721300729
 20
4562759.2940723542
 30
0.0
  0
VERTEX
  5
282
  8
CLUSTERS
 10
741392.73258971435
 20
4562768.6181709673
 30
0.0
  0
VERTEX
  5
283
  8
CLUSTERS
 10
741336.75583696819
 20
4562857.1973929191
 30
0.0
  0
VERTEX
  5
284
  8
CLUSTERS
 10
741299.43808671786
 20
4562805.914692142
 30
0.0
  0
SEQEND
  5
285
  8
CLUSTERS
  0
POLYLINE
  5
A9
  8
CLUSTERS
 66
     1
 10
0.0
 20
0.0
 30
0.0
 70
     1
  0
VERTEX
  5
286
  8
CLUSTERS
 10
733807.31299208663
 20
4562689.6569185918
 30
0.0
  0
VERTEX
  5
287
  8
CLUSTERS
 10
733949.19077698514
 20
4562689.6569185918
 30
0.0
  0
VERTEX
  5
288
  8
CLUSTERS
 10
733949.19077698514
 20
4562831.4538403172
 30
0.0
  0
VERTEX
  5
289
  8
CLUSTERS
 10
733807.31299208663
 20
4562831.4538403172
 30
0.0
  0
SEQEND
  5
28A
  8
CLUSTERS
  0
POLYLINE
  5
AA
  8
CLUSTERS
 66
     1
 10
0.0
 20
0.0
 30
0.0
 70
     1
  0
VERTEX
  5
28B
  8
CLUSTERS
 10
734755.31435218256
 20
4562515.6334151048
 30
0.0
  0
VERTEX
  5
28C
  8
CLUSTERS
 10
734852.04925762862
 20
4562515.6334151048
 30
0.0
  0
VERTEX
  5
28D
  8
CLUSTERS
 10
734852.04925762862
 20
4562638.0944131203
 30
0.0
  0
VERTEX
  5
28E
  8
CLUSTERS
 10
734755.31435218256
 20
4562638.0944131203
 30
0.0
  0
SEQEND
  5
28F
  8
CLUSTERS
  0
POLYLINE
  5
AB
  8
CLUSTERS
 66
     1
 10
0.0
 20
0.0
 30
0.0
 70
     1
  0
VERTEX
  5
290
  8
CLUSTERS
 10
736012.8672313873
 20
4562154.6958134472
 30
0.0
  0
VERTEX
  5
291
  8
CLUSTERS
 10
736186.98985739728
 20
4562154.6958134472
 30
0.0
  0
VERTEX
  5
292
  8
CLUSTERS
 10
736186.98985739728
 20
4562257.8208243893
 30
0.0
  0
VERTEX
  5
293
  8
CLUSTERS
 10
736012.8672313873
 20
4562257.8208243893
 30
0.0
  0
SEQEND
  5
294
  8
CLUSTERS
  0
POLYLINE
  5
AC
  8
CLUSTERS
 66
     1
 10
0.0
 20
0.0
 30
0.0
 70
     1
  0
VERTEX
  5
295
  8
CLUSTERS
 10
737134.99121749343
 20
4562212.7036479423
 30
0.0
  0
VERTEX
  5
296
  8
CLUSTERS
 10
737309.11397087364
 20
4562212.7036479423
 30
0.0
  0
VERTEX
  5
297
  8
CLUSTERS
 10
737309.11397087364
 20
4562367.3911643559
 30
0.0
  0
VERTEX
  5
298
  8
CLUSTERS
 10
737134.99121749343
 20
4562367.3911643559
 30
0.0
  0
SEQEND
  5
299
  8
CLUSTERS
  0
POLYLINE
  5
AD
  8
CLUSTERS
 66
     1
 10
0.0
 20
0.0
 30
0.0
 70
     1
  0
VERTEX
  5
29A
  8
CLUSTERS
 10
738328.05415973382
 20
4562451.1802515863
 30
0.0
  0
VERTEX
  5
29B
  8
CLUSTERS
 10
738411.8910268388
 20
4562451.1802515863
 30
0.0
  0
VERTEX
  5
29C
  8
CLUSTERS
 10
738411.8910268388
 20
4562554.30532589
 30
0.0
  0
VERTEX
  5
29D
  8
CLUSTERS
 10
738328.05415973382
 20
4562554.30532589
 30
0.0
  0
SEQEND
  5
29E
  8
CLUSTERS
  0
POLYLINE
  5
AE
  8
CLUSTERS
 66
     1
 10
0.0
 20
0.0
 30
0.0
 70
     1
  0
VERTEX
  5
29F
  8
CLUSTERS
 10
737773.44105848065
 20
4563682.2353073116
 30
0.0
  0
VERTEX
  5
2A0
  8
CLUSTERS
 10
737889.52289406769
 20
4563682.2353073116
 30
0.0
  0
VERTEX
  5
2A1
  8
CLUSTERS
 10
737889.52289406769
 20
4563791.8056472791
 30
0.0
  0
VERTEX
  5
2A2
  8
CLUSTERS
 10
737773.44105848065
 20
4563791.8056472791
 30
0.0
  0
SEQEND
  5
2A3
  8
CLUSTERS
  0
POLYLINE
  5
AF
  8
CLUSTERS
 66
     1
 10
0.0
 20
0.0
 30
0.0
 70
     1
  0
VERTEX
  5
2A4
  8
CLUSTERS
 10
738257.11533096968
 20
4564339.6573471101
 30
0.0
  0
VERTEX
  5
2A5
  8
CLUSTERS
 10
738373.19703918626
 20
4564339.6573471101
 30
0.0
  0
VERTEX
  5
2A6
  8
CLUSTERS
 10
738373.19703918626
 20
4564475.008939812
 30
0.0
  0
VERTEX
  5
2A7
  8
CLUSTERS
 10
738257.11533096968
 20
4564475.008939812
 30
0.0
  0
SEQEND
  5
2A8
  8
CLUSTERS
  0
POLYLINE
  5
B0
  8
CLUSTERS
 66
     1
 10
0.0
 20
0.0
 30
0.0
 70
     1
  0
VERTEX
  5
2A9
  8
CLUSTERS
 10
738424.78893780941
 20
4564552.3527613804
 30
0.0
  0
VERTEX
  5
2AA
  8
CLUSTERS
 10
738540.87077339645
 20
4564552.3527613804
 30
0.0
  0
VERTEX
  5
2AB
  8
CLUSTERS
 10
738540.87077339645
 20
4564655.4777723216
 30
0.0
  0
VERTEX
  5
2AC
  8
CLUSTERS
 10
738424.78893780941
 20
4564655.4777723216
 30
0.0
  0
SEQEND
  5
2AD
  8
CLUSTERS
  0
POLYLINE
  5
B1
  8
CLUSTERS
 66
     1
 10
0.0
 20
0.0
 30
0.0
 70
     1
  0
VERTEX
  5
2AE
  8
CLUSTERS
 10
738792.38137471129
 20
4564552.3527613804
 30
0.0
  0
VERTEX
  5
2AF
  8
CLUSTERS
 10
738902.01419112785
 20
4564552.3527613804
 30
0.0
  0
VERTEX
  5
2B0
  8
CLUSTERS
 10
738864.14849332487
 20
4564662.4078807198
 30
0.0
  0
VERTEX
  5
2B1
  8
CLUSTERS
 10
738825.27580497134
 20
4564662.4078807198
 30
0.0
  0
SEQEND
  5
2B2
  8
CLUSTERS
  0
POLYLINE
  5
B2
  8
CLUSTERS
 66
     1
 10
0.0
 20
0.0
 30
0.0
 70
     1
  0
VERTEX
  5
2B3
  8
CLUSTERS
 10
738837.52425416384
 20
4563650.0087255519
 30
0.0
  0
VERTEX
  5
2B4
  8
CLUSTERS
 10
738934.25903223944
 20
4563650.0087255519
 30
0.0
  0
VERTEX
  5
2B5
  8
CLUSTERS
 10
738934.25903223944
 20
4563766.0243945429
 30
0.0
  0
VERTEX
  5
2B6
  8
CLUSTERS
 10
738837.52425416384
 20
4563766.0243945429
 30
0.0
  0
SEQEND
  5
2B7
  8
CLUSTERS
  0
POLYLINE
  5
B3
  8
CLUSTERS
 66
     1
 10
0.0
 20
0.0
 30
0.0
 70
     1
  0
VERTEX
  5
2B8
  8
CLUSTERS
 10
741404.22178382566
 20
4562973.2507620445
 30
0.0
  0
VERTEX
  5
2B9
  8
CLUSTERS
 10
741488.05865093053
 20
4562973.2507620445
 30
0.0
  0
VERTEX
  5
2BA
  8
CLUSTERS
 10
741488.05865093053
 20
4563069.9304439612
 30
0.0
  0
VERTEX
  5
2BB
  8
CLUSTERS
 10
741404.22178382566
 20
4563069.9304439612
 30
0.0
  0
SEQEND
  5
2BC
  8
CLUSTERS
  0
POLYLINE
  5
B4
  8
CLUSTERS
 66
     1
 10
0.0
 20
0.0
 30
0.0
 70
     1
  0
VERTEX
  5
2BD
  8
CLUSTERS
 10
740662.58801822155
 20
4562541.4146678401
 30
0.0
  0
VERTEX
  5
2BE
  8
CLUSTERS
 10
740804.46580312005
 20
4562541.4146678401
 30
0.0
  0
VERTEX
  5
2BF
  8
CLUSTERS
 10
740804.46580312005
 20
4562638.0944131203
 30
0.0
  0
VERTEX
  5
2C0
  8
CLUSTERS
 10
740662.58801822155
 20
4562638.0944131203
 30
0.0
  0
SEQEND
  5
2C1
  8
CLUSTERS
  0
POLYLINE
  5
B5
  8
CLUSTERS
 66
     1
 10
0.0
 20
0.0
 30
0.0
 70
     1
  0
VERTEX
  5
2C2
  8
CLUSTERS
 10
741381.50565130077
 20
4561058.9924771469
 30
0.0
  0
VERTEX
  5
2C3
  8
CLUSTERS
 10
741458.89349923516
 20
4561058.9924771469
 30
0.0
  0
VERTEX
  5
2C4
  8
CLUSTERS
 10
741458.89349923516
 20
4561136.3362353519
 30
0.0
  0
VERTEX
  5
2C5
  8
CLUSTERS
 10
741381.50565130077
 20
4561136.3362353519
 30
0.0
  0
SEQEND
  5
2C6
  8
CLUSTERS
  0
POLYLINE
  5
B6
  8
CLUSTERS
 66
     1
 10
0.0
 20
0.0
 30
0.0
 70
     1
  0
VERTEX
  5
2C7
  8
CLUSTERS
 10
741207.38302529056
 20
4561065.4378061714
 30
0.0
  0
VERTEX
  5
2C8
  8
CLUSTERS
 10
741284.77087322518
 20
4561065.4378061714
 30
0.0
  0
VERTEX
  5
2C9
  8
CLUSTERS
 10
741284.77087322518
 20
4561149.2268934017
 30
0.0
  0
VERTEX
  5
2CA
  8
CLUSTERS
 10
741207.38302529056
 20
4561149.2268934017
 30
0.0
  0
SEQEND
  5
2CB
  8
CLUSTERS
  0
POLYLINE
  5
B7
  8
CLUSTERS
 66
     1
 10
0.0
 20
0.0
 30
0.0
 70
     1
  0
VERTEX
  5
2CC
  8
CLUSTERS
 10
740962.90925764036
 20
4560555.4528816482
 30
0.0
  0
VERTEX
  5
2CD
  8
CLUSTERS
 10
740980.3424472016
 20
4560566.3424545797
 30
0.0
  0
VERTEX
  5
2CE
  8
CLUSTERS
 10
740969.44667188311
 20
4560620.7902558828
 30
0.0
  0
VERTEX
  5
2CF
  8
CLUSTERS
 10
740911.69908816984
 20
4560571.7872410482
 30
0.0
  0
SEQEND
  5
2D0
  8
CLUSTERS
  0
POLYLINE
  5
B8
  8
CLUSTERS
 66
     1
 10
0.0
 20
0.0
 30
0.0
 70
     1
  0
VERTEX
  5
2D1
  8
CLUSTERS
 10
740987.96951539861
 20
4560526.05108542
 30
0.0
  0
VERTEX
  5
2D2
  8
CLUSTERS
 10
741023.92554847512
 20
4560491.204502725
 30
0.0
  0
VERTEX
  5
2D3
  8
CLUSTERS
 10
741046.80662569555
 20
4560491.204502725
 30
0.0
  0
VERTEX
  5
2D4
  8
CLUSTERS
 10
741063.150288673
 20
4560543.4743767669
 30
0.0
  0
VERTEX
  5
2D5
  8
CLUSTERS
 10
740990.14869593619
 20
4560555.4528816482
 30
0.0
  0
SEQEND
  5
2D6
  8
CLUSTERS
  0
POLYLINE
  5
B9
  8
CLUSTERS
 66
     1
 10
0.0
 20
0.0
 30
0.0
 70
     1
  0
VERTEX
  5
2D7
  8
CLUSTERS
 10
738730.68186893687
 20
4557997.4682237534
 30
0.0
  0
VERTEX
  5
2D8
  8
CLUSTERS
 10
738833.86566618283
 20
4557997.4682237534
 30
0.0
  0
VERTEX
  5
2D9
  8
CLUSTERS
 10
738833.86566618283
 20
4558061.9213239113
 30
0.0
  0
VERTEX
  5
2DA
  8
CLUSTERS
 10
738730.68186893687
 20
4558061.9213239113
 30
0.0
  0
SEQEND
  5
2DB
  8
CLUSTERS
  0
POLYLINE
  5
BA
  8
CLUSTERS
 66
     1
 10
0.0
 20
0.0
 30
0.0
 70
     1
  0
VERTEX
  5
2DC
  8
CLUSTERS
 10
738537.21218541532
 20
4557997.4682237534
 30
0.0
  0
VERTEX
  5
2DD
  8
CLUSTERS
 10
738691.98788128432
 20
4557997.4682237534
 30
0.0
  0
VERTEX
  5
2DE
  8
CLUSTERS
 10
738691.98788128432
 20
4558139.2650821172
 30
0.0
  0
VERTEX
  5
2DF
  8
CLUSTERS
 10
738537.21218541532
 20
4558139.2650821172
 30
0.0
  0
SEQEND
  5
2E0
  8
CLUSTERS
  0
POLYLINE
  5
BB
  8
CLUSTERS
 66
     1
 10
0.0
 20
0.0
 30
0.0
 70
     1
  0
VERTEX
  5
2E1
  8
CLUSTERS
 10
737234.51642675838
 20
4560826.9611391649
 30
0.0
  0
VERTEX
  5
2E2
  8
CLUSTERS
 10
737299.00636372238
 20
4560826.9611391649
 30
0.0
  0
VERTEX
  5
2E3
  8
CLUSTERS
 10
737299.00636372238
 20
4560936.531542493
 30
0.0
  0
VERTEX
  5
2E4
  8
CLUSTERS
 10
737234.51642675838
 20
4560936.531542493
 30
0.0
  0
SEQEND
  5
2E5
  8
CLUSTERS
  0
POLYLINE
  5
BC
  8
CLUSTERS
 66
     1
 10
0.0
 20
0.0
 30
0.0
 70
     1
  0
VERTEX
  5
2E6
  8
CLUSTERS
 10
737202.27145827631
 20
4560221.1016048389
 30
0.0
  0
VERTEX
  5
2E7
  8
CLUSTERS
 10
737344.14924317494
 20
4560221.1016048389
 30
0.0
  0
VERTEX
  5
2E8
  8
CLUSTERS
 10
737397.95145754842
 20
4560328.6695626248
 30
0.0
  0
VERTEX
  5
2E9
  8
CLUSTERS
 10
737325.24025888427
 20
4560358.0697433222
 30
0.0
  0
SEQEND
  5
2EA
  8
CLUSTERS
  0
POLYLINE
  5
BD
  8
CLUSTERS
 66
     1
 10
0.0
 20
0.0
 30
0.0
 70
     1
  0
VERTEX
  5
2EB
  8
CLUSTERS
 10
737821.37436912302
 20
4556605.2803225899
 30
0.0
  0
VERTEX
  5
2EC
  8
CLUSTERS
 10
737976.15019236226
 20
4556605.2803225899
 30
0.0
  0
VERTEX
  5
2ED
  8
CLUSTERS
 10
737976.15019236226
 20
4556740.6319152918
 30
0.0
  0
VERTEX
  5
2EE
  8
CLUSTERS
 10
737821.37436912302
 20
4556740.6319152918
 30
0.0
  0
SEQEND
  5
2EF
  8
CLUSTERS
  0
POLYLINE
  5
BE
  8
CLUSTERS
 66
     1
 10
0.0
 20
0.0
 30
0.0
 70
     1
  0
VERTEX
  5
2F0
  8
CLUSTERS
 10
735676.70764916099
 20
4561058.9924771469
 30
0.0
  0
VERTEX
  5
2F1
  8
CLUSTERS
 10
735792.78948474815
 20
4561058.9924771469
 30
0.0
  0
VERTEX
  5
2F2
  8
CLUSTERS
 10
735792.78948474815
 20
4561149.2268934017
 30
0.0
  0
VERTEX
  5
2F3
  8
CLUSTERS
 10
735676.70764916099
 20
4561149.2268934017
 30
0.0
  0
SEQEND
  5
2F4
  8
CLUSTERS
  0
POLYLINE
  5
BF
  8
CLUSTERS
 66
     1
 10
0.0
 20
0.0
 30
0.0
 70
     1
  0
VERTEX
  5
2F5
  8
CLUSTERS
 10
729956.45464747329
 20
4560801.1798864286
 30
0.0
  0
VERTEX
  5
2F6
  8
CLUSTERS
 10
730046.74040637841
 20
4560801.1798864286
 30
0.0
  0
VERTEX
  5
2F7
  8
CLUSTERS
 10
730046.74040637841
 20
4560904.3049607333
 30
0.0
  0
VERTEX
  5
2F8
  8
CLUSTERS
 10
729956.45464747329
 20
4560904.3049607333
 30
0.0
  0
SEQEND
  5
2F9
  8
CLUSTERS
  0
POLYLINE
  5
C0
  8
CLUSTERS
 66
     1
 10
0.0
 20
0.0
 30
0.0
 70
     1
  0
VERTEX
  5
2FA
  8
CLUSTERS
 10
730401.43480493943
 20
4559570.1248940658
 30
0.0
  0
VERTEX
  5
2FB
  8
CLUSTERS
 10
730511.06762135576
 20
4559570.1248940658
 30
0.0
  0
VERTEX
  5
2FC
  8
CLUSTERS
 10
730511.06762135576
 20
4559679.6952340333
 30
0.0
  0
VERTEX
  5
2FD
  8
CLUSTERS
 10
730401.43480493943
 20
4559679.6952340333
 30
0.0
  0
SEQEND
  5
2FE
  8
CLUSTERS
  0
POLYLINE
  5
C1
  8
CLUSTERS
 66
     1
 10
0.0
 20
0.0
 30
0.0
 70
     1
  0
VERTEX
  5
2FF
  8
CLUSTERS
 10
729885.51569133869
 20
4559299.4217086621
 30
0.0
  0
VERTEX
  5
300
  8
CLUSTERS
 10
730014.49543789634
 20
4559299.4217086621
 30
0.0
  0
VERTEX
  5
301
  8
CLUSTERS
 10
730014.49543789634
 20
4559415.4373142896
 30
0.0
  0
VERTEX
  5
302
  8
CLUSTERS
 10
729885.51569133869
 20
4559415.4373142896
 30
0.0
  0
SEQEND
  5
303
  8
CLUSTERS
  0
POLYLINE
  5
C2
  8
CLUSTERS
 66
     1
 10
0.0
 20
0.0
 30
0.0
 70
     1
  0
VERTEX
  5
304
  8
CLUSTERS
 10
733005.17114362866
 20
4560799.9692369048
 30
0.0
  0
VERTEX
  5
305
  8
CLUSTERS
 10
733045.11259718728
 20
4560857.6295965472
 30
0.0
  0
VERTEX
  5
306
  8
CLUSTERS
 10
732991.85736823292
 20
4560888.6774630127
 30
0.0
  0
VERTEX
  5
307
  8
CLUSTERS
 10
732936.38309179852
 20
4560842.1056316337
 30
0.0
  0
SEQEND
  5
308
  8
CLUSTERS
  0
POLYLINE
  5
C3
  8
CLUSTERS
 66
     1
 10
0.0
 20
0.0
 30
0.0
 70
     1
  0
VERTEX
  5
309
  8
CLUSTERS
 10
733045.11259718728
 20
4560768.9213704392
 30
0.0
  0
VERTEX
  5
30A
  8
CLUSTERS
 10
733140.5281998096
 20
4560746.7443772731
 30
0.0
  0
VERTEX
  5
30B
  8
CLUSTERS
 10
733167.15587797214
 20
4560822.1462934306
 30
0.0
  0
VERTEX
  5
30C
  8
CLUSTERS
 10
733080.61608315713
 20
4560848.7587866094
 30
0.0
  0
SEQEND
  5
30D
  8
CLUSTERS
  0
POLYLINE
  5
C4
  8
CLUSTERS
 66
     1
 10
0.0
 20
0.0
 30
0.0
 70
     1
  0
VERTEX
  5
30E
  8
CLUSTERS
 10
733133.87131211162
 20
4560857.6295965472
 30
0.0
  0
VERTEX
  5
30F
  8
CLUSTERS
 10
733227.06812199508
 20
4560833.2348216958
 30
0.0
  0
VERTEX
  5
310
  8
CLUSTERS
 10
733227.06812199508
 20
4560921.9430478029
 30
0.0
  0
VERTEX
  5
311
  8
CLUSTERS
 10
733167.15587797214
 20
4560930.8138577426
 30
0.0
  0
SEQEND
  5
312
  8
CLUSTERS
  0
POLYLINE
  5
C5
  8
CLUSTERS
 66
     1
 10
0.0
 20
0.0
 30
0.0
 70
     1
  0
VERTEX
  5
313
  8
CLUSTERS
 10
733247.03878508916
 20
4560744.5266589476
 30
0.0
  0
VERTEX
  5
314
  8
CLUSTERS
 10
733318.04575702862
 20
4560744.5266589476
 30
0.0
  0
VERTEX
  5
315
  8
CLUSTERS
 10
733318.04575702862
 20
4560795.5338636162
 30
0.0
  0
VERTEX
  5
316
  8
CLUSTERS
 10
733247.03878508916
 20
4560795.5338636162
 30
0.0
  0
SEQEND
  5
317
  8
CLUSTERS
  0
POLYLINE
  5
C6
  8
CLUSTERS
 66
     1
 10
0.0
 20
0.0
 30
0.0
 70
     1
  0
VERTEX
  5
318
  8
CLUSTERS
 10
731993.32115663996
 20
4560768.9213704392
 30
0.0
  0
VERTEX
  5
319
  8
CLUSTERS
 10
732073.20406375697
 20
4560768.9213704392
 30
0.0
  0
VERTEX
  5
31A
  8
CLUSTERS
 10
732073.20406375697
 20
4560844.3233499592
 30
0.0
  0
VERTEX
  5
31B
  8
CLUSTERS
 10
731993.32115663996
 20
4560844.3233499592
 30
0.0
  0
SEQEND
  5
31C
  8
CLUSTERS
  0
POLYLINE
  5
C7
  8
CLUSTERS
 66
     1
 10
0.0
 20
0.0
 30
0.0
 70
     1
  0
VERTEX
  5
31D
  8
CLUSTERS
 10
732086.51783915295
 20
4560593.7226999057
 30
0.0
  0
VERTEX
  5
31E
  8
CLUSTERS
 10
732148.64900328522
 20
4560593.7226999057
 30
0.0
  0
VERTEX
  5
31F
  8
CLUSTERS
 10
732148.64900328522
 20
4560660.2538694888
 30
0.0
  0
VERTEX
  5
320
  8
CLUSTERS
 10
732086.51783915295
 20
4560660.2538694888
 30
0.0
  0
SEQEND
  5
321
  8
CLUSTERS
  0
POLYLINE
  5
C8
  8
CLUSTERS
 66
     1
 10
0.0
 20
0.0
 30
0.0
 70
     1
  0
VERTEX
  5
322
  8
CLUSTERS
 10
732299.53888234182
 20
4560609.2466648202
 30
0.0
  0
VERTEX
  5
323
  8
CLUSTERS
 10
732412.70635531924
 20
4560609.2466648202
 30
0.0
  0
VERTEX
  5
324
  8
CLUSTERS
 10
732412.70635531924
 20
4560702.3902642187
 30
0.0
  0
VERTEX
  5
325
  8
CLUSTERS
 10
732299.53888234182
 20
4560702.3902642187
 30
0.0
  0
SEQEND
  5
326
  8
CLUSTERS
  0
POLYLINE
  5
C9
  8
CLUSTERS
 66
     1
 10
0.0
 20
0.0
 30
0.0
 70
     1
  0
VERTEX
  5
327
  8
CLUSTERS
 10
732559.15566970909
 20
4560482.824641685
 30
0.0
  0
VERTEX
  5
328
  8
CLUSTERS
 10
732639.03844945575
 20
4560482.824641685
 30
0.0
  0
VERTEX
  5
329
  8
CLUSTERS
 10
732639.03844945575
 20
4560567.0974311437
 30
0.0
  0
VERTEX
  5
32A
  8
CLUSTERS
 10
732559.15566970909
 20
4560567.0974311437
 30
0.0
  0
SEQEND
  5
32B
  8
CLUSTERS
  0
POLYLINE
  5
CA
  8
CLUSTERS
 66
     1
 10
0.0
 20
0.0
 30
0.0
 70
     1
  0
VERTEX
  5
32C
  8
CLUSTERS
 10
732123.31477175083
 20
4559312.3123033494
 30
0.0
  0
VERTEX
  5
32D
  8
CLUSTERS
 10
732258.74353747885
 20
4559312.3123033494
 30
0.0
  0
VERTEX
  5
32E
  8
CLUSTERS
 10
732258.74353747885
 20
4559415.4373142896
 30
0.0
  0
VERTEX
  5
32F
  8
CLUSTERS
 10
732123.31477175083
 20
4559415.4373142896
 30
0.0
  0
SEQEND
  5
330
  8
CLUSTERS
  0
POLYLINE
  5
CB
  8
CLUSTERS
 66
     1
 10
0.0
 20
0.0
 30
0.0
 70
     1
  0
VERTEX
  5
331
  8
CLUSTERS
 10
732181.35568954435
 20
4559460.5545540992
 30
0.0
  0
VERTEX
  5
332
  8
CLUSTERS
 10
732297.43752513127
 20
4559460.5545540992
 30
0.0
  0
VERTEX
  5
333
  8
CLUSTERS
 10
732297.43752513127
 20
4559563.6795650413
 30
0.0
  0
VERTEX
  5
334
  8
CLUSTERS
 10
732181.35568954435
 20
4559563.6795650413
 30
0.0
  0
SEQEND
  5
335
  8
CLUSTERS
  0
POLYLINE
  5
CC
  8
CLUSTERS
 66
     1
 10
0.0
 20
0.0
 30
0.0
 70
     1
  0
VERTEX
  5
336
  8
CLUSTERS
 10
732439.3153100299
 20
4559344.5388851091
 30
0.0
  0
VERTEX
  5
337
  8
CLUSTERS
 10
732587.64198672841
 20
4559344.5388851091
 30
0.0
  0
VERTEX
  5
338
  8
CLUSTERS
 10
732587.64198672841
 20
4559460.5545540992
 30
0.0
  0
VERTEX
  5
339
  8
CLUSTERS
 10
732439.3153100299
 20
4559460.5545540992
 30
0.0
  0
SEQEND
  5
33A
  8
CLUSTERS
  0
POLYLINE
  5
CD
  8
CLUSTERS
 66
     1
 10
0.0
 20
0.0
 30
0.0
 70
     1
  0
VERTEX
  5
33B
  8
CLUSTERS
 10
732510.25413879391
 20
4559041.6091179447
 30
0.0
  0
VERTEX
  5
33C
  8
CLUSTERS
 10
732639.23388535134
 20
4559041.6091179447
 30
0.0
  0
VERTEX
  5
33D
  8
CLUSTERS
 10
732639.23388535134
 20
4559183.406039671
 30
0.0
  0
VERTEX
  5
33E
  8
CLUSTERS
 10
732510.25413879391
 20
4559183.406039671
 30
0.0
  0
SEQEND
  5
33F
  8
CLUSTERS
  0
POLYLINE
  5
CE
  8
CLUSTERS
 66
     1
 10
0.0
 20
0.0
 30
0.0
 70
     1
  0
VERTEX
  5
340
  8
CLUSTERS
 10
731807.31436084246
 20
4558712.8981614076
 30
0.0
  0
VERTEX
  5
341
  8
CLUSTERS
 10
731949.19214574073
 20
4558712.8981614076
 30
0.0
  0
VERTEX
  5
342
  8
CLUSTERS
 10
731949.19214574073
 20
4558848.2497541104
 30
0.0
  0
VERTEX
  5
343
  8
CLUSTERS
 10
731807.31436084246
 20
4558848.2497541104
 30
0.0
  0
SEQEND
  5
344
  8
CLUSTERS
  0
POLYLINE
  5
CF
  8
CLUSTERS
 66
     1
 10
0.0
 20
0.0
 30
0.0
 70
     1
  0
VERTEX
  5
345
  8
CLUSTERS
 10
734662.42437764385
 20
4558069.8904353417
 30
0.0
  0
VERTEX
  5
346
  8
CLUSTERS
 10
734777.81089810119
 20
4558069.8904353417
 30
0.0
  0
VERTEX
  5
347
  8
CLUSTERS
 10
734777.81089810119
 20
4558160.8163164146
 30
0.0
  0
VERTEX
  5
348
  8
CLUSTERS
 10
734662.42437764385
 20
4558160.8163164146
 30
0.0
  0
SEQEND
  5
349
  8
CLUSTERS
  0
POLYLINE
  5
D0
  8
CLUSTERS
 66
     1
 10
0.0
 20
0.0
 30
0.0
 70
     1
  0
VERTEX
  5
34A
  8
CLUSTERS
 10
733084.21417018794
 20
4556121.88184964
 30
0.0
  0
VERTEX
  5
34B
  8
CLUSTERS
 10
733193.84698660439
 20
4556121.88184964
 30
0.0
  0
VERTEX
  5
34C
  8
CLUSTERS
 10
733193.84698660439
 20
4556225.0068605831
 30
0.0
  0
VERTEX
  5
34D
  8
CLUSTERS
 10
733084.21417018794
 20
4556225.0068605831
 30
0.0
  0
SEQEND
  5
34E
  8
CLUSTERS
  0
POLYLINE
  5
D1
  8
CLUSTERS
 66
     1
 10
0.0
 20
0.0
 30
0.0
 70
     1
  0
VERTEX
  5
34F
  8
CLUSTERS
 10
734367.56287133344
 20
4558319.7339779902
 30
0.0
  0
VERTEX
  5
350
  8
CLUSTERS
 10
734502.99163706158
 20
4558319.7339779902
 30
0.0
  0
VERTEX
  5
351
  8
CLUSTERS
 10
734502.99163706158
 20
4558422.859052293
 30
0.0
  0
VERTEX
  5
352
  8
CLUSTERS
 10
734367.56287133344
 20
4558422.859052293
 30
0.0
  0
SEQEND
  5
353
  8
CLUSTERS
  0
POLYLINE
  5
D2
  8
CLUSTERS
 66
     1
 10
0.0
 20
0.0
 30
0.0
 70
     1
  0
VERTEX
  5
354
  8
CLUSTERS
 10
733645.27616324113
 20
4556721.2960549416
 30
0.0
  0
VERTEX
  5
355
  8
CLUSTERS
 10
733825.84780842147
 20
4556721.2960549416
 30
0.0
  0
VERTEX
  5
356
  8
CLUSTERS
 10
733825.84780842147
 20
4556882.4289003788
 30
0.0
  0
VERTEX
  5
357
  8
CLUSTERS
 10
733645.27616324113
 20
4556882.4289003788
 30
0.0
  0
SEQEND
  5
358
  8
CLUSTERS
  0
POLYLINE
  5
D3
  8
CLUSTERS
 66
     1
 10
0.0
 20
0.0
 30
0.0
 70
     1
  0
VERTEX
  5
359
  8
CLUSTERS
 10
731826.66129098344
 20
4556921.1008111639
 30
0.0
  0
VERTEX
  5
35A
  8
CLUSTERS
 10
731949.19214574073
 20
4556921.1008111639
 30
0.0
  0
VERTEX
  5
35B
  8
CLUSTERS
 10
731949.19214574073
 20
4557088.6789856264
 30
0.0
  0
VERTEX
  5
35C
  8
CLUSTERS
 10
731826.66129098344
 20
4557088.6789856264
 30
0.0
  0
SEQEND
  5
35D
  8
CLUSTERS
  0
POLYLINE
  5
D4
  8
CLUSTERS
 66
     1
 10
0.0
 20
0.0
 30
0.0
 70
     1
  0
VERTEX
  5
35E
  8
CLUSTERS
 10
731072.12961440871
 20
4557984.577629067
 30
0.0
  0
VERTEX
  5
35F
  8
CLUSTERS
 10
731220.45641847781
 20
4557984.577629067
 30
0.0
  0
VERTEX
  5
360
  8
CLUSTERS
 10
731220.45641847781
 20
4558145.7105378658
 30
0.0
  0
VERTEX
  5
361
  8
CLUSTERS
 10
731072.12961440871
 20
4558145.7105378658
 30
0.0
  0
SEQEND
  5
362
  8
CLUSTERS
  0
POLYLINE
  5
D5
  8
CLUSTERS
 66
     1
 10
0.0
 20
0.0
 30
0.0
 70
     1
  0
VERTEX
  5
363
  8
CLUSTERS
 10
730246.6591090702
 20
4558635.5544032026
 30
0.0
  0
VERTEX
  5
364
  8
CLUSTERS
 10
730349.84290631604
 20
4558635.5544032026
 30
0.0
  0
VERTEX
  5
365
  8
CLUSTERS
 10
730349.84290631604
 20
4558751.5700721927
 30
0.0
  0
VERTEX
  5
366
  8
CLUSTERS
 10
730246.6591090702
 20
4558751.5700721927
 30
0.0
  0
SEQEND
  5
367
  8
CLUSTERS
  0
POLYLINE
  5
D6
  8
CLUSTERS
 66
     1
 10
0.0
 20
0.0
 30
0.0
 70
     1
  0
VERTEX
  5
368
  8
CLUSTERS
 10
728911.71838193107
 20
4557352.9368420038
 30
0.0
  0
VERTEX
  5
369
  8
CLUSTERS
 10
729008.45328737702
 20
4557352.9368420038
 30
0.0
  0
VERTEX
  5
36A
  8
CLUSTERS
 10
729008.45328737702
 20
4557436.725929236
 30
0.0
  0
VERTEX
  5
36B
  8
CLUSTERS
 10
728911.71838193107
 20
4557436.725929236
 30
0.0
  0
SEQEND
  5
36C
  8
CLUSTERS
  0
POLYLINE
  5
D7
  8
CLUSTERS
 66
     1
 10
0.0
 20
0.0
 30
0.0
 70
     1
  0
VERTEX
  5
36D
  8
CLUSTERS
 10
732797.61225358641
 20
4555967.194396589
 30
0.0
  0
VERTEX
  5
36E
  8
CLUSTERS
 10
733023.32690559002
 20
4555967.194396589
 30
0.0
  0
VERTEX
  5
36F
  8
CLUSTERS
 10
733023.32690559002
 20
4556121.8819130007
 30
0.0
  0
VERTEX
  5
370
  8
CLUSTERS
 10
732797.61225358641
 20
4556121.8819130007
 30
0.0
  0
SEQEND
  5
371
  8
CLUSTERS
  0
POLYLINE
  5
D8
  8
CLUSTERS
 66
     1
 10
0.0
 20
0.0
 30
0.0
 70
     1
  0
VERTEX
  5
372
  8
CLUSTERS
 10
732507.40779198951
 20
4555664.2646294264
 30
0.0
  0
VERTEX
  5
373
  8
CLUSTERS
 10
732649.28557688789
 20
4555709.3818058725
 30
0.0
  0
VERTEX
  5
374
  8
CLUSTERS
 10
732655.73446868802
 20
4555831.8428038871
 30
0.0
  0
VERTEX
  5
375
  8
CLUSTERS
 10
732500.95877281891
 20
4555889.8506383821
 30
0.0
  0
SEQEND
  5
376
  8
CLUSTERS
  0
POLYLINE
  5
D9
  8
CLUSTERS
 66
     1
 10
0.0
 20
0.0
 30
0.0
 70
     1
  0
VERTEX
  5
377
  8
CLUSTERS
 10
732404.22399474343
 20
4555097.0769425211
 30
0.0
  0
VERTEX
  5
378
  8
CLUSTERS
 10
732539.65276047145
 20
4555097.0769425211
 30
0.0
  0
VERTEX
  5
379
  8
CLUSTERS
 10
732539.65276047145
 20
4555174.420700728
 30
0.0
  0
VERTEX
  5
37A
  8
CLUSTERS
 10
732404.22399474343
 20
4555174.420700728
 30
0.0
  0
SEQEND
  5
37B
  8
CLUSTERS
  0
POLYLINE
  5
DA
  8
CLUSTERS
 66
     1
 10
0.0
 20
0.0
 30
0.0
 70
     1
  0
VERTEX
  5
37C
  8
CLUSTERS
 10
733623.08288629551
 20
4555387.1161149982
 30
0.0
  0
VERTEX
  5
37D
  8
CLUSTERS
 10
733745.61361368257
 20
4555387.1161149982
 30
0.0
  0
VERTEX
  5
37E
  8
CLUSTERS
 10
733745.61361368257
 20
4555490.2411259403
 30
0.0
  0
VERTEX
  5
37F
  8
CLUSTERS
 10
733623.08288629551
 20
4555490.2411259403
 30
0.0
  0
SEQEND
  5
380
  8
CLUSTERS
  0
POLYLINE
  5
DB
  8
CLUSTERS
 66
     1
 10
0.0
 20
0.0
 30
0.0
 70
     1
  0
VERTEX
  5
381
  8
CLUSTERS
 10
733964.87924651545
 20
4555084.1863478338
 30
0.0
  0
VERTEX
  5
382
  8
CLUSTERS
 10
734106.75703141384
 20
4555084.1863478338
 30
0.0
  0
VERTEX
  5
383
  8
CLUSTERS
 10
734106.75703141384
 20
4555251.7645222973
 30
0.0
  0
VERTEX
  5
384
  8
CLUSTERS
 10
733964.87924651545
 20
4555251.7645222973
 30
0.0
  0
SEQEND
  5
385
  8
CLUSTERS
  0
POLYLINE
  5
DC
  8
CLUSTERS
 66
     1
 10
0.0
 20
0.0
 30
0.0
 70
     1
  0
VERTEX
  5
386
  8
CLUSTERS
 10
736421.94395976083
 20
4555045.5144370496
 30
0.0
  0
VERTEX
  5
387
  8
CLUSTERS
 10
736525.12775700667
 20
4555045.5144370496
 30
0.0
  0
VERTEX
  5
388
  8
CLUSTERS
 10
736525.12775700667
 20
4555142.1941189682
 30
0.0
  0
VERTEX
  5
389
  8
CLUSTERS
 10
736421.94395976083
 20
4555142.1941189682
 30
0.0
  0
SEQEND
  5
38A
  8
CLUSTERS
  0
POLYLINE
  5
DD
  8
CLUSTERS
 66
     1
 10
0.0
 20
0.0
 30
0.0
 70
     1
  0
VERTEX
  5
38B
  8
CLUSTERS
 10
736583.1686748002
 20
4553943.3657083632
 30
0.0
  0
VERTEX
  5
38C
  8
CLUSTERS
 10
736679.90358024614
 20
4553943.3657083632
 30
0.0
  0
VERTEX
  5
38D
  8
CLUSTERS
 10
736679.90358024614
 20
4554059.3813773552
 30
0.0
  0
VERTEX
  5
38E
  8
CLUSTERS
 10
736583.1686748002
 20
4554059.3813773552
 30
0.0
  0
SEQEND
  5
38F
  8
CLUSTERS
  0
POLYLINE
  5
DE
  8
CLUSTERS
 66
     1
 10
0.0
 20
0.0
 30
0.0
 70
     1
  0
VERTEX
  5
390
  8
CLUSTERS
 10
735860.88196670765
 20
4553711.3343703831
 30
0.0
  0
VERTEX
  5
391
  8
CLUSTERS
 10
735970.51478312409
 20
4553711.3343703831
 30
0.0
  0
VERTEX
  5
392
  8
CLUSTERS
 10
735970.51478312409
 20
4553820.9047103496
 30
0.0
  0
VERTEX
  5
393
  8
CLUSTERS
 10
735860.88196670765
 20
4553820.9047103496
 30
0.0
  0
SEQEND
  5
394
  8
CLUSTERS
  0
POLYLINE
  5
DF
  8
CLUSTERS
 66
     1
 10
0.0
 20
0.0
 30
0.0
 70
     1
  0
VERTEX
  5
395
  8
CLUSTERS
 10
734571.08424639155
 20
4552912.1154722208
 30
0.0
  0
VERTEX
  5
396
  8
CLUSTERS
 10
734783.90086005407
 20
4552912.1154722208
 30
0.0
  0
VERTEX
  5
397
  8
CLUSTERS
 10
734783.90086005407
 20
4553028.1311412109
 30
0.0
  0
VERTEX
  5
398
  8
CLUSTERS
 10
734571.08424639155
 20
4553028.1311412109
 30
0.0
  0
SEQEND
  5
399
  8
CLUSTERS
  0
POLYLINE
  5
E0
  8
CLUSTERS
 66
     1
 10
0.0
 20
0.0
 30
0.0
 70
     1
  0
VERTEX
  5
39A
  8
CLUSTERS
 10
729830.63865481003
 20
4552854.1076377248
 30
0.0
  0
VERTEX
  5
39B
  8
CLUSTERS
 10
729933.82257942646
 20
4552854.1076377248
 30
0.0
  0
VERTEX
  5
39C
  8
CLUSTERS
 10
729933.82257942646
 20
4552976.5686357403
 30
0.0
  0
VERTEX
  5
39D
  8
CLUSTERS
 10
729830.63865481003
 20
4552976.5686357403
 30
0.0
  0
SEQEND
  5
39E
  8
CLUSTERS
  0
POLYLINE
  5
E1
  8
CLUSTERS
 66
     1
 10
0.0
 20
0.0
 30
0.0
 70
     1
  0
VERTEX
  5
39F
  8
CLUSTERS
 10
732848.76536110812
 20
4552158.0137505047
 30
0.0
  0
VERTEX
  5
3A0
  8
CLUSTERS
 10
732990.64314600674
 20
4552158.0137505047
 30
0.0
  0
VERTEX
  5
3A1
  8
CLUSTERS
 10
732990.64314600674
 20
4552299.8106088703
 30
0.0
  0
VERTEX
  5
3A2
  8
CLUSTERS
 10
732848.76536110812
 20
4552299.8106088703
 30
0.0
  0
SEQEND
  5
3A3
  8
CLUSTERS
  0
POLYLINE
  5
E2
  8
CLUSTERS
 66
     1
 10
0.0
 20
0.0
 30
0.0
 70
     1
  0
VERTEX
  5
3A4
  8
CLUSTERS
 10
732061.98884342203
 20
4550533.794511362
 30
0.0
  0
VERTEX
  5
3A5
  8
CLUSTERS
 10
732236.11146943213
 20
4550533.794511362
 30
0.0
  0
VERTEX
  5
3A6
  8
CLUSTERS
 10
732236.11146943213
 20
4550649.8101803521
 30
0.0
  0
VERTEX
  5
3A7
  8
CLUSTERS
 10
732061.98884342203
 20
4550649.8101803521
 30
0.0
  0
SEQEND
  5
3A8
  8
CLUSTERS
  0
POLYLINE
  5
E3
  8
CLUSTERS
 66
     1
 10
0.0
 20
0.0
 30
0.0
 70
     1
  0
VERTEX
  5
3A9
  8
CLUSTERS
 10
728018.60908807372
 20
4550804.3551332299
 30
0.0
  0
VERTEX
  5
3AA
  8
CLUSTERS
 10
728069.64526954864
 20
4550804.3551332299
 30
0.0
  0
VERTEX
  5
3AB
  8
CLUSTERS
 10
728071.86431702808
 20
4550884.1925494019
 30
0.0
  0
VERTEX
  5
3AC
  8
CLUSTERS
 10
728018.60908807372
 20
4550853.1446829354
 30
0.0
  0
SEQEND
  5
3AD
  8
CLUSTERS
  0
POLYLINE
  5
E4
  8
CLUSTERS
 66
     1
 10
0.0
 20
0.0
 30
0.0
 70
     1
  0
VERTEX
  5
3AE
  8
CLUSTERS
 10
728045.23663886567
 20
4550677.9459490422
 30
0.0
  0
VERTEX
  5
3AF
  8
CLUSTERS
 10
728116.24373817549
 20
4550677.9459490422
 30
0.0
  0
VERTEX
  5
3B0
  8
CLUSTERS
 10
728116.24373817549
 20
4550760.0010201763
 30
0.0
  0
VERTEX
  5
3B1
  8
CLUSTERS
 10
728045.23663886567
 20
4550760.0010201763
 30
0.0
  0
SEQEND
  5
3B2
  8
CLUSTERS
  0
POLYLINE
  5
E5
  8
CLUSTERS
 66
     1
 10
0.0
 20
0.0
 30
0.0
 70
     1
  0
VERTEX
  5
3B3
  8
CLUSTERS
 10
727639.35521960631
 20
4552177.0074583236
 30
0.0
  0
VERTEX
  5
3B4
  8
CLUSTERS
 10
727693.77708039456
 20
4552177.0074583236
 30
0.0
  0
VERTEX
  5
3B5
  8
CLUSTERS
 10
727693.77708039456
 20
4552225.1820950778
 30
0.0
  0
VERTEX
  5
3B6
  8
CLUSTERS
 10
727639.35521960631
 20
4552225.1820950778
 30
0.0
  0
SEQEND
  5
3B7
  8
CLUSTERS
  0
POLYLINE
  5
E6
  8
CLUSTERS
 66
     1
 10
0.0
 20
0.0
 30
0.0
 70
     1
  0
VERTEX
  5
3B8
  8
CLUSTERS
 10
727717.10062559298
 20
4552159.9132590108
 30
0.0
  0
VERTEX
  5
3B9
  8
CLUSTERS
 10
727773.07728726452
 20
4552159.9132590108
 30
0.0
  0
VERTEX
  5
3BA
  8
CLUSTERS
 10
727773.07728726452
 20
4552212.7499328032
 30
0.0
  0
VERTEX
  5
3BB
  8
CLUSTERS
 10
727717.10062559298
 20
4552212.7499328032
 30
0.0
  0
SEQEND
  5
3BC
  8
CLUSTERS
  0
POLYLINE
  5
E7
  8
CLUSTERS
 66
     1
 10
0.0
 20
0.0
 30
0.0
 70
     1
  0
VERTEX
  5
3BD
  8
CLUSTERS
 10
728921.33125096082
 20
4552274.0293962704
 30
0.0
  0
VERTEX
  5
3BE
  8
CLUSTERS
 10
729050.31104187935
 20
4552274.0293962704
 30
0.0
  0
VERTEX
  5
3BF
  8
CLUSTERS
 10
729050.31104187935
 20
4552370.7090958618
 30
0.0
  0
VERTEX
  5
3C0
  8
CLUSTERS
 10
728921.33125096082
 20
4552370.7090958618
 30
0.0
  0
SEQEND
  5
3C1
  8
CLUSTERS
  0
POLYLINE
  5
E8
  8
CLUSTERS
 66
     1
 10
0.0
 20
0.0
 30
0.0
 70
     1
  0
VERTEX
  5
3C2
  8
CLUSTERS
 10
728224.84045659751
 20
4551423.2479001489
 30
0.0
  0
VERTEX
  5
3C3
  8
CLUSTERS
 10
728321.57539553323
 20
4551423.2479001489
 30
0.0
  0
VERTEX
  5
3C4
  8
CLUSTERS
 10
728321.57539553323
 20
4551539.2635269566
 30
0.0
  0
VERTEX
  5
3C5
  8
CLUSTERS
 10
728224.84045659751
 20
4551539.2635269566
 30
0.0
  0
SEQEND
  5
3C6
  8
CLUSTERS
  0
POLYLINE
  5
E9
  8
CLUSTERS
 66
     1
 10
0.0
 20
0.0
 30
0.0
 70
     1
  0
VERTEX
  5
3C7
  8
CLUSTERS
 10
729443.6994105645
 20
4550301.7632324668
 30
0.0
  0
VERTEX
  5
3C8
  8
CLUSTERS
 10
729579.12819741212
 20
4550301.7632324668
 30
0.0
  0
VERTEX
  5
3C9
  8
CLUSTERS
 10
729579.12819741212
 20
4550398.44293206
 30
0.0
  0
VERTEX
  5
3CA
  8
CLUSTERS
 10
729443.6994105645
 20
4550398.44293206
 30
0.0
  0
SEQEND
  5
3CB
  8
CLUSTERS
  0
POLYLINE
  5
EA
  8
CLUSTERS
 66
     1
 10
0.0
 20
0.0
 30
0.0
 70
     1
  0
VERTEX
  5
3CC
  8
CLUSTERS
 10
728785.9025917754
 20
4550862.5055663083
 30
0.0
  0
VERTEX
  5
3CD
  8
CLUSTERS
 10
728908.43338676495
 20
4550862.5055663083
 30
0.0
  0
VERTEX
  5
3CE
  8
CLUSTERS
 10
728908.43338676495
 20
4550997.8571838401
 30
0.0
  0
VERTEX
  5
3CF
  8
CLUSTERS
 10
728785.9025917754
 20
4550997.8571838401
 30
0.0
  0
SEQEND
  5
3D0
  8
CLUSTERS
  0
POLYLINE
  5
EB
  8
CLUSTERS
 66
     1
 10
0.0
 20
0.0
 30
0.0
 70
     1
  0
VERTEX
  5
3D1
  8
CLUSTERS
 10
728727.86162841402
 20
4550321.099159684
 30
0.0
  0
VERTEX
  5
3D2
  8
CLUSTERS
 10
728831.0454356164
 20
4550321.099159684
 30
0.0
  0
VERTEX
  5
3D3
  8
CLUSTERS
 10
728831.0454356164
 20
4550417.7788592773
 30
0.0
  0
VERTEX
  5
3D4
  8
CLUSTERS
 10
728727.86162841402
 20
4550417.7788592773
 30
0.0
  0
SEQEND
  5
3D5
  8
CLUSTERS
  0
POLYLINE
  5
EC
  8
CLUSTERS
 66
     1
 10
0.0
 20
0.0
 30
0.0
 70
     1
  0
VERTEX
  5
3D6
  8
CLUSTERS
 10
728553.73899365426
 20
4549631.4505173843
 30
0.0
  0
VERTEX
  5
3D7
  8
CLUSTERS
 10
728644.02480899869
 20
4549631.4505173843
 30
0.0
  0
VERTEX
  5
3D8
  8
CLUSTERS
 10
728644.02480899869
 20
4549747.4662076989
 30
0.0
  0
VERTEX
  5
3D9
  8
CLUSTERS
 10
728553.73899365426
 20
4549747.4662076989
 30
0.0
  0
SEQEND
  5
3DA
  8
CLUSTERS
  0
POLYLINE
  5
ED
  8
CLUSTERS
 66
     1
 10
0.0
 20
0.0
 30
0.0
 70
     1
  0
VERTEX
  5
3DB
  8
CLUSTERS
 10
728773.00459991733
 20
4548645.317467236
 30
0.0
  0
VERTEX
  5
3DC
  8
CLUSTERS
 10
728908.43338676495
 20
4548645.317467236
 30
0.0
  0
VERTEX
  5
3DD
  8
CLUSTERS
 10
728908.43338676495
 20
4548754.8877849728
 30
0.0
  0
VERTEX
  5
3DE
  8
CLUSTERS
 10
728773.00459991733
 20
4548754.8877849728
 30
0.0
  0
SEQEND
  5
3DF
  8
CLUSTERS
  0
POLYLINE
  5
EE
  8
CLUSTERS
 66
     1
 10
0.0
 20
0.0
 30
0.0
 70
     1
  0
VERTEX
  5
3E0
  8
CLUSTERS
 10
726928.59380680649
 20
4551455.4744455097
 30
0.0
  0
VERTEX
  5
3E1
  8
CLUSTERS
 10
727051.12460179615
 20
4551455.4744455097
 30
0.0
  0
VERTEX
  5
3E2
  8
CLUSTERS
 10
727051.12460179615
 20
4551545.7088360293
 30
0.0
  0
VERTEX
  5
3E3
  8
CLUSTERS
 10
726928.59380680649
 20
4551545.7088360293
 30
0.0
  0
SEQEND
  5
3E4
  8
CLUSTERS
  0
POLYLINE
  5
EF
  8
CLUSTERS
 66
     1
 10
0.0
 20
0.0
 30
0.0
 70
     1
  0
VERTEX
  5
3E5
  8
CLUSTERS
 10
726825.4099996041
 20
4550275.9819326708
 30
0.0
  0
VERTEX
  5
3E6
  8
CLUSTERS
 10
726928.59380680649
 20
4550275.9819326708
 30
0.0
  0
VERTEX
  5
3E7
  8
CLUSTERS
 10
726928.59380680649
 20
4550366.2163866982
 30
0.0
  0
VERTEX
  5
3E8
  8
CLUSTERS
 10
726825.4099996041
 20
4550366.2163866982
 30
0.0
  0
SEQEND
  5
3E9
  8
CLUSTERS
  0
POLYLINE
  5
F0
  8
CLUSTERS
 66
     1
 10
0.0
 20
0.0
 30
0.0
 70
   129
  0
VERTEX
  5
3EA
  8
CLUSTERS
 10
743614.19310196582
 20
4572409.545545347
 30
0.0
  0
VERTEX
  5
3EB
  8
CLUSTERS
 10
743600.87919919938
 20
4572496.0360531304
 30
0.0
  0
VERTEX
  5
3EC
  8
CLUSTERS
 10
743623.06890977302
 20
4572573.6557509759
 30
0.0
  0
VERTEX
  5
3ED
  8
CLUSTERS
 10
743665.22928344086
 20
4572622.4452373181
 30
0.0
  0
VERTEX
  5
3EE
  8
CLUSTERS
 10
743693.1216930002
 20
4572691.1166399987
 30
0.0
  0
VERTEX
  5
3EF
  8
CLUSTERS
 10
743793.65079400002
 20
4572691.7963300003
 30
0.0
  0
VERTEX
  5
3F0
  8
CLUSTERS
 10
743834.04768800002
 20
4572698.8847599998
 30
0.0
  0
VERTEX
  5
3F1
  8
CLUSTERS
 10
743894.17989399994
 20
4572748.0484300014
 30
0.0
  0
VERTEX
  5
3F2
  8
CLUSTERS
 10
743994.70899499999
 20
4572775.4459800003
 30
0.0
  0
VERTEX
  5
3F3
  8
CLUSTERS
 10
744095.23809500004
 20
4572748.7458100012
 30
0.0
  0
VERTEX
  5
3F4
  8
CLUSTERS
 10
744144.81526499998
 20
4572698.8847599998
 30
0.0
  0
VERTEX
  5
3F5
  8
CLUSTERS
 10
744139.50875799998
 20
4572598.5130099989
 30
0.0
  0
VERTEX
  5
3F6
  8
CLUSTERS
 10
744095.23809500004
 20
4572552.9942300003
 30
0.0
  0
VERTEX
  5
3F7
  8
CLUSTERS
 10
743994.70899499999
 20
4572503.8448599987
 30
0.0
  0
VERTEX
  5
3F8
  8
CLUSTERS
 10
743989.98638999998
 20
4572498.141259999
 30
0.0
  0
VERTEX
  5
3F9
  8
CLUSTERS
 10
743894.17989399994
 20
4572413.2083799988
 30
0.0
  0
VERTEX
  5
3FA
  8
CLUSTERS
 10
743866.78198199999
 20
4572397.7695200006
 30
0.0
  0
VERTEX
  5
3FB
  8
CLUSTERS
 10
743793.65079400002
 20
4572329.4246100001
 30
0.0
  0
VERTEX
  5
3FC
  8
CLUSTERS
 10
743693.1216930002
 20
4572316.8517399998
 30
0.0
  0
VERTEX
  5
3FD
  8
CLUSTERS
 10
743658.57239574275
 20
4572360.7560590031
 30
0.0
  0
VERTEX
  5
3FE
  8
CLUSTERS
 10
743614.19310196582
 20
4572409.545545347
 30
0.0
  0
SEQEND
  5
3FF
  8
CLUSTERS
  0
POLYLINE
  5
F1
  8
CLUSTERS
 66
     1
 10
0.0
 20
0.0
 30
0.0
 70
   129
  0
VERTEX
  5
400
  8
CLUSTERS
 10
743074.98354261101
 20
4572429.5049469089
 30
0.0
  0
VERTEX
  5
401
  8
CLUSTERS
 10
743055.01275214646
 20
4572544.825602835
 30
0.0
  0
VERTEX
  5
402
  8
CLUSTERS
 10
743088.29731800675
 20
4572595.8328075018
 30
0.0
  0
VERTEX
  5
403
  8
CLUSTERS
 10
743089.94709000003
 20
4572661.0066499999
 30
0.0
  0
VERTEX
  5
404
  8
CLUSTERS
 10
743190.47619000019
 20
4572688.94257
 30
0.0
  0
VERTEX
  5
405
  8
CLUSTERS
 10
743243.62516465224
 20
4572669.017068699
 30
0.0
  0
VERTEX
  5
406
  8
CLUSTERS
 10
743305.75632878451
 20
4572618.0098640304
 30
0.0
  0
VERTEX
  5
407
  8
CLUSTERS
 10
743305.75632878451
 20
4572535.9547295338
 30
0.0
  0
VERTEX
  5
408
  8
CLUSTERS
 10
743305.75632878451
 20
4572449.464285112
 30
0.0
  0
VERTEX
  5
409
  8
CLUSTERS
 10
743291.00529100001
 20
4572323.7583999988
 30
0.0
  0
VERTEX
  5
40A
  8
CLUSTERS
 10
743190.47619000019
 20
4572313.1578400005
 30
0.0
  0
VERTEX
  5
40B
  8
CLUSTERS
 10
743089.94709000003
 20
4572346.5394900003
 30
0.0
  0
VERTEX
  5
40C
  8
CLUSTERS
 10
743074.98354261101
 20
4572429.5049469089
 30
0.0
  0
SEQEND
  5
40D
  8
CLUSTERS
  0
POLYLINE
  5
F2
  8
CLUSTERS
 66
     1
 10
0.0
 20
0.0
 30
0.0
 70
   129
  0
VERTEX
  5
40E
  8
CLUSTERS
 10
742677.05344499997
 20
4572297.3977699997
 30
0.0
  0
VERTEX
  5
40F
  8
CLUSTERS
 10
742587.30158699991
 20
4572311.9490700001
 30
0.0
  0
VERTEX
  5
410
  8
CLUSTERS
 10
742497.67535199993
 20
4572397.7695200006
 30
0.0
  0
VERTEX
  5
411
  8
CLUSTERS
 10
742488.27384299994
 20
4572498.141259999
 30
0.0
  0
VERTEX
  5
412
  8
CLUSTERS
 10
742519.99780400004
 20
4572598.5130099989
 30
0.0
  0
VERTEX
  5
413
  8
CLUSTERS
 10
742587.30158699991
 20
4572658.4968199991
 30
0.0
  0
VERTEX
  5
414
  8
CLUSTERS
 10
742687.83068799996
 20
4572678.7614900004
 30
0.0
  0
VERTEX
  5
415
  8
CLUSTERS
 10
742777.94889500004
 20
4572598.5130099989
 30
0.0
  0
VERTEX
  5
416
  8
CLUSTERS
 10
742788.35978800012
 20
4572595.011119999
 30
0.0
  0
VERTEX
  5
417
  8
CLUSTERS
 10
742813.14511068608
 20
4572555.9140677378
 30
0.0
  0
VERTEX
  5
418
  8
CLUSTERS
 10
742844.90390627016
 20
4572507.0103404829
 30
0.0
  0
VERTEX
  5
419
  8
CLUSTERS
 10
742859.74357931293
 20
4572449.464285112
 30
0.0
  0
VERTEX
  5
41A
  8
CLUSTERS
 10
742844.2107564375
 20
4572396.2393621188
 30
0.0
  0
VERTEX
  5
41B
  8
CLUSTERS
 10
742788.35978800012
 20
4572303.0978999985
 30
0.0
  0
VERTEX
  5
41C
  8
CLUSTERS
 10
742698.27667699999
 20
4572297.3977699997
 30
0.0
  0
VERTEX
  5
41D
  8
CLUSTERS
 10
742687.83068799996
 20
4572291.1791999992
 30
0.0
  0
VERTEX
  5
41E
  8
CLUSTERS
 10
742677.05344499997
 20
4572297.3977699997
 30
0.0
  0
SEQEND
  5
41F
  8
CLUSTERS
  0
POLYLINE
  5
F3
  8
CLUSTERS
 66
     1
 10
0.0
 20
0.0
 30
0.0
 70
   129
  0
VERTEX
  5
420
  8
CLUSTERS
 10
741343.4106030002
 20
4571895.9107800014
 30
0.0
  0
VERTEX
  5
421
  8
CLUSTERS
 10
741329.70652600005
 20
4571996.2825299986
 30
0.0
  0
VERTEX
  5
422
  8
CLUSTERS
 10
741380.95238100016
 20
4572060.6382400002
 30
0.0
  0
VERTEX
  5
423
  8
CLUSTERS
 10
741417.33582000004
 20
4572096.6542799994
 30
0.0
  0
VERTEX
  5
424
  8
CLUSTERS
 10
741481.48148099997
 20
4572146.4752700012
 30
0.0
  0
VERTEX
  5
425
  8
CLUSTERS
 10
741533.35314300004
 20
4572096.6542799994
 30
0.0
  0
VERTEX
  5
426
  8
CLUSTERS
 10
741573.89675199986
 20
4571996.2825299986
 30
0.0
  0
VERTEX
  5
427
  8
CLUSTERS
 10
741553.46387174167
 20
4571843.9165530726
 30
0.0
  0
VERTEX
  5
428
  8
CLUSTERS
 10
741478.01893221366
 20
4571784.0385384671
 30
0.0
  0
VERTEX
  5
429
  8
CLUSTERS
 10
741380.95238100016
 20
4571851.9655900002
 30
0.0
  0
VERTEX
  5
42A
  8
CLUSTERS
 10
741343.4106030002
 20
4571895.9107800014
 30
0.0
  0
SEQEND
  5
42B
  8
CLUSTERS
  0
POLYLINE
  5
F4
  8
CLUSTERS
 66
     1
 10
0.0
 20
0.0
 30
0.0
 70
   129
  0
VERTEX
  5
42C
  8
CLUSTERS
 10
742000.99029800016
 20
4571594.7955400003
 30
0.0
  0
VERTEX
  5
42D
  8
CLUSTERS
 10
742015.00944408891
 20
4571650.9762626644
 30
0.0
  0
VERTEX
  5
42E
  8
CLUSTERS
 10
742066.04575293441
 20
4571728.5958971484
 30
0.0
  0
VERTEX
  5
42F
  8
CLUSTERS
 10
742156.33493100002
 20
4571695.1672900002
 30
0.0
  0
VERTEX
  5
430
  8
CLUSTERS
 10
742130.39793700015
 20
4571594.7955400003
 30
0.0
  0
VERTEX
  5
431
  8
CLUSTERS
 10
742084.65608500014
 20
4571550.4429800007
 30
0.0
  0
VERTEX
  5
432
  8
CLUSTERS
 10
742000.99029800016
 20
4571594.7955400003
 30
0.0
  0
SEQEND
  5
433
  8
CLUSTERS
  0
POLYLINE
  5
F5
  8
CLUSTERS
 66
     1
 10
0.0
 20
0.0
 30
0.0
 70
   129
  0
VERTEX
  5
434
  8
CLUSTERS
 10
741393.38129300007
 20
4571494.4237900004
 30
0.0
  0
VERTEX
  5
435
  8
CLUSTERS
 10
741380.95238100016
 20
4571510.5099799996
 30
0.0
  0
VERTEX
  5
436
  8
CLUSTERS
 10
741325.63810699992
 20
4571594.7955400003
 30
0.0
  0
VERTEX
  5
437
  8
CLUSTERS
 10
741352.12468000012
 20
4571695.1672900002
 30
0.0
  0
VERTEX
  5
438
  8
CLUSTERS
 10
741380.95238100016
 20
4571725.9016500004
 30
0.0
  0
VERTEX
  5
439
  8
CLUSTERS
 10
741481.48148099997
 20
4571700.2264700001
 30
0.0
  0
VERTEX
  5
43A
  8
CLUSTERS
 10
741582.0105819999
 20
4571765.5627600001
 30
0.0
  0
VERTEX
  5
43B
  8
CLUSTERS
 10
741620.08298000006
 20
4571795.5390299996
 30
0.0
  0
VERTEX
  5
43C
  8
CLUSTERS
 10
741793.1124657226
 20
4571925.9716242068
 30
0.0
  0
VERTEX
  5
43D
  8
CLUSTERS
 10
741837.49188686989
 20
4571939.2778707966
 30
0.0
  0
VERTEX
  5
43E
  8
CLUSTERS
 10
742010.57147650025
 20
4571857.2227996616
 30
0.0
  0
VERTEX
  5
43F
  8
CLUSTERS
 10
742015.00944408891
 20
4571792.909348405
 30
0.0
  0
VERTEX
  5
440
  8
CLUSTERS
 10
741906.27993870026
 20
4571730.8136154739
 30
0.0
  0
VERTEX
  5
441
  8
CLUSTERS
 10
741935.12653697189
 20
4571577.79200147
 30
0.0
  0
VERTEX
  5
442
  8
CLUSTERS
 10
741883.59788399993
 20
4571502.0396299986
 30
0.0
  0
VERTEX
  5
443
  8
CLUSTERS
 10
741783.06878300011
 20
4571504.4631600007
 30
0.0
  0
VERTEX
  5
444
  8
CLUSTERS
 10
741682.53968300007
 20
4571505.6541999998
 30
0.0
  0
VERTEX
  5
445
  8
CLUSTERS
 10
741582.0105819999
 20
4571546.0120400004
 30
0.0
  0
VERTEX
  5
446
  8
CLUSTERS
 10
741542.42123999994
 20
4571494.4237900004
 30
0.0
  0
VERTEX
  5
447
  8
CLUSTERS
 10
741481.48148099997
 20
4571437.6814200003
 30
0.0
  0
VERTEX
  5
448
  8
CLUSTERS
 10
741393.38129300007
 20
4571494.4237900004
 30
0.0
  0
SEQEND
  5
449
  8
CLUSTERS
  0
POLYLINE
  5
F6
  8
CLUSTERS
 66
     1
 10
0.0
 20
0.0
 30
0.0
 70
   129
  0
VERTEX
  5
44A
  8
CLUSTERS
 10
741189.25224700011
 20
4571193.3085500002
 30
0.0
  0
VERTEX
  5
44B
  8
CLUSTERS
 10
741179.89417999994
 20
4571212.9736400004
 30
0.0
  0
VERTEX
  5
44C
  8
CLUSTERS
 10
741100.79410720197
 20
4571282.837238363
 30
0.0
  0
VERTEX
  5
44D
  8
CLUSTERS
 10
741100.79410720197
 20
4571393.7224576371
 30
0.0
  0
VERTEX
  5
44E
  8
CLUSTERS
 10
741160.70635122492
 20
4571458.0359088937
 30
0.0
  0
VERTEX
  5
44F
  8
CLUSTERS
 10
741227.27535557561
 20
4571446.9473806312
 30
0.0
  0
VERTEX
  5
450
  8
CLUSTERS
 10
741352.58928100008
 20
4571394.0520400004
 30
0.0
  0
VERTEX
  5
451
  8
CLUSTERS
 10
741370.54636000004
 20
4571293.6803000001
 30
0.0
  0
VERTEX
  5
452
  8
CLUSTERS
 10
741350.75861399993
 20
4571193.3085500002
 30
0.0
  0
VERTEX
  5
453
  8
CLUSTERS
 10
741280.4232800001
 20
4571124.5010099988
 30
0.0
  0
VERTEX
  5
454
  8
CLUSTERS
 10
741189.25224700011
 20
4571193.3085500002
 30
0.0
  0
SEQEND
  5
455
  8
CLUSTERS
  0
POLYLINE
  5
F7
  8
CLUSTERS
 66
     1
 10
0.0
 20
0.0
 30
0.0
 70
   129
  0
VERTEX
  5
456
  8
CLUSTERS
 10
743099.86051433277
 20
4570669.5811911169
 30
0.0
  0
VERTEX
  5
457
  8
CLUSTERS
 10
743148.06270393427
 20
4570744.1742334682
 30
0.0
  0
VERTEX
  5
458
  8
CLUSTERS
 10
743239.86961199995
 20
4570691.4498099992
 30
0.0
  0
VERTEX
  5
459
  8
CLUSTERS
 10
743246.0218938695
 20
4570641.6088319169
 30
0.0
  0
VERTEX
  5
45A
  8
CLUSTERS
 10
743099.86051433277
 20
4570669.5811911169
 30
0.0
  0
SEQEND
  5
45B
  8
CLUSTERS
  0
POLYLINE
  5
F8
  8
CLUSTERS
 66
     1
 10
0.0
 20
0.0
 30
0.0
 70
   129
  0
VERTEX
  5
45C
  8
CLUSTERS
 10
740127.70319415082
 20
4570098.5267376574
 30
0.0
  0
VERTEX
  5
45D
  8
CLUSTERS
 10
740197.34271724732
 20
4570238.280375462
 30
0.0
  0
VERTEX
  5
45E
  8
CLUSTERS
 10
740340.40694799996
 20
4570189.5910800006
 30
0.0
  0
VERTEX
  5
45F
  8
CLUSTERS
 10
740275.13227499987
 20
4570103.3849799996
 30
0.0
  0
VERTEX
  5
460
  8
CLUSTERS
 10
740127.70319415082
 20
4570098.5267376574
 30
0.0
  0
SEQEND
  5
461
  8
CLUSTERS
  0
POLYLINE
  5
F9
  8
CLUSTERS
 66
     1
 10
0.0
 20
0.0
 30
0.0
 70
   129
  0
VERTEX
  5
462
  8
CLUSTERS
 10
742995.72103600006
 20
4569988.8475799998
 30
0.0
  0
VERTEX
  5
463
  8
CLUSTERS
 10
742989.41798899975
 20
4570045.2874499997
 30
0.0
  0
VERTEX
  5
464
  8
CLUSTERS
 10
742981.19390800013
 20
4570089.2193299988
 30
0.0
  0
VERTEX
  5
465
  8
CLUSTERS
 10
742989.41798899975
 20
4570097.6590099987
 30
0.0
  0
VERTEX
  5
466
  8
CLUSTERS
 10
743089.94709000003
 20
4570168.4966099998
 30
0.0
  0
VERTEX
  5
467
  8
CLUSTERS
 10
743190.47619000019
 20
4570164.2373200012
 30
0.0
  0
VERTEX
  5
468
  8
CLUSTERS
 10
743264.99952100008
 20
4570089.2193299988
 30
0.0
  0
VERTEX
  5
469
  8
CLUSTERS
 10
743220.52329799999
 20
4569988.8475799998
 30
0.0
  0
VERTEX
  5
46A
  8
CLUSTERS
 10
743190.47619000019
 20
4569957.8564299997
 30
0.0
  0
VERTEX
  5
46B
  8
CLUSTERS
 10
743050.10351399891
 20
4569960.9474155018
 30
0.0
  0
VERTEX
  5
46C
  8
CLUSTERS
 10
742995.72103600006
 20
4569988.8475799998
 30
0.0
  0
SEQEND
  5
46D
  8
CLUSTERS
  0
POLYLINE
  5
FA
  8
CLUSTERS
 66
     1
 10
0.0
 20
0.0
 30
0.0
 70
   129
  0
VERTEX
  5
46E
  8
CLUSTERS
 10
741558.93837981916
 20
4569717.0814667661
 30
0.0
  0
VERTEX
  5
46F
  8
CLUSTERS
 10
741751.98863254325
 20
4569841.27293263
 30
0.0
  0
VERTEX
  5
470
  8
CLUSTERS
 10
741811.9008765663
 20
4569772.5241080839
 30
0.0
  0
VERTEX
  5
471
  8
CLUSTERS
 10
741712.04717898462
 20
4569717.0814667661
 30
0.0
  0
VERTEX
  5
472
  8
CLUSTERS
 10
741649.91601485247
 20
4569668.291980423
 30
0.0
  0
VERTEX
  5
473
  8
CLUSTERS
 10
741601.09875348676
 20
4569646.1149238953
 30
0.0
  0
VERTEX
  5
474
  8
CLUSTERS
 10
741558.93837981916
 20
4569717.0814667661
 30
0.0
  0
SEQEND
  5
475
  8
CLUSTERS
  0
POLYLINE
  5
FB
  8
CLUSTERS
 66
     1
 10
0.0
 20
0.0
 30
0.0
 70
   129
  0
VERTEX
  5
476
  8
CLUSTERS
 10
742029.60758200008
 20
4569486.9888499994
 30
0.0
  0
VERTEX
  5
477
  8
CLUSTERS
 10
741984.12698399986
 20
4569551.1387200002
 30
0.0
  0
VERTEX
  5
478
  8
CLUSTERS
 10
741960.35291399993
 20
4569587.3605899988
 30
0.0
  0
VERTEX
  5
479
  8
CLUSTERS
 10
741984.12698399986
 20
4569607.6378499996
 30
0.0
  0
VERTEX
  5
47A
  8
CLUSTERS
 10
742084.65608500014
 20
4569672.3985799998
 30
0.0
  0
VERTEX
  5
47B
  8
CLUSTERS
 10
742169.86463199998
 20
4569587.3605899988
 30
0.0
  0
VERTEX
  5
47C
  8
CLUSTERS
 10
742119.83797399991
 20
4569486.9888499994
 30
0.0
  0
VERTEX
  5
47D
  8
CLUSTERS
 10
742084.65608500014
 20
4569452.5324799987
 30
0.0
  0
VERTEX
  5
47E
  8
CLUSTERS
 10
742029.60758200008
 20
4569486.9888499994
 30
0.0
  0
SEQEND
  5
47F
  8
CLUSTERS
  0
POLYLINE
  5
FC
  8
CLUSTERS
 66
     1
 10
0.0
 20
0.0
 30
0.0
 70
   129
  0
VERTEX
  5
480
  8
CLUSTERS
 10
741572.25215521525
 20
4569428.7797952732
 30
0.0
  0
VERTEX
  5
481
  8
CLUSTERS
 10
741687.63854830188
 20
4569550.7536061732
 30
0.0
  0
VERTEX
  5
482
  8
CLUSTERS
 10
741749.76971243415
 20
4569577.3660359886
 30
0.0
  0
VERTEX
  5
483
  8
CLUSTERS
 10
741811.9008765663
 20
4569590.6722825766
 30
0.0
  0
VERTEX
  5
484
  8
CLUSTERS
 10
741818.55776426429
 20
4569559.624416112
 30
0.0
  0
VERTEX
  5
485
  8
CLUSTERS
 10
741816.33871678472
 20
4569508.6172114434
 30
0.0
  0
VERTEX
  5
486
  8
CLUSTERS
 10
741765.30253530969
 20
4569468.6984716766
 30
0.0
  0
VERTEX
  5
487
  8
CLUSTERS
 10
741603.31767359586
 20
4569402.1673654569
 30
0.0
  0
VERTEX
  5
488
  8
CLUSTERS
 10
741572.25215521525
 20
4569428.7797952732
 30
0.0
  0
SEQEND
  5
489
  8
CLUSTERS
  0
POLYLINE
  5
FD
  8
CLUSTERS
 66
     1
 10
0.0
 20
0.0
 30
0.0
 70
   129
  0
VERTEX
  5
48A
  8
CLUSTERS
 10
741660.89583599998
 20
4569185.8736100001
 30
0.0
  0
VERTEX
  5
48B
  8
CLUSTERS
 10
741590.31489899999
 20
4569286.2453500004
 30
0.0
  0
VERTEX
  5
48C
  8
CLUSTERS
 10
741728.08761790185
 20
4569389.9469480487
 30
0.0
  0
VERTEX
  5
48D
  8
CLUSTERS
 10
741796.0433149779
 20
4569389.9469480487
 30
0.0
  0
VERTEX
  5
48E
  8
CLUSTERS
 10
741865.00907100015
 20
4569286.2453500004
 30
0.0
  0
VERTEX
  5
48F
  8
CLUSTERS
 10
741791.46040899993
 20
4569185.8736100001
 30
0.0
  0
VERTEX
  5
490
  8
CLUSTERS
 10
741783.06878300011
 20
4569177.6679100003
 30
0.0
  0
VERTEX
  5
491
  8
CLUSTERS
 10
741682.53968300007
 20
4569169.1133399997
 30
0.0
  0
VERTEX
  5
492
  8
CLUSTERS
 10
741660.89583599998
 20
4569185.8736100001
 30
0.0
  0
SEQEND
  5
493
  8
CLUSTERS
  0
POLYLINE
  5
FE
  8
CLUSTERS
 66
     1
 10
0.0
 20
0.0
 30
0.0
 70
   129
  0
VERTEX
  5
494
  8
CLUSTERS
 10
743201.13650400005
 20
4568684.0148700001
 30
0.0
  0
VERTEX
  5
495
  8
CLUSTERS
 10
743190.47619000019
 20
4568725.3075899994
 30
0.0
  0
VERTEX
  5
496
  8
CLUSTERS
 10
743163.68906400003
 20
4568784.3866199991
 30
0.0
  0
VERTEX
  5
497
  8
CLUSTERS
 10
743190.47619000019
 20
4568810.3695700001
 30
0.0
  0
VERTEX
  5
498
  8
CLUSTERS
 10
743285.57245099999
 20
4568884.7583600003
 30
0.0
  0
VERTEX
  5
499
  8
CLUSTERS
 10
743291.00529100001
 20
4568889.9656400001
 30
0.0
  0
VERTEX
  5
49A
  8
CLUSTERS
 10
743391.53439199994
 20
4568946.6787799997
 30
0.0
  0
VERTEX
  5
49B
  8
CLUSTERS
 10
743453.61352399993
 20
4568884.7583600003
 30
0.0
  0
VERTEX
  5
49C
  8
CLUSTERS
 10
743458.99662300013
 20
4568784.3866199991
 30
0.0
  0
VERTEX
  5
49D
  8
CLUSTERS
 10
743464.24720400001
 20
4568684.0148700001
 30
0.0
  0
VERTEX
  5
49E
  8
CLUSTERS
 10
743391.53439199994
 20
4568596.3223700002
 30
0.0
  0
VERTEX
  5
49F
  8
CLUSTERS
 10
743291.00529100001
 20
4568601.4183899993
 30
0.0
  0
VERTEX
  5
4A0
  8
CLUSTERS
 10
743201.13650400005
 20
4568684.0148700001
 30
0.0
  0
SEQEND
  5
4A1
  8
CLUSTERS
  0
POLYLINE
  5
FF
  8
CLUSTERS
 66
     1
 10
0.0
 20
0.0
 30
0.0
 70
   129
  0
VERTEX
  5
4A2
  8
CLUSTERS
 10
742678.79810194601
 20
4568527.2503357949
 30
0.0
  0
VERTEX
  5
4A3
  8
CLUSTERS
 10
742687.83068799996
 20
4568591.1386099998
 30
0.0
  0
VERTEX
  5
4A4
  8
CLUSTERS
 10
742785.30868722545
 20
4568640.3532733936
 30
0.0
  0
VERTEX
  5
4A5
  8
CLUSTERS
 10
742856.31565916492
 20
4568640.3532733936
 30
0.0
  0
VERTEX
  5
4A6
  8
CLUSTERS
 10
742938.41761376173
 20
4568706.8844429767
 30
0.0
  0
VERTEX
  5
4A7
  8
CLUSTERS
 10
742989.41798899975
 20
4568720.9428500002
 30
0.0
  0
VERTEX
  5
4A8
  8
CLUSTERS
 10
743021.83670100023
 20
4568684.0148700001
 30
0.0
  0
VERTEX
  5
4A9
  8
CLUSTERS
 10
743044.9280716707
 20
4568613.7407802157
 30
0.0
  0
VERTEX
  5
4AA
  8
CLUSTERS
 10
742958.38827685569
 20
4568520.5971808201
 30
0.0
  0
VERTEX
  5
4AB
  8
CLUSTERS
 10
742888.88888899994
 20
4568566.59296
 30
0.0
  0
VERTEX
  5
4AC
  8
CLUSTERS
 10
742788.35978800012
 20
4568488.5454599997
 30
0.0
  0
VERTEX
  5
4AD
  8
CLUSTERS
 10
742720.9586029842
 20
4568482.8962227404
 30
0.0
  0
VERTEX
  5
4AE
  8
CLUSTERS
 10
742678.79810194601
 20
4568527.2503357949
 30
0.0
  0
SEQEND
  5
4AF
  8
CLUSTERS
  0
POLYLINE
  5
100
  8
CLUSTERS
 66
     1
 10
0.0
 20
0.0
 30
0.0
 70
   129
  0
VERTEX
  5
4B0
  8
CLUSTERS
 10
743012.51176600007
 20
4568282.52788
 30
0.0
  0
VERTEX
  5
4B1
  8
CLUSTERS
 10
742989.41798899975
 20
4568287.9732900001
 30
0.0
  0
VERTEX
  5
4B2
  8
CLUSTERS
 10
742915.22737400001
 20
4568382.8996299999
 30
0.0
  0
VERTEX
  5
4B3
  8
CLUSTERS
 10
742989.41798899975
 20
4568455.0729200002
 30
0.0
  0
VERTEX
  5
4B4
  8
CLUSTERS
 10
743089.94709000003
 20
4568471.5463899989
 30
0.0
  0
VERTEX
  5
4B5
  8
CLUSTERS
 10
743178.30539899995
 20
4568382.8996299999
 30
0.0
  0
VERTEX
  5
4B6
  8
CLUSTERS
 10
743119.69246199995
 20
4568282.52788
 30
0.0
  0
VERTEX
  5
4B7
  8
CLUSTERS
 10
743089.94709000003
 20
4568253.5390299996
 30
0.0
  0
VERTEX
  5
4B8
  8
CLUSTERS
 10
743012.51176600007
 20
4568282.52788
 30
0.0
  0
SEQEND
  5
4B9
  8
CLUSTERS
  0
POLYLINE
  5
101
  8
CLUSTERS
 66
     1
 10
0.0
 20
0.0
 30
0.0
 70
   129
  0
VERTEX
  5
4BA
  8
CLUSTERS
 10
741086.81207600015
 20
4568282.52788
 30
0.0
  0
VERTEX
  5
4BB
  8
CLUSTERS
 10
741079.36507899989
 20
4568318.4327999987
 30
0.0
  0
VERTEX
  5
4BC
  8
CLUSTERS
 10
741048.93796500005
 20
4568382.8996299999
 30
0.0
  0
VERTEX
  5
4BD
  8
CLUSTERS
 10
741079.36507899989
 20
4568414.3503599996
 30
0.0
  0
VERTEX
  5
4BE
  8
CLUSTERS
 10
741179.89417999994
 20
4568477.0055600014
 30
0.0
  0
VERTEX
  5
4BF
  8
CLUSTERS
 10
741280.4232800001
 20
4568408.7113399999
 30
0.0
  0
VERTEX
  5
4C0
  8
CLUSTERS
 10
741305.83062300005
 20
4568382.8996299999
 30
0.0
  0
VERTEX
  5
4C1
  8
CLUSTERS
 10
741280.4232800001
 20
4568351.2228699988
 30
0.0
  0
VERTEX
  5
4C2
  8
CLUSTERS
 10
741260.44897899998
 20
4568282.52788
 30
0.0
  0
VERTEX
  5
4C3
  8
CLUSTERS
 10
741179.89417999994
 20
4568200.8161199996
 30
0.0
  0
VERTEX
  5
4C4
  8
CLUSTERS
 10
741086.81207600015
 20
4568282.52788
 30
0.0
  0
SEQEND
  5
4C5
  8
CLUSTERS
  0
POLYLINE
  5
102
  8
CLUSTERS
 66
     1
 10
0.0
 20
0.0
 30
0.0
 70
   129
  0
VERTEX
  5
4C6
  8
CLUSTERS
 10
741490.71198899997
 20
4568182.1561299991
 30
0.0
  0
VERTEX
  5
4C7
  8
CLUSTERS
 10
741582.0105819999
 20
4568265.0740499999
 30
0.0
  0
VERTEX
  5
4C8
  8
CLUSTERS
 10
741682.53968300007
 20
4568269.62751
 30
0.0
  0
VERTEX
  5
4C9
  8
CLUSTERS
 10
741770.02054699999
 20
4568182.1561299991
 30
0.0
  0
VERTEX
  5
4CA
  8
CLUSTERS
 10
741682.53968300007
 20
4568082.37426
 30
0.0
  0
VERTEX
  5
4CB
  8
CLUSTERS
 10
741582.0105819999
 20
4568084.2189499997
 30
0.0
  0
VERTEX
  5
4CC
  8
CLUSTERS
 10
741490.71198899997
 20
4568182.1561299991
 30
0.0
  0
SEQEND
  5
4CD
  8
CLUSTERS
  0
POLYLINE
  5
103
  8
CLUSTERS
 66
     1
 10
0.0
 20
0.0
 30
0.0
 70
   129
  0
VERTEX
  5
4CE
  8
CLUSTERS
 10
741062.55228454503
 20
4568027.7084118566
 30
0.0
  0
VERTEX
  5
4CF
  8
CLUSTERS
 10
741137.99722407339
 20
4568083.1510531753
 30
0.0
  0
VERTEX
  5
4D0
  8
CLUSTERS
 10
741242.28876187315
 20
4568047.6677500587
 30
0.0
  0
VERTEX
  5
4D1
  8
CLUSTERS
 10
741129.76023854502
 20
4567961.3966618562
 30
0.0
  0
VERTEX
  5
4D2
  8
CLUSTERS
 10
741062.55228454503
 20
4568027.7084118566
 30
0.0
  0
SEQEND
  5
4D3
  8
CLUSTERS
  0
POLYLINE
  5
104
  8
CLUSTERS
 66
     1
 10
0.0
 20
0.0
 30
0.0
 70
   129
  0
VERTEX
  5
4D4
  8
CLUSTERS
 10
742707.00746600016
 20
4567832.187658133
 30
0.0
  0
VERTEX
  5
4D5
  8
CLUSTERS
 10
742788.35978800012
 20
4567923.9564800002
 30
0.0
  0
VERTEX
  5
4D6
  8
CLUSTERS
 10
742831.21436999994
 20
4567881.0408899989
 30
0.0
  0
VERTEX
  5
4D7
  8
CLUSTERS
 10
742782.45240552828
 20
4567785.6158901136
 30
0.0
  0
VERTEX
  5
4D8
  8
CLUSTERS
 10
742707.00746600016
 20
4567832.187658133
 30
0.0
  0
SEQEND
  5
4D9
  8
CLUSTERS
  0
POLYLINE
  5
105
  8
CLUSTERS
 66
     1
 10
0.0
 20
0.0
 30
0.0
 70
   129
  0
VERTEX
  5
4DA
  8
CLUSTERS
 10
739536.84420199995
 20
4567178.4386600005
 30
0.0
  0
VERTEX
  5
4DB
  8
CLUSTERS
 10
739509.27381809196
 20
4567253.7294051731
 30
0.0
  0
VERTEX
  5
4DC
  8
CLUSTERS
 10
739571.42857100011
 20
4567311.2007099986
 30
0.0
  0
VERTEX
  5
4DD
  8
CLUSTERS
 10
739639.34097600006
 20
4567379.1821599994
 30
0.0
  0
VERTEX
  5
4DE
  8
CLUSTERS
 10
739665.57215300004
 20
4567479.5538999997
 30
0.0
  0
VERTEX
  5
4DF
  8
CLUSTERS
 10
739555.87215934845
 20
4567519.8540201392
 30
0.0
  0
VERTEX
  5
4E0
  8
CLUSTERS
 10
739547.05456600012
 20
4567579.9256499996
 30
0.0
  0
VERTEX
  5
4E1
  8
CLUSTERS
 10
739571.42857100011
 20
4567629.8751499997
 30
0.0
  0
VERTEX
  5
4E2
  8
CLUSTERS
 10
739583.25901799987
 20
4567680.2973999996
 30
0.0
  0
VERTEX
  5
4E3
  8
CLUSTERS
 10
739671.95767199993
 20
4567750.9927300001
 30
0.0
  0
VERTEX
  5
4E4
  8
CLUSTERS
 10
739826.40247619245
 20
4567854.0877612364
 30
0.0
  0
VERTEX
  5
4E5
  8
CLUSTERS
 10
739953.06790219515
 20
4567825.6042642472
 30
0.0
  0
VERTEX
  5
4E6
  8
CLUSTERS
 10
739948.99475300009
 20
4567680.2973999996
 30
0.0
  0
VERTEX
  5
4E7
  8
CLUSTERS
 10
739878.77504399989
 20
4567579.9256499996
 30
0.0
  0
VERTEX
  5
4E8
  8
CLUSTERS
 10
739873.01587300014
 20
4567573.5450800005
 30
0.0
  0
VERTEX
  5
4E9
  8
CLUSTERS
 10
739772.48677199997
 20
4567481.4131700005
 30
0.0
  0
VERTEX
  5
4EA
  8
CLUSTERS
 10
739753.36050703214
 20
4567440.016603969
 30
0.0
  0
VERTEX
  5
4EB
  8
CLUSTERS
 10
739703.81769800012
 20
4567379.1821599994
 30
0.0
  0
VERTEX
  5
4EC
  8
CLUSTERS
 10
739684.57245520188
 20
4567320.2605747553
 30
0.0
  0
VERTEX
  5
4ED
  8
CLUSTERS
 10
739644.63100164325
 20
4567253.7294051731
 30
0.0
  0
VERTEX
  5
4EE
  8
CLUSTERS
 10
739620.22237096052
 20
4567145.061840862
 30
0.0
  0
VERTEX
  5
4EF
  8
CLUSTERS
 10
739571.42857100011
 20
4567143.5122400001
 30
0.0
  0
VERTEX
  5
4F0
  8
CLUSTERS
 10
739536.84420199995
 20
4567178.4386600005
 30
0.0
  0
SEQEND
  5
4F1
  8
CLUSTERS
  0
POLYLINE
  5
106
  8
CLUSTERS
 66
     1
 10
0.0
 20
0.0
 30
0.0
 70
   129
  0
VERTEX
  5
4F2
  8
CLUSTERS
 10
739280.85203299997
 20
4566977.6951699993
 30
0.0
  0
VERTEX
  5
4F3
  8
CLUSTERS
 10
739370.37037000014
 20
4567065.3412000006
 30
0.0
  0
VERTEX
  5
4F4
  8
CLUSTERS
 10
739470.89947100007
 20
4567060.9699999997
 30
0.0
  0
VERTEX
  5
4F5
  8
CLUSTERS
 10
739554.05750600004
 20
4566977.6951699993
 30
0.0
  0
VERTEX
  5
4F6
  8
CLUSTERS
 10
739470.89947100007
 20
4566891.1560800001
 30
0.0
  0
VERTEX
  5
4F7
  8
CLUSTERS
 10
739370.37037000014
 20
4566886.2671800004
 30
0.0
  0
VERTEX
  5
4F8
  8
CLUSTERS
 10
739280.85203299997
 20
4566977.6951699993
 30
0.0
  0
SEQEND
  5
4F9
  8
CLUSTERS
  0
POLYLINE
  5
107
  8
CLUSTERS
 66
     1
 10
0.0
 20
0.0
 30
0.0
 70
   129
  0
VERTEX
  5
4FA
  8
CLUSTERS
 10
738714.99352677679
 20
4566911.3376718052
 30
0.0
  0
VERTEX
  5
4FB
  8
CLUSTERS
 10
738819.53384399996
 20
4567078.0669099996
 30
0.0
  0
VERTEX
  5
4FC
  8
CLUSTERS
 10
738867.72486800014
 20
4567125.21906
 30
0.0
  0
VERTEX
  5
4FD
  8
CLUSTERS
 10
738968.25396799995
 20
4567100.9128099997
 30
0.0
  0
VERTEX
  5
4FE
  8
CLUSTERS
 10
738991.17297399987
 20
4567078.0669099996
 30
0.0
  0
VERTEX
  5
4FF
  8
CLUSTERS
 10
738968.25396799995
 20
4566977.8860600004
 30
0.0
  0
VERTEX
  5
500
  8
CLUSTERS
 10
738968.24306999997
 20
4566977.6951699993
 30
0.0
  0
VERTEX
  5
501
  8
CLUSTERS
 10
738818.17732402298
 20
4566821.1032555504
 30
0.0
  0
VERTEX
  5
502
  8
CLUSTERS
 10
738714.99352677679
 20
4566911.3376718052
 30
0.0
  0
SEQEND
  5
503
  8
CLUSTERS
  0
POLYLINE
  5
108
  8
CLUSTERS
 66
     1
 10
0.0
 20
0.0
 30
0.0
 70
   129
  0
VERTEX
  5
504
  8
CLUSTERS
 10
740779.01324300002
 20
4566174.72119
 30
0.0
  0
VERTEX
  5
505
  8
CLUSTERS
 10
740778.43324899988
 20
4566275.092939999
 30
0.0
  0
VERTEX
  5
506
  8
CLUSTERS
 10
740878.30687800003
 20
4566369.9873499991
 30
0.0
  0
VERTEX
  5
507
  8
CLUSTERS
 10
740978.83597899985
 20
4566368.6530400002
 30
0.0
  0
VERTEX
  5
508
  8
CLUSTERS
 10
741072.40446699993
 20
4566275.092939999
 30
0.0
  0
VERTEX
  5
509
  8
CLUSTERS
 10
741065.4499580001
 20
4566174.72119
 30
0.0
  0
VERTEX
  5
50A
  8
CLUSTERS
 10
740978.83597899985
 20
4566084.8432099996
 30
0.0
  0
VERTEX
  5
50B
  8
CLUSTERS
 10
740878.30687800003
 20
4566077.6741299983
 30
0.0
  0
VERTEX
  5
50C
  8
CLUSTERS
 10
740779.01324300002
 20
4566174.72119
 30
0.0
  0
SEQEND
  5
50D
  8
CLUSTERS
  0
POLYLINE
  5
109
  8
CLUSTERS
 66
     1
 10
0.0
 20
0.0
 30
0.0
 70
   129
  0
VERTEX
  5
50E
  8
CLUSTERS
 10
738904.30112704216
 20
4565860.3190058712
 30
0.0
  0
VERTEX
  5
50F
  8
CLUSTERS
 10
738958.71800104203
 20
4565913.9725258714
 30
0.0
  0
VERTEX
  5
510
  8
CLUSTERS
 10
739059.24710204196
 20
4565896.7563458709
 30
0.0
  0
VERTEX
  5
511
  8
CLUSTERS
 10
739096.6103020421
 20
4565860.3190058712
 30
0.0
  0
VERTEX
  5
512
  8
CLUSTERS
 10
739059.24710204196
 20
4565815.4838958718
 30
0.0
  0
VERTEX
  5
513
  8
CLUSTERS
 10
738958.71800104203
 20
4565803.0673058713
 30
0.0
  0
VERTEX
  5
514
  8
CLUSTERS
 10
738904.30112704216
 20
4565860.3190058712
 30
0.0
  0
SEQEND
  5
515
  8
CLUSTERS
  0
POLYLINE
  5
10A
  8
CLUSTERS
 66
     1
 10
0.0
 20
0.0
 30
0.0
 70
   129
  0
VERTEX
  5
516
  8
CLUSTERS
 10
741109.78494100005
 20
4565672.862449999
 30
0.0
  0
VERTEX
  5
517
  8
CLUSTERS
 10
741095.49038199999
 20
4565773.2341999998
 30
0.0
  0
VERTEX
  5
518
  8
CLUSTERS
 10
741179.89417999994
 20
4565852.5216300003
 30
0.0
  0
VERTEX
  5
519
  8
CLUSTERS
 10
741259.26705300005
 20
4565773.2341999998
 30
0.0
  0
VERTEX
  5
51A
  8
CLUSTERS
 10
741244.852449
 20
4565672.862449999
 30
0.0
  0
VERTEX
  5
51B
  8
CLUSTERS
 10
741179.89417999994
 20
4565606.0730400002
 30
0.0
  0
VERTEX
  5
51C
  8
CLUSTERS
 10
741109.78494100005
 20
4565672.862449999
 30
0.0
  0
SEQEND
  5
51D
  8
CLUSTERS
  0
POLYLINE
  5
10B
  8
CLUSTERS
 66
     1
 10
0.0
 20
0.0
 30
0.0
 70
   129
  0
VERTEX
  5
51E
  8
CLUSTERS
 10
741806.59881600016
 20
4565070.6319700014
 30
0.0
  0
VERTEX
  5
51F
  8
CLUSTERS
 10
741783.06878300011
 20
4565073.3531499999
 30
0.0
  0
VERTEX
  5
520
  8
CLUSTERS
 10
741765.36520155706
 20
4565196.8840797674
 30
0.0
  0
VERTEX
  5
521
  8
CLUSTERS
 10
741758.91618238657
 20
4565280.6731669977
 30
0.0
  0
VERTEX
  5
522
  8
CLUSTERS
 10
741706.70736300014
 20
4565371.7472099997
 30
0.0
  0
VERTEX
  5
523
  8
CLUSTERS
 10
741783.06878300011
 20
4565446.75232
 30
0.0
  0
VERTEX
  5
524
  8
CLUSTERS
 10
741883.59788399993
 20
4565469.2132099997
 30
0.0
  0
VERTEX
  5
525
  8
CLUSTERS
 10
741984.12698399986
 20
4565462.7142899986
 30
0.0
  0
VERTEX
  5
526
  8
CLUSTERS
 10
742075.46544299996
 20
4565371.7472099997
 30
0.0
  0
VERTEX
  5
527
  8
CLUSTERS
 10
742083.77689500013
 20
4565271.3754599998
 30
0.0
  0
VERTEX
  5
528
  8
CLUSTERS
 10
742062.52078200015
 20
4565171.0037200004
 30
0.0
  0
VERTEX
  5
529
  8
CLUSTERS
 10
741984.12698399986
 20
4565092.0048500001
 30
0.0
  0
VERTEX
  5
52A
  8
CLUSTERS
 10
741928.60270699998
 20
4565070.6319700014
 30
0.0
  0
VERTEX
  5
52B
  8
CLUSTERS
 10
741883.59788399993
 20
4565034.2924800003
 30
0.0
  0
VERTEX
  5
52C
  8
CLUSTERS
 10
741806.59881600016
 20
4565070.6319700014
 30
0.0
  0
SEQEND
  5
52D
  8
CLUSTERS
  0
POLYLINE
  5
10C
  8
CLUSTERS
 66
     1
 10
0.0
 20
0.0
 30
0.0
 70
   129
  0
VERTEX
  5
52E
  8
CLUSTERS
 10
741381.51262199995
 20
4565070.6319700014
 30
0.0
  0
VERTEX
  5
52F
  8
CLUSTERS
 10
741380.95238100016
 20
4565072.0733199986
 30
0.0
  0
VERTEX
  5
530
  8
CLUSTERS
 10
741385.98996130715
 20
4565148.0022111367
 30
0.0
  0
VERTEX
  5
531
  8
CLUSTERS
 10
741380.95238100016
 20
4565244.3038900001
 30
0.0
  0
VERTEX
  5
532
  8
CLUSTERS
 10
741481.48148099997
 20
4565270.5476499991
 30
0.0
  0
VERTEX
  5
533
  8
CLUSTERS
 10
741539.65054955345
 20
4565248.4465852389
 30
0.0
  0
VERTEX
  5
534
  8
CLUSTERS
 10
741584.79342900601
 20
4565151.7669033203
 30
0.0
  0
VERTEX
  5
535
  8
CLUSTERS
 10
741650.89723
 20
4565070.6319700014
 30
0.0
  0
VERTEX
  5
536
  8
CLUSTERS
 10
741582.0105819999
 20
4565009.4286200004
 30
0.0
  0
VERTEX
  5
537
  8
CLUSTERS
 10
741481.48148099997
 20
4564982.4616700001
 30
0.0
  0
VERTEX
  5
538
  8
CLUSTERS
 10
741381.51262199995
 20
4565070.6319700014
 30
0.0
  0
SEQEND
  5
539
  8
CLUSTERS
  0
POLYLINE
  5
10D
  8
CLUSTERS
 66
     1
 10
0.0
 20
0.0
 30
0.0
 70
   129
  0
VERTEX
  5
53A
  8
CLUSTERS
 10
739016.52937053307
 20
4564839.5663246242
 30
0.0
  0
VERTEX
  5
53B
  8
CLUSTERS
 10
738986.98618342751
 20
4564864.4306720747
 30
0.0
  0
VERTEX
  5
53C
  8
CLUSTERS
 10
738949.66830580658
 20
4564886.1869444139
 30
0.0
  0
VERTEX
  5
53D
  8
CLUSTERS
 10
738910.79561745306
 20
4564878.4168516761
 30
0.0
  0
VERTEX
  5
53E
  8
CLUSTERS
 10
738854.81899207702
 20
4564872.2007648135
 30
0.0
  0
VERTEX
  5
53F
  8
CLUSTERS
 10
738767.19576699997
 20
4564883.5905899992
 30
0.0
  0
VERTEX
  5
540
  8
CLUSTERS
 10
738666.66666700004
 20
4564902.9788099993
 30
0.0
  0
VERTEX
  5
541
  8
CLUSTERS
 10
738599.46532700001
 20
4564970.2602199987
 30
0.0
  0
VERTEX
  5
542
  8
CLUSTERS
 10
738579.66304000001
 20
4565070.6319700014
 30
0.0
  0
VERTEX
  5
543
  8
CLUSTERS
 10
738583.50916699995
 20
4565171.0037200004
 30
0.0
  0
VERTEX
  5
544
  8
CLUSTERS
 10
738666.66666700004
 20
4565253.5238399999
 30
0.0
  0
VERTEX
  5
545
  8
CLUSTERS
 10
738751.42791300011
 20
4565171.0037200004
 30
0.0
  0
VERTEX
  5
546
  8
CLUSTERS
 10
738767.19576699997
 20
4565167.1111699995
 30
0.0
  0
VERTEX
  5
547
  8
CLUSTERS
 10
738788.53356600006
 20
4565171.0037200004
 30
0.0
  0
VERTEX
  5
548
  8
CLUSTERS
 10
738867.72486800014
 20
4565249.8522399999
 30
0.0
  0
VERTEX
  5
549
  8
CLUSTERS
 10
738968.25396799995
 20
4565268.8570900001
 30
0.0
  0
VERTEX
  5
54A
  8
CLUSTERS
 10
738969.98296499997
 20
4565271.3754599998
 30
0.0
  0
VERTEX
  5
54B
  8
CLUSTERS
 10
738968.25396799995
 20
4565272.3570400001
 30
0.0
  0
VERTEX
  5
54C
  8
CLUSTERS
 10
738871.89488899987
 20
4565371.7472099997
 30
0.0
  0
VERTEX
  5
54D
  8
CLUSTERS
 10
738867.72486800014
 20
4565381.96581
 30
0.0
  0
VERTEX
  5
54E
  8
CLUSTERS
 10
738724.56464971381
 20
4565374.641607319
 30
0.0
  0
VERTEX
  5
54F
  8
CLUSTERS
 10
738681.34038199985
 20
4565472.1189599996
 30
0.0
  0
VERTEX
  5
550
  8
CLUSTERS
 10
738666.66666700004
 20
4565479.8288599998
 30
0.0
  0
VERTEX
  5
551
  8
CLUSTERS
 10
738609.9500630002
 20
4565472.1189599996
 30
0.0
  0
VERTEX
  5
552
  8
CLUSTERS
 10
738551.61204839381
 20
4565414.554264375
 30
0.0
  0
VERTEX
  5
553
  8
CLUSTERS
 10
738487.86085987324
 20
4565431.648455726
 30
0.0
  0
VERTEX
  5
554
  8
CLUSTERS
 10
738501.85504805984
 20
4565504.687492202
 30
0.0
  0
VERTEX
  5
555
  8
CLUSTERS
 10
738574.70297400001
 20
4565572.4907100014
 30
0.0
  0
VERTEX
  5
556
  8
CLUSTERS
 10
738513.76252663415
 20
4565629.6776940217
 30
0.0
  0
VERTEX
  5
557
  8
CLUSTERS
 10
738502.11566100002
 20
4565672.862449999
 30
0.0
  0
VERTEX
  5
558
  8
CLUSTERS
 10
738566.13756600011
 20
4565736.3313300004
 30
0.0
  0
VERTEX
  5
559
  8
CLUSTERS
 10
738630.86577200005
 20
4565672.862449999
 30
0.0
  0
VERTEX
  5
55A
  8
CLUSTERS
 10
738666.66666700004
 20
4565663.4303200003
 30
0.0
  0
VERTEX
  5
55B
  8
CLUSTERS
 10
738744.53531280789
 20
4565680.6848986894
 30
0.0
  0
VERTEX
  5
55C
  8
CLUSTERS
 10
738777.81987866829
 20
4565702.8619552162
 30
0.0
  0
VERTEX
  5
55D
  8
CLUSTERS
 10
738867.72486800014
 20
4565744.3666599989
 30
0.0
  0
VERTEX
  5
55E
  8
CLUSTERS
 10
738968.25396799995
 20
4565717.00911
 30
0.0
  0
VERTEX
  5
55F
  8
CLUSTERS
 10
739068.783069
 20
4565770.2106499998
 30
0.0
  0
VERTEX
  5
560
  8
CLUSTERS
 10
739169.31216900004
 20
4565772.5376700005
 30
0.0
  0
VERTEX
  5
561
  8
CLUSTERS
 10
739269.25070699991
 20
4565672.862449999
 30
0.0
  0
VERTEX
  5
562
  8
CLUSTERS
 10
739269.55372100009
 20
4565572.4907100014
 30
0.0
  0
VERTEX
  5
563
  8
CLUSTERS
 10
739268.26446999994
 20
4565472.1189599996
 30
0.0
  0
VERTEX
  5
564
  8
CLUSTERS
 10
739268.34047499986
 20
4565371.7472099997
 30
0.0
  0
VERTEX
  5
565
  8
CLUSTERS
 10
739264.19870100007
 20
4565271.3754599998
 30
0.0
  0
VERTEX
  5
566
  8
CLUSTERS
 10
739269.57503900002
 20
4565171.0037200004
 30
0.0
  0
VERTEX
  5
567
  8
CLUSTERS
 10
739269.47608800011
 20
4565070.6319700014
 30
0.0
  0
VERTEX
  5
568
  8
CLUSTERS
 10
739218.24645300012
 20
4564970.2602199987
 30
0.0
  0
VERTEX
  5
569
  8
CLUSTERS
 10
739169.31216900004
 20
4564924.0068600001
 30
0.0
  0
VERTEX
  5
56A
  8
CLUSTERS
 10
739152.70821100008
 20
4564869.8884799993
 30
0.0
  0
VERTEX
  5
56B
  8
CLUSTERS
 10
739068.783069
 20
4564787.0400900003
 30
0.0
  0
VERTEX
  5
56C
  8
CLUSTERS
 10
739016.52937053307
 20
4564839.5663246242
 30
0.0
  0
SEQEND
  5
56D
  8
CLUSTERS
  0
POLYLINE
  5
10E
  8
CLUSTERS
 66
     1
 10
0.0
 20
0.0
 30
0.0
 70
   129
  0
VERTEX
  5
56E
  8
CLUSTERS
 10
740663.82919399999
 20
4564769.5167300003
 30
0.0
  0
VERTEX
  5
56F
  8
CLUSTERS
 10
740603.15309100004
 20
4564869.8884799993
 30
0.0
  0
VERTEX
  5
570
  8
CLUSTERS
 10
740677.24867699994
 20
4564943.0915999999
 30
0.0
  0
VERTEX
  5
571
  8
CLUSTERS
 10
740777.77777800011
 20
4564966.3179700002
 30
0.0
  0
VERTEX
  5
572
  8
CLUSTERS
 10
740878.30687800003
 20
4564955.068789999
 30
0.0
  0
VERTEX
  5
573
  8
CLUSTERS
 10
740963.59791899985
 20
4564869.8884799993
 30
0.0
  0
VERTEX
  5
574
  8
CLUSTERS
 10
740978.83597899985
 20
4564807.1412899997
 30
0.0
  0
VERTEX
  5
575
  8
CLUSTERS
 10
741015.11079099996
 20
4564769.5167300003
 30
0.0
  0
VERTEX
  5
576
  8
CLUSTERS
 10
740978.83597899985
 20
4564670.9711100003
 30
0.0
  0
VERTEX
  5
577
  8
CLUSTERS
 10
740878.30687800003
 20
4564670.77886
 30
0.0
  0
VERTEX
  5
578
  8
CLUSTERS
 10
740777.77777800011
 20
4564675.9049300002
 30
0.0
  0
VERTEX
  5
579
  8
CLUSTERS
 10
740677.24867699994
 20
4564755.5034099994
 30
0.0
  0
VERTEX
  5
57A
  8
CLUSTERS
 10
740663.82919399999
 20
4564769.5167300003
 30
0.0
  0
SEQEND
  5
57B
  8
CLUSTERS
  0
POLYLINE
  5
10F
  8
CLUSTERS
 66
     1
 10
0.0
 20
0.0
 30
0.0
 70
   129
  0
VERTEX
  5
57C
  8
CLUSTERS
 10
733880.35645199998
 20
4564669.1449800003
 30
0.0
  0
VERTEX
  5
57D
  8
CLUSTERS
 10
733941.79894200014
 20
4564730.4701499986
 30
0.0
  0
VERTEX
  5
57E
  8
CLUSTERS
 10
734003.30126500013
 20
4564669.1449800003
 30
0.0
  0
VERTEX
  5
57F
  8
CLUSTERS
 10
733941.79894200014
 20
4564607.6354599986
 30
0.0
  0
VERTEX
  5
580
  8
CLUSTERS
 10
733880.35645199998
 20
4564669.1449800003
 30
0.0
  0
SEQEND
  5
581
  8
CLUSTERS
  0
POLYLINE
  5
110
  8
CLUSTERS
 66
     1
 10
0.0
 20
0.0
 30
0.0
 70
   129
  0
VERTEX
  5
582
  8
CLUSTERS
 10
736674.82443200005
 20
4564568.7732300004
 30
0.0
  0
VERTEX
  5
583
  8
CLUSTERS
 10
736656.08465600002
 20
4564593.2062900001
 30
0.0
  0
VERTEX
  5
584
  8
CLUSTERS
 10
736580.70517199999
 20
4564669.1449800003
 30
0.0
  0
VERTEX
  5
585
  8
CLUSTERS
 10
736579.05553700007
 20
4564769.5167300003
 30
0.0
  0
VERTEX
  5
586
  8
CLUSTERS
 10
736656.08465600002
 20
4564846.8019999992
 30
0.0
  0
VERTEX
  5
587
  8
CLUSTERS
 10
736756.61375699996
 20
4564869.0784900002
 30
0.0
  0
VERTEX
  5
588
  8
CLUSTERS
 10
736856.740001
 20
4564769.5167300003
 30
0.0
  0
VERTEX
  5
589
  8
CLUSTERS
 10
736857.142857
 20
4564760.8133900007
 30
0.0
  0
VERTEX
  5
58A
  8
CLUSTERS
 10
736946.43032699986
 20
4564669.1449800003
 30
0.0
  0
VERTEX
  5
58B
  8
CLUSTERS
 10
736861.49466700002
 20
4564568.7732300004
 30
0.0
  0
VERTEX
  5
58C
  8
CLUSTERS
 10
736857.142857
 20
4564564.4298599986
 30
0.0
  0
VERTEX
  5
58D
  8
CLUSTERS
 10
736756.61375699996
 20
4564487.6335799992
 30
0.0
  0
VERTEX
  5
58E
  8
CLUSTERS
 10
736674.82443200005
 20
4564568.7732300004
 30
0.0
  0
SEQEND
  5
58F
  8
CLUSTERS
  0
POLYLINE
  5
111
  8
CLUSTERS
 66
     1
 10
0.0
 20
0.0
 30
0.0
 70
   129
  0
VERTEX
  5
590
  8
CLUSTERS
 10
739849.58580342226
 20
4564493.4229526734
 30
0.0
  0
VERTEX
  5
591
  8
CLUSTERS
 10
739958.04248136876
 20
4564574.719078918
 30
0.0
  0
VERTEX
  5
592
  8
CLUSTERS
 10
740071.01813449187
 20
4564434.7090801997
 30
0.0
  0
VERTEX
  5
593
  8
CLUSTERS
 10
739917.37119529652
 20
4564348.8965412192
 30
0.0
  0
VERTEX
  5
594
  8
CLUSTERS
 10
739849.58580342226
 20
4564493.4229526734
 30
0.0
  0
SEQEND
  5
595
  8
CLUSTERS
  0
POLYLINE
  5
112
  8
CLUSTERS
 66
     1
 10
0.0
 20
0.0
 30
0.0
 70
   129
  0
VERTEX
  5
596
  8
CLUSTERS
 10
739369.57558288507
 20
4563998.6546011977
 30
0.0
  0
VERTEX
  5
597
  8
CLUSTERS
 10
739571.42857100011
 20
4564165.0598499998
 30
0.0
  0
VERTEX
  5
598
  8
CLUSTERS
 10
739662.14448899997
 20
4564066.9145
 30
0.0
  0
VERTEX
  5
599
  8
CLUSTERS
 10
739534.57177881163
 20
4563883.9940039208
 30
0.0
  0
VERTEX
  5
59A
  8
CLUSTERS
 10
739369.57558288507
 20
4563998.6546011977
 30
0.0
  0
SEQEND
  5
59B
  8
CLUSTERS
  0
POLYLINE
  5
113
  8
CLUSTERS
 66
     1
 10
0.0
 20
0.0
 30
0.0
 70
   129
  0
VERTEX
  5
59C
  8
CLUSTERS
 10
738470.25771800021
 20
4563665.4275099998
 30
0.0
  0
VERTEX
  5
59D
  8
CLUSTERS
 10
738466.60475699988
 20
4563765.7992599988
 30
0.0
  0
VERTEX
  5
59E
  8
CLUSTERS
 10
738566.13756600011
 20
4563864.8615799993
 30
0.0
  0
VERTEX
  5
59F
  8
CLUSTERS
 10
738665.36283100001
 20
4563765.7992599988
 30
0.0
  0
VERTEX
  5
5A0
  8
CLUSTERS
 10
738661.55445200007
 20
4563665.4275099998
 30
0.0
  0
VERTEX
  5
5A1
  8
CLUSTERS
 10
738566.13756600011
 20
4563570.0404700004
 30
0.0
  0
VERTEX
  5
5A2
  8
CLUSTERS
 10
738470.25771800021
 20
4563665.4275099998
 30
0.0
  0
SEQEND
  5
5A3
  8
CLUSTERS
  0
POLYLINE
  5
114
  8
CLUSTERS
 66
     1
 10
0.0
 20
0.0
 30
0.0
 70
   129
  0
VERTEX
  5
5A4
  8
CLUSTERS
 10
741181.50255400012
 20
4563364.3122699996
 30
0.0
  0
VERTEX
  5
5A5
  8
CLUSTERS
 10
741179.89417999994
 20
4563364.4106999999
 30
0.0
  0
VERTEX
  5
5A6
  8
CLUSTERS
 10
741079.36507899989
 20
4563395.9609200014
 30
0.0
  0
VERTEX
  5
5A7
  8
CLUSTERS
 10
741016.12848499999
 20
4563464.68401
 30
0.0
  0
VERTEX
  5
5A8
  8
CLUSTERS
 10
741079.36507899989
 20
4563531.4261400001
 30
0.0
  0
VERTEX
  5
5A9
  8
CLUSTERS
 10
741113.66957500007
 20
4563565.0557599999
 30
0.0
  0
VERTEX
  5
5AA
  8
CLUSTERS
 10
741179.89417999994
 20
4563627.2136599999
 30
0.0
  0
VERTEX
  5
5AB
  8
CLUSTERS
 10
741280.4232800001
 20
4563657.2536499994
 30
0.0
  0
VERTEX
  5
5AC
  8
CLUSTERS
 10
741372.84250399994
 20
4563565.0557599999
 30
0.0
  0
VERTEX
  5
5AD
  8
CLUSTERS
 10
741378.78039300023
 20
4563464.68401
 30
0.0
  0
VERTEX
  5
5AE
  8
CLUSTERS
 10
741407.46387052885
 20
4563398.9500347078
 30
0.0
  0
VERTEX
  5
5AF
  8
CLUSTERS
 10
741411.90183811774
 20
4563323.5480551869
 30
0.0
  0
VERTEX
  5
5B0
  8
CLUSTERS
 10
741181.50255400012
 20
4563364.3122699996
 30
0.0
  0
SEQEND
  5
5B1
  8
CLUSTERS
  0
POLYLINE
  5
115
  8
CLUSTERS
 66
     1
 10
0.0
 20
0.0
 30
0.0
 70
   129
  0
VERTEX
  5
5B2
  8
CLUSTERS
 10
740731.83076300006
 20
4563163.5687699998
 30
0.0
  0
VERTEX
  5
5B3
  8
CLUSTERS
 10
740677.24867699994
 20
4563164.1832800005
 30
0.0
  0
VERTEX
  5
5B4
  8
CLUSTERS
 10
740576.71957700001
 20
4563165.4815800004
 30
0.0
  0
VERTEX
  5
5B5
  8
CLUSTERS
 10
740476.19047599996
 20
4563254.924949999
 30
0.0
  0
VERTEX
  5
5B6
  8
CLUSTERS
 10
740468.01547600015
 20
4563263.9405199997
 30
0.0
  0
VERTEX
  5
5B7
  8
CLUSTERS
 10
740408.39867199992
 20
4563364.3122699996
 30
0.0
  0
VERTEX
  5
5B8
  8
CLUSTERS
 10
740476.19047599996
 20
4563436.7441999996
 30
0.0
  0
VERTEX
  5
5B9
  8
CLUSTERS
 10
740576.71957700001
 20
4563464.3091500001
 30
0.0
  0
VERTEX
  5
5BA
  8
CLUSTERS
 10
740677.24867699994
 20
4563461.8095699986
 30
0.0
  0
VERTEX
  5
5BB
  8
CLUSTERS
 10
740774.60562899977
 20
4563364.3122699996
 30
0.0
  0
VERTEX
  5
5BC
  8
CLUSTERS
 10
740776.16777499986
 20
4563263.9405199997
 30
0.0
  0
VERTEX
  5
5BD
  8
CLUSTERS
 10
740811.19720251427
 20
4563208.406205615
 30
0.0
  0
VERTEX
  5
5BE
  8
CLUSTERS
 10
740856.28951590974
 20
4563174.2177595496
 30
0.0
  0
VERTEX
  5
5BF
  8
CLUSTERS
 10
740801.86782863725
 20
4563108.948879174
 30
0.0
  0
VERTEX
  5
5C0
  8
CLUSTERS
 10
740731.83076300006
 20
4563163.5687699998
 30
0.0
  0
SEQEND
  5
5C1
  8
CLUSTERS
  0
POLYLINE
  5
116
  8
CLUSTERS
 66
     1
 10
0.0
 20
0.0
 30
0.0
 70
   129
  0
VERTEX
  5
5C2
  8
CLUSTERS
 10
738931.24639899994
 20
4562962.8252800005
 30
0.0
  0
VERTEX
  5
5C3
  8
CLUSTERS
 10
738986.56840844546
 20
4563019.722482142
 30
0.0
  0
VERTEX
  5
5C4
  8
CLUSTERS
 10
739030.94782959286
 20
4562950.9736575969
 30
0.0
  0
VERTEX
  5
5C5
  8
CLUSTERS
 10
738968.25396799995
 20
4562925.8241600003
 30
0.0
  0
VERTEX
  5
5C6
  8
CLUSTERS
 10
738931.24639899994
 20
4562962.8252800005
 30
0.0
  0
SEQEND
  5
5C7
  8
CLUSTERS
  0
POLYLINE
  5
117
  8
CLUSTERS
 66
     1
 10
0.0
 20
0.0
 30
0.0
 70
   129
  0
VERTEX
  5
5C8
  8
CLUSTERS
 10
738205.71295953367
 20
4562946.8841117593
 30
0.0
  0
VERTEX
  5
5C9
  8
CLUSTERS
 10
738264.55026499985
 20
4562963.6582199996
 30
0.0
  0
VERTEX
  5
5CA
  8
CLUSTERS
 10
738365.07936500001
 20
4563048.7990299994
 30
0.0
  0
VERTEX
  5
5CB
  8
CLUSTERS
 10
738451.18736300012
 20
4562962.8252800005
 30
0.0
  0
VERTEX
  5
5CC
  8
CLUSTERS
 10
738294.37869405036
 20
4562867.7633149503
 30
0.0
  0
VERTEX
  5
5CD
  8
CLUSTERS
 10
738240.54596760566
 20
4562899.4116590181
 30
0.0
  0
VERTEX
  5
5CE
  8
CLUSTERS
 10
738205.71295953367
 20
4562946.8841117593
 30
0.0
  0
SEQEND
  5
5CF
  8
CLUSTERS
  0
POLYLINE
  5
118
  8
CLUSTERS
 66
     1
 10
0.0
 20
0.0
 30
0.0
 70
   129
  0
VERTEX
  5
5D0
  8
CLUSTERS
 10
731341.10791800008
 20
4562962.8252800005
 30
0.0
  0
VERTEX
  5
5D1
  8
CLUSTERS
 10
731428.571429
 20
4563050.17411
 30
0.0
  0
VERTEX
  5
5D2
  8
CLUSTERS
 10
731516.67297899991
 20
4562962.8252800005
 30
0.0
  0
VERTEX
  5
5D3
  8
CLUSTERS
 10
731428.571429
 20
4562875.1728999997
 30
0.0
  0
VERTEX
  5
5D4
  8
CLUSTERS
 10
731341.10791800008
 20
4562962.8252800005
 30
0.0
  0
SEQEND
  5
5D5
  8
CLUSTERS
  0
POLYLINE
  5
119
  8
CLUSTERS
 66
     1
 10
0.0
 20
0.0
 30
0.0
 70
   129
  0
VERTEX
  5
5D6
  8
CLUSTERS
 10
729654.61731792975
 20
4562986.0000604289
 30
0.0
  0
VERTEX
  5
5D7
  8
CLUSTERS
 10
729719.92344455339
 20
4563035.7287553297
 30
0.0
  0
VERTEX
  5
5D8
  8
CLUSTERS
 10
729765.99100500008
 20
4562962.8252800005
 30
0.0
  0
VERTEX
  5
5D9
  8
CLUSTERS
 10
729719.57672000001
 20
4562918.7283100002
 30
0.0
  0
VERTEX
  5
5DA
  8
CLUSTERS
 10
729654.61731792975
 20
4562986.0000604289
 30
0.0
  0
SEQEND
  5
5DB
  8
CLUSTERS
  0
POLYLINE
  5
11A
  8
CLUSTERS
 66
     1
 10
0.0
 20
0.0
 30
0.0
 70
   129
  0
VERTEX
  5
5DC
  8
CLUSTERS
 10
740766.10488911916
 20
4562748.4159045042
 30
0.0
  0
VERTEX
  5
5DD
  8
CLUSTERS
 10
740878.30687800003
 20
4562799.4154199986
 30
0.0
  0
VERTEX
  5
5DE
  8
CLUSTERS
 10
740925.57707600005
 20
4562862.4535299996
 30
0.0
  0
VERTEX
  5
5DF
  8
CLUSTERS
 10
740978.83597899985
 20
4562931.7126200004
 30
0.0
  0
VERTEX
  5
5E0
  8
CLUSTERS
 10
740982.47983100009
 20
4562962.8252800005
 30
0.0
  0
VERTEX
  5
5E1
  8
CLUSTERS
 10
741079.36507899989
 20
4563056.2865500003
 30
0.0
  0
VERTEX
  5
5E2
  8
CLUSTERS
 10
741120.62377123965
 20
4562987.7352170339
 30
0.0
  0
VERTEX
  5
5E3
  8
CLUSTERS
 10
741092.63539486669
 20
4562847.873294306
 30
0.0
  0
VERTEX
  5
5E4
  8
CLUSTERS
 10
741196.81420984364
 20
4562847.873294306
 30
0.0
  0
VERTEX
  5
5E5
  8
CLUSTERS
 10
741246.57121017762
 20
4562852.5353752933
 30
0.0
  0
VERTEX
  5
5E6
  8
CLUSTERS
 10
741269.89489961194
 20
4562823.0089468556
 30
0.0
  0
VERTEX
  5
5E7
  8
CLUSTERS
 10
741279.22427348944
 20
4562796.5905935299
 30
0.0
  0
VERTEX
  5
5E8
  8
CLUSTERS
 10
741290.10871284024
 20
4562757.740066479
 30
0.0
  0
VERTEX
  5
5E9
  8
CLUSTERS
 10
741280.4232800001
 20
4562737.59014
 30
0.0
  0
VERTEX
  5
5EA
  8
CLUSTERS
 10
741184.37495976011
 20
4562687.8091051141
 30
0.0
  0
VERTEX
  5
5EB
  8
CLUSTERS
 10
741103.51983421727
 20
4562667.606838651
 30
0.0
  0
VERTEX
  5
5EC
  8
CLUSTERS
 10
741011.78026932385
 20
4562664.4987635389
 30
0.0
  0
VERTEX
  5
5ED
  8
CLUSTERS
 10
740965.13301782554
 20
4562683.1470241267
 30
0.0
  0
VERTEX
  5
5EE
  8
CLUSTERS
 10
740926.26032947202
 20
4562669.1608445272
 30
0.0
  0
VERTEX
  5
5EF
  8
CLUSTERS
 10
740783.20895351178
 20
4562701.7952847145
 30
0.0
  0
VERTEX
  5
5F0
  8
CLUSTERS
 10
740766.10488911916
 20
4562748.4159045042
 30
0.0
  0
SEQEND
  5
5F1
  8
CLUSTERS
  0
POLYLINE
  5
11B
  8
CLUSTERS
 66
     1
 10
0.0
 20
0.0
 30
0.0
 70
   129
  0
VERTEX
  5
5F2
  8
CLUSTERS
 10
733154.36255100009
 20
4562661.7100400003
 30
0.0
  0
VERTEX
  5
5F3
  8
CLUSTERS
 10
733238.09523800015
 20
4562745.3109400002
 30
0.0
  0
VERTEX
  5
5F4
  8
CLUSTERS
 10
733321.87752800016
 20
4562661.7100400003
 30
0.0
  0
VERTEX
  5
5F5
  8
CLUSTERS
 10
733238.09523800015
 20
4562578.0564400014
 30
0.0
  0
VERTEX
  5
5F6
  8
CLUSTERS
 10
733154.36255100009
 20
4562661.7100400003
 30
0.0
  0
SEQEND
  5
5F7
  8
CLUSTERS
  0
POLYLINE
  5
11C
  8
CLUSTERS
 66
     1
 10
0.0
 20
0.0
 30
0.0
 70
   129
  0
VERTEX
  5
5F8
  8
CLUSTERS
 10
729833.43163340795
 20
4562718.7083886992
 30
0.0
  0
VERTEX
  5
5F9
  8
CLUSTERS
 10
729819.43744522135
 20
4562765.3290084871
 30
0.0
  0
VERTEX
  5
5FA
  8
CLUSTERS
 10
729859.86507167784
 20
4562821.2737902515
 30
0.0
  0
VERTEX
  5
5FB
  8
CLUSTERS
 10
729920.63492100022
 20
4562862.3451199997
 30
0.0
  0
VERTEX
  5
5FC
  8
CLUSTERS
 10
729921.38370300015
 20
4562862.4535299996
 30
0.0
  0
VERTEX
  5
5FD
  8
CLUSTERS
 10
729923.25404999999
 20
4562962.8252800005
 30
0.0
  0
VERTEX
  5
5FE
  8
CLUSTERS
 10
730021.16402100015
 20
4563061.9474200001
 30
0.0
  0
VERTEX
  5
5FF
  8
CLUSTERS
 10
730021.86638300004
 20
4563063.1970300004
 30
0.0
  0
VERTEX
  5
600
  8
CLUSTERS
 10
730121.69312199997
 20
4563162.2247099997
 30
0.0
  0
VERTEX
  5
601
  8
CLUSTERS
 10
730222.22222200001
 20
4563158.865410001
 30
0.0
  0
VERTEX
  5
602
  8
CLUSTERS
 10
730320.01575699996
 20
4563063.1970300004
 30
0.0
  0
VERTEX
  5
603
  8
CLUSTERS
 10
730322.51779899991
 20
4562962.8252800005
 30
0.0
  0
VERTEX
  5
604
  8
CLUSTERS
 10
730312.74815399991
 20
4562862.4535299996
 30
0.0
  0
VERTEX
  5
605
  8
CLUSTERS
 10
730312.36468399991
 20
4562762.0817799987
 30
0.0
  0
VERTEX
  5
606
  8
CLUSTERS
 10
730319.12229100009
 20
4562661.7100400003
 30
0.0
  0
VERTEX
  5
607
  8
CLUSTERS
 10
730222.22222200001
 20
4562566.2632599995
 30
0.0
  0
VERTEX
  5
608
  8
CLUSTERS
 10
730121.69312199997
 20
4562562.1732299989
 30
0.0
  0
VERTEX
  5
609
  8
CLUSTERS
 10
730021.16402100015
 20
4562563.3660800001
 30
0.0
  0
VERTEX
  5
60A
  8
CLUSTERS
 10
729926.72613640456
 20
4562613.034912033
 30
0.0
  0
VERTEX
  5
60B
  8
CLUSTERS
 10
729859.86507167784
 20
4562672.0877055479
 30
0.0
  0
VERTEX
  5
60C
  8
CLUSTERS
 10
729833.43163340795
 20
4562718.7083886992
 30
0.0
  0
SEQEND
  5
60D
  8
CLUSTERS
  0
POLYLINE
  5
11D
  8
CLUSTERS
 66
     1
 10
0.0
 20
0.0
 30
0.0
 70
   129
  0
VERTEX
  5
60E
  8
CLUSTERS
 10
729540.93299600005
 20
4562561.3382900003
 30
0.0
  0
VERTEX
  5
60F
  8
CLUSTERS
 10
729612.63488074066
 20
4562605.2648192951
 30
0.0
  0
VERTEX
  5
610
  8
CLUSTERS
 10
729654.61731792975
 20
4562625.4670857592
 30
0.0
  0
VERTEX
  5
611
  8
CLUSTERS
 10
729684.16050503566
 20
4562619.2509988956
 30
0.0
  0
VERTEX
  5
612
  8
CLUSTERS
 10
729701.24354199995
 20
4562561.3382900003
 30
0.0
  0
VERTEX
  5
613
  8
CLUSTERS
 10
729619.04761899996
 20
4562482.5024299994
 30
0.0
  0
VERTEX
  5
614
  8
CLUSTERS
 10
729540.93299600005
 20
4562561.3382900003
 30
0.0
  0
SEQEND
  5
615
  8
CLUSTERS
  0
POLYLINE
  5
11E
  8
CLUSTERS
 66
     1
 10
0.0
 20
0.0
 30
0.0
 70
   129
  0
VERTEX
  5
616
  8
CLUSTERS
 10
738587.91462199995
 20
4562460.9665400004
 30
0.0
  0
VERTEX
  5
617
  8
CLUSTERS
 10
738560.37615234137
 20
4562506.9725854117
 30
0.0
  0
VERTEX
  5
618
  8
CLUSTERS
 10
738493.87681961129
 20
4562503.8077383321
 30
0.0
  0
VERTEX
  5
619
  8
CLUSTERS
 10
738468.54373441066
 20
4562554.4450381519
 30
0.0
  0
VERTEX
  5
61A
  8
CLUSTERS
 10
738522.37646085536
 20
4562595.5878600972
 30
0.0
  0
VERTEX
  5
61B
  8
CLUSTERS
 10
738592.04247699946
 20
4562595.5878600972
 30
0.0
  0
VERTEX
  5
61C
  8
CLUSTERS
 10
738626.87548507168
 20
4562567.1043631071
 30
0.0
  0
VERTEX
  5
61D
  8
CLUSTERS
 10
738652.20857027208
 20
4562557.6098852316
 30
0.0
  0
VERTEX
  5
61E
  8
CLUSTERS
 10
738673.69379504584
 20
4562585.0522882584
 30
0.0
  0
VERTEX
  5
61F
  8
CLUSTERS
 10
738691.85866799997
 20
4562661.7100400003
 30
0.0
  0
VERTEX
  5
620
  8
CLUSTERS
 10
738666.66666700004
 20
4562683.4495999999
 30
0.0
  0
VERTEX
  5
621
  8
CLUSTERS
 10
738588.43710000021
 20
4562762.0817799987
 30
0.0
  0
VERTEX
  5
622
  8
CLUSTERS
 10
738666.66666700004
 20
4562840.297199999
 30
0.0
  0
VERTEX
  5
623
  8
CLUSTERS
 10
738728.05681899993
 20
4562862.4535299996
 30
0.0
  0
VERTEX
  5
624
  8
CLUSTERS
 10
738767.19576699997
 20
4562901.09246
 30
0.0
  0
VERTEX
  5
625
  8
CLUSTERS
 10
738819.65054499998
 20
4562862.4535299996
 30
0.0
  0
VERTEX
  5
626
  8
CLUSTERS
 10
738867.72486800014
 20
4562859.3336999994
 30
0.0
  0
VERTEX
  5
627
  8
CLUSTERS
 10
738963.02198399999
 20
4562762.0817799987
 30
0.0
  0
VERTEX
  5
628
  8
CLUSTERS
 10
738867.72486800014
 20
4562666.6822099993
 30
0.0
  0
VERTEX
  5
629
  8
CLUSTERS
 10
738843.05257499998
 20
4562661.7100400003
 30
0.0
  0
VERTEX
  5
62A
  8
CLUSTERS
 10
738839.84415999998
 20
4562561.3382900003
 30
0.0
  0
VERTEX
  5
62B
  8
CLUSTERS
 10
738867.72486800014
 20
4562489.12916
 30
0.0
  0
VERTEX
  5
62C
  8
CLUSTERS
 10
738895.73846800008
 20
4562460.9665400004
 30
0.0
  0
VERTEX
  5
62D
  8
CLUSTERS
 10
738867.72486800014
 20
4562432.9566500001
 30
0.0
  0
VERTEX
  5
62E
  8
CLUSTERS
 10
738804.61301100824
 20
4562443.1192025179
 30
0.0
  0
VERTEX
  5
62F
  8
CLUSTERS
 10
738767.19576699997
 20
4562488.6458299998
 30
0.0
  0
VERTEX
  5
630
  8
CLUSTERS
 10
738745.47124800005
 20
4562460.9665400004
 30
0.0
  0
VERTEX
  5
631
  8
CLUSTERS
 10
738666.66666700004
 20
4562382.4381799996
 30
0.0
  0
VERTEX
  5
632
  8
CLUSTERS
 10
738587.91462199995
 20
4562460.9665400004
 30
0.0
  0
SEQEND
  5
633
  8
CLUSTERS
  0
POLYLINE
  5
11F
  8
CLUSTERS
 66
     1
 10
0.0
 20
0.0
 30
0.0
 70
   129
  0
VERTEX
  5
634
  8
CLUSTERS
 10
737773.00283500005
 20
4562460.9665400004
 30
0.0
  0
VERTEX
  5
635
  8
CLUSTERS
 10
737743.38418646611
 20
4562513.3022162085
 30
0.0
  0
VERTEX
  5
636
  8
CLUSTERS
 10
737745.07950300002
 20
4562561.3382900003
 30
0.0
  0
VERTEX
  5
637
  8
CLUSTERS
 10
737733.34442800016
 20
4562661.7100400003
 30
0.0
  0
VERTEX
  5
638
  8
CLUSTERS
 10
737733.88426359463
 20
4562734.8404346034
 30
0.0
  0
VERTEX
  5
639
  8
CLUSTERS
 10
737790.88367345324
 20
4562725.3459567251
 30
0.0
  0
VERTEX
  5
63A
  8
CLUSTERS
 10
737838.38328781072
 20
4562715.8514154889
 30
0.0
  0
VERTEX
  5
63B
  8
CLUSTERS
 10
737917.24020899995
 20
4562561.3382900003
 30
0.0
  0
VERTEX
  5
63C
  8
CLUSTERS
 10
737951.79309699999
 20
4562460.9665400004
 30
0.0
  0
VERTEX
  5
63D
  8
CLUSTERS
 10
737862.43386199989
 20
4562371.6955599999
 30
0.0
  0
VERTEX
  5
63E
  8
CLUSTERS
 10
737773.00283500005
 20
4562460.9665400004
 30
0.0
  0
SEQEND
  5
63F
  8
CLUSTERS
  0
POLYLINE
  5
120
  8
CLUSTERS
 66
     1
 10
0.0
 20
0.0
 30
0.0
 70
   129
  0
VERTEX
  5
640
  8
CLUSTERS
 10
734557.23022999999
 20
4562460.9665400004
 30
0.0
  0
VERTEX
  5
641
  8
CLUSTERS
 10
734583.65398100007
 20
4562561.3382900003
 30
0.0
  0
VERTEX
  5
642
  8
CLUSTERS
 10
734645.50264600024
 20
4562623.0822700001
 30
0.0
  0
VERTEX
  5
643
  8
CLUSTERS
 10
734712.50967399997
 20
4562561.3382900003
 30
0.0
  0
VERTEX
  5
644
  8
CLUSTERS
 10
734733.77944800013
 20
4562460.9665400004
 30
0.0
  0
VERTEX
  5
645
  8
CLUSTERS
 10
734645.50264600024
 20
4562372.8241099995
 30
0.0
  0
VERTEX
  5
646
  8
CLUSTERS
 10
734557.23022999999
 20
4562460.9665400004
 30
0.0
  0
SEQEND
  5
647
  8
CLUSTERS
  0
POLYLINE
  5
121
  8
CLUSTERS
 66
     1
 10
0.0
 20
0.0
 30
0.0
 70
   129
  0
VERTEX
  5
648
  8
CLUSTERS
 10
730432.43865000014
 20
4562460.9665400004
 30
0.0
  0
VERTEX
  5
649
  8
CLUSTERS
 10
730451.57387000008
 20
4562561.3382900003
 30
0.0
  0
VERTEX
  5
64A
  8
CLUSTERS
 10
730426.42713099997
 20
4562661.7100400003
 30
0.0
  0
VERTEX
  5
64B
  8
CLUSTERS
 10
730522.25558442064
 20
4562690.7359661348
 30
0.0
  0
VERTEX
  5
64C
  8
CLUSTERS
 10
730570.4577740219
 20
4562698.5060588727
 30
0.0
  0
VERTEX
  5
64D
  8
CLUSTERS
 10
730598.4460230245
 20
4562728.0324873095
 30
0.0
  0
VERTEX
  5
64E
  8
CLUSTERS
 10
730593.78133608587
 20
4562760.6669274978
 30
0.0
  0
VERTEX
  5
64F
  8
CLUSTERS
 10
730617.10489814985
 20
4562777.7611822123
 30
0.0
  0
VERTEX
  5
650
  8
CLUSTERS
 10
730649.75796146155
 20
4562774.6531071002
 30
0.0
  0
VERTEX
  5
651
  8
CLUSTERS
 10
730676.19139973156
 20
4562754.4508406371
 30
0.0
  0
VERTEX
  5
652
  8
CLUSTERS
 10
730671.52671279304
 20
4562707.8302208493
 30
0.0
  0
VERTEX
  5
653
  8
CLUSTERS
 10
730642.49099600024
 20
4562661.7100400003
 30
0.0
  0
VERTEX
  5
654
  8
CLUSTERS
 10
730629.54427560372
 20
4562602.156744183
 30
0.0
  0
VERTEX
  5
655
  8
CLUSTERS
 10
730597.80424299999
 20
4562561.3382900003
 30
0.0
  0
VERTEX
  5
656
  8
CLUSTERS
 10
730624.33862399997
 20
4562490.9051099997
 30
0.0
  0
VERTEX
  5
657
  8
CLUSTERS
 10
730651.840325
 20
4562460.9665400004
 30
0.0
  0
VERTEX
  5
658
  8
CLUSTERS
 10
730624.33862399997
 20
4562433.1668400001
 30
0.0
  0
VERTEX
  5
659
  8
CLUSTERS
 10
730523.80952400004
 20
4562369.3063600007
 30
0.0
  0
VERTEX
  5
65A
  8
CLUSTERS
 10
730432.43865000014
 20
4562460.9665400004
 30
0.0
  0
SEQEND
  5
65B
  8
CLUSTERS
  0
POLYLINE
  5
122
  8
CLUSTERS
 66
     1
 10
0.0
 20
0.0
 30
0.0
 70
   129
  0
VERTEX
  5
65C
  8
CLUSTERS
 10
734494.69373599987
 20
4562059.4795500003
 30
0.0
  0
VERTEX
  5
65D
  8
CLUSTERS
 10
734456.13228200004
 20
4562159.8513000011
 30
0.0
  0
VERTEX
  5
65E
  8
CLUSTERS
 10
734544.97354499996
 20
4562248.5522399992
 30
0.0
  0
VERTEX
  5
65F
  8
CLUSTERS
 10
734633.81776999985
 20
4562159.8513000011
 30
0.0
  0
VERTEX
  5
660
  8
CLUSTERS
 10
734595.25506899995
 20
4562059.4795500003
 30
0.0
  0
VERTEX
  5
661
  8
CLUSTERS
 10
734544.97354499996
 20
4562009.2822399996
 30
0.0
  0
VERTEX
  5
662
  8
CLUSTERS
 10
734494.69373599987
 20
4562059.4795500003
 30
0.0
  0
SEQEND
  5
663
  8
CLUSTERS
  0
POLYLINE
  5
123
  8
CLUSTERS
 66
     1
 10
0.0
 20
0.0
 30
0.0
 70
   129
  0
VERTEX
  5
664
  8
CLUSTERS
 10
737478.14217899996
 20
4561959.107809999
 30
0.0
  0
VERTEX
  5
665
  8
CLUSTERS
 10
737460.31746000005
 20
4561986.7605400002
 30
0.0
  0
VERTEX
  5
666
  8
CLUSTERS
 10
737387.58766099997
 20
4562059.4795500003
 30
0.0
  0
VERTEX
  5
667
  8
CLUSTERS
 10
737409.74504300009
 20
4562159.8513000011
 30
0.0
  0
VERTEX
  5
668
  8
CLUSTERS
 10
737460.31746000005
 20
4562210.3724600002
 30
0.0
  0
VERTEX
  5
669
  8
CLUSTERS
 10
737560.8465610001
 20
4562254.7850299999
 30
0.0
  0
VERTEX
  5
66A
  8
CLUSTERS
 10
737568.36609100003
 20
4562260.2230500001
 30
0.0
  0
VERTEX
  5
66B
  8
CLUSTERS
 10
737661.37566100003
 20
4562353.0086399997
 30
0.0
  0
VERTEX
  5
66C
  8
CLUSTERS
 10
737758.73212199996
 20
4562260.2230500001
 30
0.0
  0
VERTEX
  5
66D
  8
CLUSTERS
 10
737679.40444300009
 20
4562159.8513000011
 30
0.0
  0
VERTEX
  5
66E
  8
CLUSTERS
 10
737751.877828
 20
4562059.4795500003
 30
0.0
  0
VERTEX
  5
66F
  8
CLUSTERS
 10
737716.36642999994
 20
4561959.107809999
 30
0.0
  0
VERTEX
  5
670
  8
CLUSTERS
 10
737661.37566100003
 20
4561904.2021700004
 30
0.0
  0
VERTEX
  5
671
  8
CLUSTERS
 10
737560.8465610001
 20
4561876.5933100004
 30
0.0
  0
VERTEX
  5
672
  8
CLUSTERS
 10
737478.14217899996
 20
4561959.107809999
 30
0.0
  0
SEQEND
  5
673
  8
CLUSTERS
  0
POLYLINE
  5
124
  8
CLUSTERS
 66
     1
 10
0.0
 20
0.0
 30
0.0
 70
   129
  0
VERTEX
  5
674
  8
CLUSTERS
 10
736885.02985699987
 20
4561758.364310001
 30
0.0
  0
VERTEX
  5
675
  8
CLUSTERS
 10
736862.65102699993
 20
4561858.73606
 30
0.0
  0
VERTEX
  5
676
  8
CLUSTERS
 10
736957.67195800005
 20
4561957.9627800006
 30
0.0
  0
VERTEX
  5
677
  8
CLUSTERS
 10
737078.39073179406
 20
4561899.324987568
 30
0.0
  0
VERTEX
  5
678
  8
CLUSTERS
 10
737030.31272899988
 20
4561758.364310001
 30
0.0
  0
VERTEX
  5
679
  8
CLUSTERS
 10
736957.67195800005
 20
4561685.8481199993
 30
0.0
  0
VERTEX
  5
67A
  8
CLUSTERS
 10
736885.02985699987
 20
4561758.364310001
 30
0.0
  0
SEQEND
  5
67B
  8
CLUSTERS
  0
POLYLINE
  5
125
  8
CLUSTERS
 66
     1
 10
0.0
 20
0.0
 30
0.0
 70
   129
  0
VERTEX
  5
67C
  8
CLUSTERS
 10
737061.14127999987
 20
4561457.2490699999
 30
0.0
  0
VERTEX
  5
67D
  8
CLUSTERS
 10
737158.73015900003
 20
4561554.6787299998
 30
0.0
  0
VERTEX
  5
67E
  8
CLUSTERS
 10
737256.31256800005
 20
4561457.2490699999
 30
0.0
  0
VERTEX
  5
67F
  8
CLUSTERS
 10
737158.73015900003
 20
4561359.8129500002
 30
0.0
  0
VERTEX
  5
680
  8
CLUSTERS
 10
737061.14127999987
 20
4561457.2490699999
 30
0.0
  0
SEQEND
  5
681
  8
CLUSTERS
  0
POLYLINE
  5
126
  8
CLUSTERS
 66
     1
 10
0.0
 20
0.0
 30
0.0
 70
   129
  0
VERTEX
  5
682
  8
CLUSTERS
 10
732840.55111526919
 20
4561202.7012075372
 30
0.0
  0
VERTEX
  5
683
  8
CLUSTERS
 10
732936.50793700013
 20
4561339.5524999993
 30
0.0
  0
VERTEX
  5
684
  8
CLUSTERS
 10
733019.71506999992
 20
4561256.5055799987
 30
0.0
  0
VERTEX
  5
685
  8
CLUSTERS
 10
732936.50793700013
 20
4561170.4723499985
 30
0.0
  0
VERTEX
  5
686
  8
CLUSTERS
 10
732840.55111526919
 20
4561202.7012075372
 30
0.0
  0
SEQEND
  5
687
  8
CLUSTERS
  0
POLYLINE
  5
127
  8
CLUSTERS
 66
     1
 10
0.0
 20
0.0
 30
0.0
 70
   129
  0
VERTEX
  5
688
  8
CLUSTERS
 10
732232.82571200002
 20
4561256.5055799987
 30
0.0
  0
VERTEX
  5
689
  8
CLUSTERS
 10
732333.33333300008
 20
4561346.4254999999
 30
0.0
  0
VERTEX
  5
68A
  8
CLUSTERS
 10
732423.48784800002
 20
4561256.5055799987
 30
0.0
  0
VERTEX
  5
68B
  8
CLUSTERS
 10
732333.33333300008
 20
4561166.5455699991
 30
0.0
  0
VERTEX
  5
68C
  8
CLUSTERS
 10
732232.82571200002
 20
4561256.5055799987
 30
0.0
  0
SEQEND
  5
68D
  8
CLUSTERS
  0
POLYLINE
  5
128
  8
CLUSTERS
 66
     1
 10
0.0
 20
0.0
 30
0.0
 70
   129
  0
VERTEX
  5
68E
  8
CLUSTERS
 10
736466.44690500014
 20
4561156.1338299988
 30
0.0
  0
VERTEX
  5
68F
  8
CLUSTERS
 10
736463.99902900006
 20
4561256.5055799987
 30
0.0
  0
VERTEX
  5
690
  8
CLUSTERS
 10
736555.55555600021
 20
4561347.9174300004
 30
0.0
  0
VERTEX
  5
691
  8
CLUSTERS
 10
736647.11165100022
 20
4561256.5055799987
 30
0.0
  0
VERTEX
  5
692
  8
CLUSTERS
 10
736644.66404399986
 20
4561156.1338299988
 30
0.0
  0
VERTEX
  5
693
  8
CLUSTERS
 10
736555.55555600021
 20
4561067.1653999994
 30
0.0
  0
VERTEX
  5
694
  8
CLUSTERS
 10
736466.44690500014
 20
4561156.1338299988
 30
0.0
  0
SEQEND
  5
695
  8
CLUSTERS
  0
POLYLINE
  5
129
  8
CLUSTERS
 66
     1
 10
0.0
 20
0.0
 30
0.0
 70
   129
  0
VERTEX
  5
696
  8
CLUSTERS
 10
736773.369145
 20
4560955.3903299998
 30
0.0
  0
VERTEX
  5
697
  8
CLUSTERS
 10
736857.142857
 20
4561039.0319400001
 30
0.0
  0
VERTEX
  5
698
  8
CLUSTERS
 10
736940.91573400004
 20
4560955.3903299998
 30
0.0
  0
VERTEX
  5
699
  8
CLUSTERS
 10
736857.142857
 20
4560871.74768
 30
0.0
  0
VERTEX
  5
69A
  8
CLUSTERS
 10
736773.369145
 20
4560955.3903299998
 30
0.0
  0
SEQEND
  5
69B
  8
CLUSTERS
  0
POLYLINE
  5
12A
  8
CLUSTERS
 66
     1
 10
0.0
 20
0.0
 30
0.0
 70
   129
  0
VERTEX
  5
69C
  8
CLUSTERS
 10
737362.90562899993
 20
4560654.2750899997
 30
0.0
  0
VERTEX
  5
69D
  8
CLUSTERS
 10
737377.51407500019
 20
4560754.6468399996
 30
0.0
  0
VERTEX
  5
69E
  8
CLUSTERS
 10
737387.39167600009
 20
4560855.0185900005
 30
0.0
  0
VERTEX
  5
69F
  8
CLUSTERS
 10
737372.95462600002
 20
4560955.3903299998
 30
0.0
  0
VERTEX
  5
6A0
  8
CLUSTERS
 10
737393.24594200007
 20
4561055.7620799998
 30
0.0
  0
VERTEX
  5
6A1
  8
CLUSTERS
 10
737460.31746000005
 20
4561122.7147299992
 30
0.0
  0
VERTEX
  5
6A2
  8
CLUSTERS
 10
737527.57608899975
 20
4561055.7620799998
 30
0.0
  0
VERTEX
  5
6A3
  8
CLUSTERS
 10
737560.8465610001
 20
4561053.5219299989
 30
0.0
  0
VERTEX
  5
6A4
  8
CLUSTERS
 10
737659.13768599997
 20
4560955.3903299998
 30
0.0
  0
VERTEX
  5
6A5
  8
CLUSTERS
 10
737661.37566100003
 20
4560857.1223000009
 30
0.0
  0
VERTEX
  5
6A6
  8
CLUSTERS
 10
737663.46325899998
 20
4560855.0185900005
 30
0.0
  0
VERTEX
  5
6A7
  8
CLUSTERS
 10
737661.37566100003
 20
4560852.8769699996
 30
0.0
  0
VERTEX
  5
6A8
  8
CLUSTERS
 10
737660.77412600012
 20
4560754.6468399996
 30
0.0
  0
VERTEX
  5
6A9
  8
CLUSTERS
 10
737658.84679300024
 20
4560654.2750899997
 30
0.0
  0
VERTEX
  5
6AA
  8
CLUSTERS
 10
737560.8465610001
 20
4560556.4346199986
 30
0.0
  0
VERTEX
  5
6AB
  8
CLUSTERS
 10
737438.88264982065
 20
4560600.1222818773
 30
0.0
  0
VERTEX
  5
6AC
  8
CLUSTERS
 10
737362.90562899993
 20
4560654.2750899997
 30
0.0
  0
SEQEND
  5
6AD
  8
CLUSTERS
  0
POLYLINE
  5
12B
  8
CLUSTERS
 66
     1
 10
0.0
 20
0.0
 30
0.0
 70
   129
  0
VERTEX
  5
6AE
  8
CLUSTERS
 10
741166.3489882584
 20
4560508.6515546609
 30
0.0
  0
VERTEX
  5
6AF
  8
CLUSTERS
 10
741208.50948929647
 20
4560586.2712525064
 30
0.0
  0
VERTEX
  5
6B0
  8
CLUSTERS
 10
741292.67072299984
 20
4560654.2750899997
 30
0.0
  0
VERTEX
  5
6B1
  8
CLUSTERS
 10
741380.95238100016
 20
4560695.7097500004
 30
0.0
  0
VERTEX
  5
6B2
  8
CLUSTERS
 10
741422.30931499985
 20
4560654.2750899997
 30
0.0
  0
VERTEX
  5
6B3
  8
CLUSTERS
 10
741407.59239100025
 20
4560553.9033500003
 30
0.0
  0
VERTEX
  5
6B4
  8
CLUSTERS
 10
741380.95238100016
 20
4560526.8976699989
 30
0.0
  0
VERTEX
  5
6B5
  8
CLUSTERS
 10
741280.4232800001
 20
4560459.5871299999
 30
0.0
  0
VERTEX
  5
6B6
  8
CLUSTERS
 10
741166.3489882584
 20
4560508.6515546609
 30
0.0
  0
SEQEND
  5
6B7
  8
CLUSTERS
  0
POLYLINE
  5
12C
  8
CLUSTERS
 66
     1
 10
0.0
 20
0.0
 30
0.0
 70
   129
  0
VERTEX
  5
6B8
  8
CLUSTERS
 10
737346.01481800794
 20
4560477.3997858027
 30
0.0
  0
VERTEX
  5
6B9
  8
CLUSTERS
 10
737359.78836000001
 20
4560526.6235099994
 30
0.0
  0
VERTEX
  5
6BA
  8
CLUSTERS
 10
737407.81713143981
 20
4560544.6796405585
 30
0.0
  0
VERTEX
  5
6BB
  8
CLUSTERS
 10
737554.15749899985
 20
4560453.5316000022
 30
0.0
  0
VERTEX
  5
6BC
  8
CLUSTERS
 10
737460.31746000005
 20
4560354.9090999998
 30
0.0
  0
VERTEX
  5
6BD
  8
CLUSTERS
 10
737397.95145754842
 20
4560409.9523558896
 30
0.0
  0
VERTEX
  5
6BE
  8
CLUSTERS
 10
737346.01481800794
 20
4560477.3997858027
 30
0.0
  0
SEQEND
  5
6BF
  8
CLUSTERS
  0
POLYLINE
  5
12D
  8
CLUSTERS
 66
     1
 10
0.0
 20
0.0
 30
0.0
 70
   129
  0
VERTEX
  5
6C0
  8
CLUSTERS
 10
732949.06211100006
 20
4560453.5316000022
 30
0.0
  0
VERTEX
  5
6C1
  8
CLUSTERS
 10
732970.00131700002
 20
4560553.9033500003
 30
0.0
  0
VERTEX
  5
6C2
  8
CLUSTERS
 10
732936.50793700013
 20
4560625.6169799985
 30
0.0
  0
VERTEX
  5
6C3
  8
CLUSTERS
 10
732803.2449557269
 20
4560620.3351930836
 30
0.0
  0
VERTEX
  5
6C4
  8
CLUSTERS
 10
732774.39835745527
 20
4560746.7443772731
 30
0.0
  0
VERTEX
  5
6C5
  8
CLUSTERS
 10
732911.97446111578
 20
4560804.4046735549
 30
0.0
  0
VERTEX
  5
6C6
  8
CLUSTERS
 10
733009.60911121755
 20
4560762.2682788251
 30
0.0
  0
VERTEX
  5
6C7
  8
CLUSTERS
 10
732965.209577
 20
4560654.2750899997
 30
0.0
  0
VERTEX
  5
6C8
  8
CLUSTERS
 10
733037.03703700006
 20
4560620.8326100009
 30
0.0
  0
VERTEX
  5
6C9
  8
CLUSTERS
 10
733131.6523920024
 20
4560502.7968188338
 30
0.0
  0
VERTEX
  5
6CA
  8
CLUSTERS
 10
733111.68160153786
 20
4560436.2656492516
 30
0.0
  0
VERTEX
  5
6CB
  8
CLUSTERS
 10
733037.03703700006
 20
4560365.6924999999
 30
0.0
  0
VERTEX
  5
6CC
  8
CLUSTERS
 10
732949.06211100006
 20
4560453.5316000022
 30
0.0
  0
SEQEND
  5
6CD
  8
CLUSTERS
  0
POLYLINE
  5
12E
  8
CLUSTERS
 66
     1
 10
0.0
 20
0.0
 30
0.0
 70
   129
  0
VERTEX
  5
6CE
  8
CLUSTERS
 10
733149.40413498715
 20
4560320.9449933274
 30
0.0
  0
VERTEX
  5
6CF
  8
CLUSTERS
 10
733191.56450865488
 20
4560429.6125576394
 30
0.0
  0
VERTEX
  5
6D0
  8
CLUSTERS
 10
733238.09523800015
 20
4560543.2316300003
 30
0.0
  0
VERTEX
  5
6D1
  8
CLUSTERS
 10
733327.94599799986
 20
4560453.5316000022
 30
0.0
  0
VERTEX
  5
6D2
  8
CLUSTERS
 10
733299.97764300019
 20
4560353.1598500004
 30
0.0
  0
VERTEX
  5
6D3
  8
CLUSTERS
 10
733238.09523800015
 20
4560291.3889199989
 30
0.0
  0
VERTEX
  5
6D4
  8
CLUSTERS
 10
733149.40413498715
 20
4560320.9449933274
 30
0.0
  0
SEQEND
  5
6D5
  8
CLUSTERS
  0
POLYLINE
  5
12F
  8
CLUSTERS
 66
     1
 10
0.0
 20
0.0
 30
0.0
 70
   129
  0
VERTEX
  5
6D6
  8
CLUSTERS
 10
732462.76330899994
 20
4560152.4163600001
 30
0.0
  0
VERTEX
  5
6D7
  8
CLUSTERS
 10
732433.86243400001
 20
4560173.8517199997
 30
0.0
  0
VERTEX
  5
6D8
  8
CLUSTERS
 10
732354.9552020001
 20
4560252.7880999995
 30
0.0
  0
VERTEX
  5
6D9
  8
CLUSTERS
 10
732382.30353700009
 20
4560353.1598500004
 30
0.0
  0
VERTEX
  5
6DA
  8
CLUSTERS
 10
732390.5166447456
 20
4560398.5646911729
 30
0.0
  0
VERTEX
  5
6DB
  8
CLUSTERS
 10
732406.04946762125
 20
4560496.1436638599
 30
0.0
  0
VERTEX
  5
6DC
  8
CLUSTERS
 10
732439.33390611142
 20
4560482.8374806307
 30
0.0
  0
VERTEX
  5
6DD
  8
CLUSTERS
 10
732463.74266416451
 20
4560462.8781424304
 30
0.0
  0
VERTEX
  5
6DE
  8
CLUSTERS
 10
732483.71332725883
 20
4560451.7896141661
 30
0.0
  0
VERTEX
  5
6DF
  8
CLUSTERS
 10
732545.84449139086
 20
4560434.0479309279
 30
0.0
  0
VERTEX
  5
6E0
  8
CLUSTERS
 10
732606.44864873064
 20
4560450.8655996453
 30
0.0
  0
VERTEX
  5
6E1
  8
CLUSTERS
 10
732682.95212986297
 20
4560336.9245562172
 30
0.0
  0
VERTEX
  5
6E2
  8
CLUSTERS
 10
732748.32774694939
 20
4560289.680702392
 30
0.0
  0
VERTEX
  5
6E3
  8
CLUSTERS
 10
732792.83871967078
 20
4560354.9883392323
 30
0.0
  0
VERTEX
  5
6E4
  8
CLUSTERS
 10
732835.97883600008
 20
4560428.4746399997
 30
0.0
  0
VERTEX
  5
6E5
  8
CLUSTERS
 10
732911.4115810002
 20
4560353.1598500004
 30
0.0
  0
VERTEX
  5
6E6
  8
CLUSTERS
 10
732880.91136277292
 20
4560272.1414407156
 30
0.0
  0
VERTEX
  5
6E7
  8
CLUSTERS
 10
732797.92022099986
 20
4560252.7880999995
 30
0.0
  0
VERTEX
  5
6E8
  8
CLUSTERS
 10
732804.68417499994
 20
4560152.4163600001
 30
0.0
  0
VERTEX
  5
6E9
  8
CLUSTERS
 10
732774.66265107936
 20
4560014.8515829546
 30
0.0
  0
VERTEX
  5
6EA
  8
CLUSTERS
 10
732613.43793603976
 20
4560008.4062539311
 30
0.0
  0
VERTEX
  5
6EB
  8
CLUSTERS
 10
732534.39153399994
 20
4560081.1078999992
 30
0.0
  0
VERTEX
  5
6EC
  8
CLUSTERS
 10
732462.76330899994
 20
4560152.4163600001
 30
0.0
  0
SEQEND
  5
6ED
  8
CLUSTERS
  0
POLYLINE
  5
130
  8
CLUSTERS
 66
     1
 10
0.0
 20
0.0
 30
0.0
 70
   129
  0
VERTEX
  5
6EE
  8
CLUSTERS
 10
735353.07283600001
 20
4560052.0446100002
 30
0.0
  0
VERTEX
  5
6EF
  8
CLUSTERS
 10
735449.73545000015
 20
4560148.5559299989
 30
0.0
  0
VERTEX
  5
6F0
  8
CLUSTERS
 10
735546.39805899991
 20
4560052.0446100002
 30
0.0
  0
VERTEX
  5
6F1
  8
CLUSTERS
 10
735449.73545000015
 20
4559955.5333099999
 30
0.0
  0
VERTEX
  5
6F2
  8
CLUSTERS
 10
735353.07283600001
 20
4560052.0446100002
 30
0.0
  0
SEQEND
  5
6F3
  8
CLUSTERS
  0
POLYLINE
  5
131
  8
CLUSTERS
 66
     1
 10
0.0
 20
0.0
 30
0.0
 70
   129
  0
VERTEX
  5
6F4
  8
CLUSTERS
 10
732366.93085800007
 20
4559650.5576200001
 30
0.0
  0
VERTEX
  5
6F5
  8
CLUSTERS
 10
732433.86243400001
 20
4559734.1229499998
 30
0.0
  0
VERTEX
  5
6F6
  8
CLUSTERS
 10
732534.39153399994
 20
4559740.8627899997
 30
0.0
  0
VERTEX
  5
6F7
  8
CLUSTERS
 10
732599.00802800024
 20
4559650.5576200001
 30
0.0
  0
VERTEX
  5
6F8
  8
CLUSTERS
 10
732534.39153399994
 20
4559586.0541900015
 30
0.0
  0
VERTEX
  5
6F9
  8
CLUSTERS
 10
732433.86243400001
 20
4559583.7136899987
 30
0.0
  0
VERTEX
  5
6FA
  8
CLUSTERS
 10
732366.93085800007
 20
4559650.5576200001
 30
0.0
  0
SEQEND
  5
6FB
  8
CLUSTERS
  0
POLYLINE
  5
132
  8
CLUSTERS
 66
     1
 10
0.0
 20
0.0
 30
0.0
 70
   129
  0
VERTEX
  5
6FC
  8
CLUSTERS
 10
736464.8814190001
 20
4559048.3271399997
 30
0.0
  0
VERTEX
  5
6FD
  8
CLUSTERS
 10
736555.55555600021
 20
4559144.5188699998
 30
0.0
  0
VERTEX
  5
6FE
  8
CLUSTERS
 10
736560.843949
 20
4559148.69888
 30
0.0
  0
VERTEX
  5
6FF
  8
CLUSTERS
 10
736656.08465600002
 20
4559236.83115
 30
0.0
  0
VERTEX
  5
700
  8
CLUSTERS
 10
736756.61375699996
 20
4559198.8872999996
 30
0.0
  0
VERTEX
  5
701
  8
CLUSTERS
 10
736806.88067500002
 20
4559148.69888
 30
0.0
  0
VERTEX
  5
702
  8
CLUSTERS
 10
736815.25827899994
 20
4559048.3271399997
 30
0.0
  0
VERTEX
  5
703
  8
CLUSTERS
 10
736756.61375699996
 20
4558989.7730299989
 30
0.0
  0
VERTEX
  5
704
  8
CLUSTERS
 10
736656.08465600002
 20
4558951.2994300006
 30
0.0
  0
VERTEX
  5
705
  8
CLUSTERS
 10
736555.55555600021
 20
4558957.7933600014
 30
0.0
  0
VERTEX
  5
706
  8
CLUSTERS
 10
736464.8814190001
 20
4559048.3271399997
 30
0.0
  0
SEQEND
  5
707
  8
CLUSTERS
  0
POLYLINE
  5
133
  8
CLUSTERS
 66
     1
 10
0.0
 20
0.0
 30
0.0
 70
   129
  0
VERTEX
  5
708
  8
CLUSTERS
 10
736115.74071399996
 20
4558947.9553899989
 30
0.0
  0
VERTEX
  5
709
  8
CLUSTERS
 10
736153.43915300001
 20
4558985.5948900003
 30
0.0
  0
VERTEX
  5
70A
  8
CLUSTERS
 10
736225.24621800007
 20
4559048.3271399997
 30
0.0
  0
VERTEX
  5
70B
  8
CLUSTERS
 10
736253.96825399995
 20
4559077.0041500004
 30
0.0
  0
VERTEX
  5
70C
  8
CLUSTERS
 10
736337.5867844848
 20
4559026.9743059492
 30
0.0
  0
VERTEX
  5
70D
  8
CLUSTERS
 10
736331.25341765676
 20
4558970.00731197
 30
0.0
  0
VERTEX
  5
70E
  8
CLUSTERS
 10
736201.42143561039
 20
4558865.5678652497
 30
0.0
  0
VERTEX
  5
70F
  8
CLUSTERS
 10
736122.25549659482
 20
4558865.5678652497
 30
0.0
  0
VERTEX
  5
710
  8
CLUSTERS
 10
736115.74071399996
 20
4558947.9553899989
 30
0.0
  0
SEQEND
  5
711
  8
CLUSTERS
  0
POLYLINE
  5
134
  8
CLUSTERS
 66
     1
 10
0.0
 20
0.0
 30
0.0
 70
   129
  0
VERTEX
  5
712
  8
CLUSTERS
 10
732179.22669295268
 20
4558814.1371518457
 30
0.0
  0
VERTEX
  5
713
  8
CLUSTERS
 10
732132.27513199998
 20
4558852.4542500004
 30
0.0
  0
VERTEX
  5
714
  8
CLUSTERS
 10
732031.74603200005
 20
4558858.2772300001
 30
0.0
  0
VERTEX
  5
715
  8
CLUSTERS
 10
731990.7922169253
 20
4558906.4254967673
 30
0.0
  0
VERTEX
  5
716
  8
CLUSTERS
 10
731943.29272993817
 20
4558906.4254967673
 30
0.0
  0
VERTEX
  5
717
  8
CLUSTERS
 10
731868.2453134947
 20
4558893.3922118228
 30
0.0
  0
VERTEX
  5
718
  8
CLUSTERS
 10
731772.29437299178
 20
4558890.6013247333
 30
0.0
  0
VERTEX
  5
719
  8
CLUSTERS
 10
731757.12676800007
 20
4558947.9553899989
 30
0.0
  0
VERTEX
  5
71A
  8
CLUSTERS
 10
731830.68783100008
 20
4559017.0069599999
 30
0.0
  0
VERTEX
  5
71B
  8
CLUSTERS
 10
731925.74699300015
 20
4559048.3271399997
 30
0.0
  0
VERTEX
  5
71C
  8
CLUSTERS
 10
731931.21693100012
 20
4559053.9804499997
 30
0.0
  0
VERTEX
  5
71D
  8
CLUSTERS
 10
731933.42503200006
 20
4559148.69888
 30
0.0
  0
VERTEX
  5
71E
  8
CLUSTERS
 10
732031.74603200005
 20
4559246.8831200013
 30
0.0
  0
VERTEX
  5
71F
  8
CLUSTERS
 10
732132.27513199998
 20
4559238.7924900008
 30
0.0
  0
VERTEX
  5
720
  8
CLUSTERS
 10
732222.54118000006
 20
4559148.69888
 30
0.0
  0
VERTEX
  5
721
  8
CLUSTERS
 10
732229.48604500003
 20
4559048.3271399997
 30
0.0
  0
VERTEX
  5
722
  8
CLUSTERS
 10
732232.80423300015
 20
4559000.6744999997
 30
0.0
  0
VERTEX
  5
723
  8
CLUSTERS
 10
732283.95015199995
 20
4558947.9553899989
 30
0.0
  0
VERTEX
  5
724
  8
CLUSTERS
 10
732291.52081400005
 20
4558847.5836399999
 30
0.0
  0
VERTEX
  5
725
  8
CLUSTERS
 10
732232.80423300015
 20
4558788.9037300004
 30
0.0
  0
VERTEX
  5
726
  8
CLUSTERS
 10
732179.22669295268
 20
4558814.1371518457
 30
0.0
  0
SEQEND
  5
727
  8
CLUSTERS
  0
POLYLINE
  5
135
  8
CLUSTERS
 66
     1
 10
0.0
 20
0.0
 30
0.0
 70
   129
  0
VERTEX
  5
728
  8
CLUSTERS
 10
736122.25549659482
 20
4558723.1505070273
 30
0.0
  0
VERTEX
  5
729
  8
CLUSTERS
 10
736195.08819615294
 20
4558789.6119155204
 30
0.0
  0
VERTEX
  5
72A
  8
CLUSTERS
 10
736283.75393066963
 20
4558795.9416096779
 30
0.0
  0
VERTEX
  5
72B
  8
CLUSTERS
 10
736315.42025532783
 20
4558685.1725321608
 30
0.0
  0
VERTEX
  5
72C
  8
CLUSTERS
 10
736299.58709299867
 20
4558609.2165824324
 30
0.0
  0
VERTEX
  5
72D
  8
CLUSTERS
 10
736153.43915300001
 20
4558655.8000600012
 30
0.0
  0
VERTEX
  5
72E
  8
CLUSTERS
 10
736122.25549659482
 20
4558723.1505070273
 30
0.0
  0
SEQEND
  5
72F
  8
CLUSTERS
  0
POLYLINE
  5
136
  8
CLUSTERS
 66
     1
 10
0.0
 20
0.0
 30
0.0
 70
   129
  0
VERTEX
  5
730
  8
CLUSTERS
 10
735553.31081900012
 20
4558747.2119000005
 30
0.0
  0
VERTEX
  5
731
  8
CLUSTERS
 10
735650.79365100001
 20
4558844.5421700003
 30
0.0
  0
VERTEX
  5
732
  8
CLUSTERS
 10
735656.19826400012
 20
4558847.5836399999
 30
0.0
  0
VERTEX
  5
733
  8
CLUSTERS
 10
735751.32275100006
 20
4558942.5591099998
 30
0.0
  0
VERTEX
  5
734
  8
CLUSTERS
 10
735846.44725700002
 20
4558847.5836399999
 30
0.0
  0
VERTEX
  5
735
  8
CLUSTERS
 10
735850.83857300004
 20
4558747.2119000005
 30
0.0
  0
VERTEX
  5
736
  8
CLUSTERS
 10
735751.32275100006
 20
4558647.8518300001
 30
0.0
  0
VERTEX
  5
737
  8
CLUSTERS
 10
735650.79365100001
 20
4558649.8815400004
 30
0.0
  0
VERTEX
  5
738
  8
CLUSTERS
 10
735553.31081900012
 20
4558747.2119000005
 30
0.0
  0
SEQEND
  5
739
  8
CLUSTERS
  0
POLYLINE
  5
137
  8
CLUSTERS
 66
     1
 10
0.0
 20
0.0
 30
0.0
 70
   129
  0
VERTEX
  5
73A
  8
CLUSTERS
 10
734156.81825200014
 20
4558546.4683999978
 30
0.0
  0
VERTEX
  5
73B
  8
CLUSTERS
 10
734243.38624300004
 20
4558637.9881800003
 30
0.0
  0
VERTEX
  5
73C
  8
CLUSTERS
 10
734252.25152899988
 20
4558646.8401499987
 30
0.0
  0
VERTEX
  5
73D
  8
CLUSTERS
 10
734343.9153440001
 20
4558733.2725599986
 30
0.0
  0
VERTEX
  5
73E
  8
CLUSTERS
 10
734430.48372500006
 20
4558646.8401499987
 30
0.0
  0
VERTEX
  5
73F
  8
CLUSTERS
 10
734437.36656600004
 20
4558546.4683999978
 30
0.0
  0
VERTEX
  5
740
  8
CLUSTERS
 10
734343.9153440001
 20
4558453.1633200003
 30
0.0
  0
VERTEX
  5
741
  8
CLUSTERS
 10
734243.38624300004
 20
4558460.0351900002
 30
0.0
  0
VERTEX
  5
742
  8
CLUSTERS
 10
734156.81825200014
 20
4558546.4683999978
 30
0.0
  0
SEQEND
  5
743
  8
CLUSTERS
  0
POLYLINE
  5
138
  8
CLUSTERS
 66
     1
 10
0.0
 20
0.0
 30
0.0
 70
   129
  0
VERTEX
  5
744
  8
CLUSTERS
 10
732195.26498199999
 20
4558546.4683999978
 30
0.0
  0
VERTEX
  5
745
  8
CLUSTERS
 10
732153.26862900006
 20
4558646.8401499987
 30
0.0
  0
VERTEX
  5
746
  8
CLUSTERS
 10
732232.80423300015
 20
4558726.3311099987
 30
0.0
  0
VERTEX
  5
747
  8
CLUSTERS
 10
732333.33333300008
 20
4558697.1160599999
 30
0.0
  0
VERTEX
  5
748
  8
CLUSTERS
 10
732383.66427000007
 20
4558646.8401499987
 30
0.0
  0
VERTEX
  5
749
  8
CLUSTERS
 10
732333.33333300008
 20
4558563.1287599998
 30
0.0
  0
VERTEX
  5
74A
  8
CLUSTERS
 10
732308.14584699995
 20
4558546.4683999978
 30
0.0
  0
VERTEX
  5
74B
  8
CLUSTERS
 10
732232.80423300015
 20
4558508.9956900002
 30
0.0
  0
VERTEX
  5
74C
  8
CLUSTERS
 10
732195.26498199999
 20
4558546.4683999978
 30
0.0
  0
SEQEND
  5
74D
  8
CLUSTERS
  0
POLYLINE
  5
139
  8
CLUSTERS
 66
     1
 10
0.0
 20
0.0
 30
0.0
 70
   129
  0
VERTEX
  5
74E
  8
CLUSTERS
 10
732856.2470630001
 20
4558345.7249100003
 30
0.0
  0
VERTEX
  5
74F
  8
CLUSTERS
 10
732805.93616535841
 20
4558375.1147150546
 30
0.0
  0
VERTEX
  5
750
  8
CLUSTERS
 10
732798.4191060001
 20
4558446.0966499997
 30
0.0
  0
VERTEX
  5
751
  8
CLUSTERS
 10
732835.97883600008
 20
4558483.6041400004
 30
0.0
  0
VERTEX
  5
752
  8
CLUSTERS
 10
732878.76886491629
 20
4558479.5541617731
 30
0.0
  0
VERTEX
  5
753
  8
CLUSTERS
 10
732923.10166848951
 20
4558444.7410339871
 30
0.0
  0
VERTEX
  5
754
  8
CLUSTERS
 10
732955.11211799993
 20
4558446.0966499997
 30
0.0
  0
VERTEX
  5
755
  8
CLUSTERS
 10
733037.03703700006
 20
4558527.8738099998
 30
0.0
  0
VERTEX
  5
756
  8
CLUSTERS
 10
733118.95302500005
 20
4558446.0966499997
 30
0.0
  0
VERTEX
  5
757
  8
CLUSTERS
 10
733037.03703700006
 20
4558354.0827400014
 30
0.0
  0
VERTEX
  5
758
  8
CLUSTERS
 10
733046.60053844878
 20
4558270.6753316959
 30
0.0
  0
VERTEX
  5
759
  8
CLUSTERS
 10
732945.26819764671
 20
4558242.1918347059
 30
0.0
  0
VERTEX
  5
75A
  8
CLUSTERS
 10
732856.2470630001
 20
4558345.7249100003
 30
0.0
  0
SEQEND
  5
75B
  8
CLUSTERS
  0
POLYLINE
  5
13A
  8
CLUSTERS
 66
     1
 10
0.0
 20
0.0
 30
0.0
 70
   129
  0
VERTEX
  5
75C
  8
CLUSTERS
 10
734930.33870399988
 20
4558044.6096700002
 30
0.0
  0
VERTEX
  5
75D
  8
CLUSTERS
 10
734947.08994700003
 20
4558144.9611299997
 30
0.0
  0
VERTEX
  5
75E
  8
CLUSTERS
 10
735021.8974596709
 20
4558145.2924148617
 30
0.0
  0
VERTEX
  5
75F
  8
CLUSTERS
 10
735102.45187800005
 20
4558044.6096700002
 30
0.0
  0
VERTEX
  5
760
  8
CLUSTERS
 10
735047.61904800008
 20
4557989.8631100003
 30
0.0
  0
VERTEX
  5
761
  8
CLUSTERS
 10
734947.08994700003
 20
4558027.8846800001
 30
0.0
  0
VERTEX
  5
762
  8
CLUSTERS
 10
734930.33870399988
 20
4558044.6096700002
 30
0.0
  0
SEQEND
  5
763
  8
CLUSTERS
  0
POLYLINE
  5
13B
  8
CLUSTERS
 66
     1
 10
0.0
 20
0.0
 30
0.0
 70
   129
  0
VERTEX
  5
764
  8
CLUSTERS
 10
735969.13589799998
 20
4557944.2379200002
 30
0.0
  0
VERTEX
  5
765
  8
CLUSTERS
 10
736052.91005299997
 20
4558027.8818099992
 30
0.0
  0
VERTEX
  5
766
  8
CLUSTERS
 10
736103.17146400013
 20
4558044.6096700002
 30
0.0
  0
VERTEX
  5
767
  8
CLUSTERS
 10
736075.75745300006
 20
4558144.9814099986
 30
0.0
  0
VERTEX
  5
768
  8
CLUSTERS
 10
736153.43915300001
 20
4558226.2365899999
 30
0.0
  0
VERTEX
  5
769
  8
CLUSTERS
 10
736182.15734399995
 20
4558245.3531600004
 30
0.0
  0
VERTEX
  5
76A
  8
CLUSTERS
 10
736153.43915300001
 20
4558295.5338700004
 30
0.0
  0
VERTEX
  5
76B
  8
CLUSTERS
 10
736108.75848099997
 20
4558345.7249100003
 30
0.0
  0
VERTEX
  5
76C
  8
CLUSTERS
 10
736153.43915300001
 20
4558390.3368800003
 30
0.0
  0
VERTEX
  5
76D
  8
CLUSTERS
 10
736216.2531519999
 20
4558446.0966499997
 30
0.0
  0
VERTEX
  5
76E
  8
CLUSTERS
 10
736253.96825399995
 20
4558483.7550299997
 30
0.0
  0
VERTEX
  5
76F
  8
CLUSTERS
 10
736354.49735399976
 20
4558543.7586899986
 30
0.0
  0
VERTEX
  5
770
  8
CLUSTERS
 10
736357.73668600013
 20
4558546.4683999978
 30
0.0
  0
VERTEX
  5
771
  8
CLUSTERS
 10
736379.61958199996
 20
4558646.8401499987
 30
0.0
  0
VERTEX
  5
772
  8
CLUSTERS
 10
736363.30767600017
 20
4558747.2119000005
 30
0.0
  0
VERTEX
  5
773
  8
CLUSTERS
 10
736356.99685200001
 20
4558847.5836399999
 30
0.0
  0
VERTEX
  5
774
  8
CLUSTERS
 10
736455.02645500004
 20
4558945.45952
 30
0.0
  0
VERTEX
  5
775
  8
CLUSTERS
 10
736554.04162499995
 20
4558847.5836399999
 30
0.0
  0
VERTEX
  5
776
  8
CLUSTERS
 10
736555.55555600021
 20
4558842.5700700004
 30
0.0
  0
VERTEX
  5
777
  8
CLUSTERS
 10
736647.97919300012
 20
4558747.2119000005
 30
0.0
  0
VERTEX
  5
778
  8
CLUSTERS
 10
736634.2340830001
 20
4558646.8401499987
 30
0.0
  0
VERTEX
  5
779
  8
CLUSTERS
 10
736555.55555600021
 20
4558551.7377599999
 30
0.0
  0
VERTEX
  5
77A
  8
CLUSTERS
 10
736554.45370999991
 20
4558546.4683999978
 30
0.0
  0
VERTEX
  5
77B
  8
CLUSTERS
 10
736555.55555600021
 20
4558513.1044800002
 30
0.0
  0
VERTEX
  5
77C
  8
CLUSTERS
 10
736584.31225200009
 20
4558446.0966499997
 30
0.0
  0
VERTEX
  5
77D
  8
CLUSTERS
 10
736555.55555600021
 20
4558417.3755799988
 30
0.0
  0
VERTEX
  5
77E
  8
CLUSTERS
 10
736549.57486000005
 20
4558345.7249100003
 30
0.0
  0
VERTEX
  5
77F
  8
CLUSTERS
 10
736530.75154321769
 20
4558305.3927835096
 30
0.0
  0
VERTEX
  5
780
  8
CLUSTERS
 10
736511.77717155882
 20
4558274.7839493658
 30
0.0
  0
VERTEX
  5
781
  8
CLUSTERS
 10
736500.54195406777
 20
4558260.8815337624
 30
0.0
  0
VERTEX
  5
782
  8
CLUSTERS
 10
736435.75244187296
 20
4558191.4588589156
 30
0.0
  0
VERTEX
  5
783
  8
CLUSTERS
 10
736397.75275038695
 20
4558150.3160369704
 30
0.0
  0
VERTEX
  5
784
  8
CLUSTERS
 10
736347.0865799858
 20
4558115.5029091854
 30
0.0
  0
VERTEX
  5
785
  8
CLUSTERS
 10
736253.96825399995
 20
4558080.4548899988
 30
0.0
  0
VERTEX
  5
786
  8
CLUSTERS
 10
736203.70608199993
 20
4558044.6096700002
 30
0.0
  0
VERTEX
  5
787
  8
CLUSTERS
 10
736212.08067199995
 20
4557944.2379200002
 30
0.0
  0
VERTEX
  5
788
  8
CLUSTERS
 10
736153.43915300001
 20
4557885.6881600004
 30
0.0
  0
VERTEX
  5
789
  8
CLUSTERS
 10
736052.91005299997
 20
4557860.59473
 30
0.0
  0
VERTEX
  5
78A
  8
CLUSTERS
 10
735969.13589799998
 20
4557944.2379200002
 30
0.0
  0
SEQEND
  5
78B
  8
CLUSTERS
  0
POLYLINE
  5
13C
  8
CLUSTERS
 66
     1
 10
0.0
 20
0.0
 30
0.0
 70
   129
  0
VERTEX
  5
78C
  8
CLUSTERS
 10
739241.41919100005
 20
4557643.12268
 30
0.0
  0
VERTEX
  5
78D
  8
CLUSTERS
 10
739169.31216900004
 20
4557664.9427599991
 30
0.0
  0
VERTEX
  5
78E
  8
CLUSTERS
 10
739102.81646243215
 20
4557690.3145208629
 30
0.0
  0
VERTEX
  5
78F
  8
CLUSTERS
 10
739049.56123347778
 20
4557730.2331972672
 30
0.0
  0
VERTEX
  5
790
  8
CLUSTERS
 10
738968.25396799995
 20
4557757.3960699998
 30
0.0
  0
VERTEX
  5
791
  8
CLUSTERS
 10
738879.04085800005
 20
4557843.8661700003
 30
0.0
  0
VERTEX
  5
792
  8
CLUSTERS
 10
738781.06591385487
 20
4557909.867304449
 30
0.0
  0
VERTEX
  5
793
  8
CLUSTERS
 10
738827.66425511125
 20
4557956.4390724665
 30
0.0
  0
VERTEX
  5
794
  8
CLUSTERS
 10
738883.13853154553
 20
4557945.3506075647
 30
0.0
  0
VERTEX
  5
795
  8
CLUSTERS
 10
738918.28128
 20
4557944.2379200002
 30
0.0
  0
VERTEX
  5
796
  8
CLUSTERS
 10
738968.25396799995
 20
4557930.4762899997
 30
0.0
  0
VERTEX
  5
797
  8
CLUSTERS
 10
739006.60521099996
 20
4557944.2379200002
 30
0.0
  0
VERTEX
  5
798
  8
CLUSTERS
 10
739068.783069
 20
4558005.8945099991
 30
0.0
  0
VERTEX
  5
799
  8
CLUSTERS
 10
739130.51572199992
 20
4557944.2379200002
 30
0.0
  0
VERTEX
  5
79A
  8
CLUSTERS
 10
739146.55913499999
 20
4557843.8661700003
 30
0.0
  0
VERTEX
  5
79B
  8
CLUSTERS
 10
739169.31216900004
 20
4557822.08464
 30
0.0
  0
VERTEX
  5
79C
  8
CLUSTERS
 10
739269.84126999986
 20
4557759.7972499998
 30
0.0
  0
VERTEX
  5
79D
  8
CLUSTERS
 10
739286.16451599996
 20
4557743.4944200013
 30
0.0
  0
VERTEX
  5
79E
  8
CLUSTERS
 10
739400.15838032681
 20
4557597.1709214645
 30
0.0
  0
VERTEX
  5
79F
  8
CLUSTERS
 10
739309.18061792303
 20
4557572.7761466121
 30
0.0
  0
VERTEX
  5
7A0
  8
CLUSTERS
 10
739241.41919100005
 20
4557643.12268
 30
0.0
  0
SEQEND
  5
7A1
  8
CLUSTERS
  0
POLYLINE
  5
13D
  8
CLUSTERS
 66
     1
 10
0.0
 20
0.0
 30
0.0
 70
   129
  0
VERTEX
  5
7A2
  8
CLUSTERS
 10
735251.15814899991
 20
4557241.6356899999
 30
0.0
  0
VERTEX
  5
7A3
  8
CLUSTERS
 10
735248.67724899994
 20
4557269.41328
 30
0.0
  0
VERTEX
  5
7A4
  8
CLUSTERS
 10
735176.00196000002
 20
4557342.0074300002
 30
0.0
  0
VERTEX
  5
7A5
  8
CLUSTERS
 10
735148.14814800001
 20
4557383.7225099998
 30
0.0
  0
VERTEX
  5
7A6
  8
CLUSTERS
 10
735089.4259090001
 20
4557442.3791800002
 30
0.0
  0
VERTEX
  5
7A7
  8
CLUSTERS
 10
735061.57506399998
 20
4557542.7509300001
 30
0.0
  0
VERTEX
  5
7A8
  8
CLUSTERS
 10
735148.14814800001
 20
4557629.1899899999
 30
0.0
  0
VERTEX
  5
7A9
  8
CLUSTERS
 10
735231.85614500009
 20
4557643.12268
 30
0.0
  0
VERTEX
  5
7AA
  8
CLUSTERS
 10
735210.97470899997
 20
4557743.4944200013
 30
0.0
  0
VERTEX
  5
7AB
  8
CLUSTERS
 10
735166.09927000012
 20
4557843.8661700003
 30
0.0
  0
VERTEX
  5
7AC
  8
CLUSTERS
 10
735206.07190458768
 20
4557939.0458145039
 30
0.0
  0
VERTEX
  5
7AD
  8
CLUSTERS
 10
735193.842435
 20
4558044.6096700002
 30
0.0
  0
VERTEX
  5
7AE
  8
CLUSTERS
 10
735248.67724899994
 20
4558099.3584899986
 30
0.0
  0
VERTEX
  5
7AF
  8
CLUSTERS
 10
735181.28435604356
 20
4558316.0399058508
 30
0.0
  0
VERTEX
  5
7B0
  8
CLUSTERS
 10
735279.95944273495
 20
4558340.6830137046
 30
0.0
  0
VERTEX
  5
7B1
  8
CLUSTERS
 10
735430.18780306343
 20
4558174.1225630026
 30
0.0
  0
VERTEX
  5
7B2
  8
CLUSTERS
 10
735434.95196800015
 20
4558044.6096700002
 30
0.0
  0
VERTEX
  5
7B3
  8
CLUSTERS
 10
735349.20634899999
 20
4557953.6464499999
 30
0.0
  0
VERTEX
  5
7B4
  8
CLUSTERS
 10
735394.68431709346
 20
4557974.5291176187
 30
0.0
  0
VERTEX
  5
7B5
  8
CLUSTERS
 10
735403.56025227113
 20
4557939.0458145039
 30
0.0
  0
VERTEX
  5
7B6
  8
CLUSTERS
 10
735418.32008199987
 20
4557843.8661700003
 30
0.0
  0
VERTEX
  5
7B7
  8
CLUSTERS
 10
735349.20634899999
 20
4557765.0003099991
 30
0.0
  0
VERTEX
  5
7B8
  8
CLUSTERS
 10
735298.94816599996
 20
4557743.4944200013
 30
0.0
  0
VERTEX
  5
7B9
  8
CLUSTERS
 10
735347.80919991154
 20
4557649.4213435054
 30
0.0
  0
VERTEX
  5
7BA
  8
CLUSTERS
 10
735345.38521800004
 20
4557542.7509300001
 30
0.0
  0
VERTEX
  5
7BB
  8
CLUSTERS
 10
735349.20634899999
 20
4557511.9850899996
 30
0.0
  0
VERTEX
  5
7BC
  8
CLUSTERS
 10
735439.77145500015
 20
4557442.3791800002
 30
0.0
  0
VERTEX
  5
7BD
  8
CLUSTERS
 10
735449.73545000015
 20
4557439.6863099989
 30
0.0
  0
VERTEX
  5
7BE
  8
CLUSTERS
 10
735538.03554900002
 20
4557342.0074300002
 30
0.0
  0
VERTEX
  5
7BF
  8
CLUSTERS
 10
735549.38128899992
 20
4557241.6356899999
 30
0.0
  0
VERTEX
  5
7C0
  8
CLUSTERS
 10
735449.73545000015
 20
4557142.1461399999
 30
0.0
  0
VERTEX
  5
7C1
  8
CLUSTERS
 10
735349.20634899999
 20
4557143.7406799989
 30
0.0
  0
VERTEX
  5
7C2
  8
CLUSTERS
 10
735251.15814899991
 20
4557241.6356899999
 30
0.0
  0
SEQEND
  5
7C3
  8
CLUSTERS
  0
POLYLINE
  5
13E
  8
CLUSTERS
 66
     1
 10
0.0
 20
0.0
 30
0.0
 70
   129
  0
VERTEX
  5
7C4
  8
CLUSTERS
 10
728620.258378
 20
4556840.1486999989
 30
0.0
  0
VERTEX
  5
7C5
  8
CLUSTERS
 10
728662.54688000015
 20
4556940.5204499988
 30
0.0
  0
VERTEX
  5
7C6
  8
CLUSTERS
 10
728714.285714
 20
4556992.42258
 30
0.0
  0
VERTEX
  5
7C7
  8
CLUSTERS
 10
728814.81481500005
 20
4556999.5680100014
 30
0.0
  0
VERTEX
  5
7C8
  8
CLUSTERS
 10
728878.938662
 20
4556940.5204499988
 30
0.0
  0
VERTEX
  5
7C9
  8
CLUSTERS
 10
728908.72117899999
 20
4556840.1486999989
 30
0.0
  0
VERTEX
  5
7CA
  8
CLUSTERS
 10
728814.81481500005
 20
4556751.7920500003
 30
0.0
  0
VERTEX
  5
7CB
  8
CLUSTERS
 10
728714.285714
 20
4556745.7634199997
 30
0.0
  0
VERTEX
  5
7CC
  8
CLUSTERS
 10
728620.258378
 20
4556840.1486999989
 30
0.0
  0
SEQEND
  5
7CD
  8
CLUSTERS
  0
POLYLINE
  5
13F
  8
CLUSTERS
 66
     1
 10
0.0
 20
0.0
 30
0.0
 70
   129
  0
VERTEX
  5
7CE
  8
CLUSTERS
 10
734047.93826099997
 20
4556639.4052000009
 30
0.0
  0
VERTEX
  5
7CF
  8
CLUSTERS
 10
734111.78536090546
 20
4556729.3128142729
 30
0.0
  0
VERTEX
  5
7D0
  8
CLUSTERS
 10
734220.52639600006
 20
4556639.4052000009
 30
0.0
  0
VERTEX
  5
7D1
  8
CLUSTERS
 10
734142.857143
 20
4556561.8661599997
 30
0.0
  0
VERTEX
  5
7D2
  8
CLUSTERS
 10
734047.93826099997
 20
4556639.4052000009
 30
0.0
  0
SEQEND
  5
7D3
  8
CLUSTERS
  0
POLYLINE
  5
140
  8
CLUSTERS
 66
     1
 10
0.0
 20
0.0
 30
0.0
 70
   129
  0
VERTEX
  5
7D4
  8
CLUSTERS
 10
734335.31803022197
 20
4556450.5928695388
 30
0.0
  0
VERTEX
  5
7D5
  8
CLUSTERS
 10
734444.95071926806
 20
4556553.7178804819
 30
0.0
  0
VERTEX
  5
7D6
  8
CLUSTERS
 10
734503.03621800011
 20
4556438.6617099997
 30
0.0
  0
VERTEX
  5
7D7
  8
CLUSTERS
 10
734444.44444399991
 20
4556380.1675100001
 30
0.0
  0
VERTEX
  5
7D8
  8
CLUSTERS
 10
734335.31803022197
 20
4556450.5928695388
 30
0.0
  0
SEQEND
  5
7D9
  8
CLUSTERS
  0
POLYLINE
  5
141
  8
CLUSTERS
 66
     1
 10
0.0
 20
0.0
 30
0.0
 70
   129
  0
VERTEX
  5
7DA
  8
CLUSTERS
 10
731860.62726600002
 20
4555936.8029699987
 30
0.0
  0
VERTEX
  5
7DB
  8
CLUSTERS
 10
731931.21693100012
 20
4556022.9170000004
 30
0.0
  0
VERTEX
  5
7DC
  8
CLUSTERS
 10
731940.23119100009
 20
4556037.1747199995
 30
0.0
  0
VERTEX
  5
7DD
  8
CLUSTERS
 10
732031.74603200005
 20
4556117.5559100006
 30
0.0
  0
VERTEX
  5
7DE
  8
CLUSTERS
 10
732112.39356500003
 20
4556037.1747199995
 30
0.0
  0
VERTEX
  5
7DF
  8
CLUSTERS
 10
732109.60834299994
 20
4555936.8029699987
 30
0.0
  0
VERTEX
  5
7E0
  8
CLUSTERS
 10
732031.74603200005
 20
4555859.3427599994
 30
0.0
  0
VERTEX
  5
7E1
  8
CLUSTERS
 10
731931.21693100012
 20
4555866.2885299986
 30
0.0
  0
VERTEX
  5
7E2
  8
CLUSTERS
 10
731860.62726600002
 20
4555936.8029699987
 30
0.0
  0
SEQEND
  5
7E3
  8
CLUSTERS
  0
POLYLINE
  5
142
  8
CLUSTERS
 66
     1
 10
0.0
 20
0.0
 30
0.0
 70
   129
  0
VERTEX
  5
7E4
  8
CLUSTERS
 10
732604.14257006499
 20
4555561.1395551218
 30
0.0
  0
VERTEX
  5
7E5
  8
CLUSTERS
 10
732707.32649468153
 20
4555638.4833766893
 30
0.0
  0
VERTEX
  5
7E6
  8
CLUSTERS
 10
732865.99838500004
 20
4555736.0594800003
 30
0.0
  0
VERTEX
  5
7E7
  8
CLUSTERS
 10
732858.40494299994
 20
4555836.4312300002
 30
0.0
  0
VERTEX
  5
7E8
  8
CLUSTERS
 10
732936.50793700013
 20
4555910.4034200003
 30
0.0
  0
VERTEX
  5
7E9
  8
CLUSTERS
 10
733010.57606700005
 20
4555836.4312300002
 30
0.0
  0
VERTEX
  5
7EA
  8
CLUSTERS
 10
732995.04182399996
 20
4555736.0594800003
 30
0.0
  0
VERTEX
  5
7EB
  8
CLUSTERS
 10
732936.50793700013
 20
4555677.4518999988
 30
0.0
  0
VERTEX
  5
7EC
  8
CLUSTERS
 10
732912.5859030002
 20
4555635.6877300004
 30
0.0
  0
VERTEX
  5
7ED
  8
CLUSTERS
 10
732778.26532344543
 20
4555309.7722934298
 30
0.0
  0
VERTEX
  5
7EE
  8
CLUSTERS
 10
732604.14257006499
 20
4555561.1395551218
 30
0.0
  0
SEQEND
  5
7EF
  8
CLUSTERS
  0
POLYLINE
  5
143
  8
CLUSTERS
 66
     1
 10
0.0
 20
0.0
 30
0.0
 70
   129
  0
VERTEX
  5
7F0
  8
CLUSTERS
 10
734446.16222299985
 20
4555535.31599
 30
0.0
  0
VERTEX
  5
7F1
  8
CLUSTERS
 10
734449.33007799997
 20
4555635.6877300004
 30
0.0
  0
VERTEX
  5
7F2
  8
CLUSTERS
 10
734544.97354499996
 20
4555731.2062499989
 30
0.0
  0
VERTEX
  5
7F3
  8
CLUSTERS
 10
734645.50264600024
 20
4555732.7601199998
 30
0.0
  0
VERTEX
  5
7F4
  8
CLUSTERS
 10
734742.69695300015
 20
4555635.6877300004
 30
0.0
  0
VERTEX
  5
7F5
  8
CLUSTERS
 10
734739.41845800006
 20
4555535.31599
 30
0.0
  0
VERTEX
  5
7F6
  8
CLUSTERS
 10
734645.50264600024
 20
4555441.5548899993
 30
0.0
  0
VERTEX
  5
7F7
  8
CLUSTERS
 10
734544.97354499996
 20
4555436.6708699986
 30
0.0
  0
VERTEX
  5
7F8
  8
CLUSTERS
 10
734446.16222299985
 20
4555535.31599
 30
0.0
  0
SEQEND
  5
7F9
  8
CLUSTERS
  0
POLYLINE
  5
144
  8
CLUSTERS
 66
     1
 10
0.0
 20
0.0
 30
0.0
 70
   129
  0
VERTEX
  5
7FA
  8
CLUSTERS
 10
733740.74387400004
 20
4555334.5724900002
 30
0.0
  0
VERTEX
  5
7FB
  8
CLUSTERS
 10
733841.26984099997
 20
4555424.1260600006
 30
0.0
  0
VERTEX
  5
7FC
  8
CLUSTERS
 10
733930.91590699984
 20
4555334.5724900002
 30
0.0
  0
VERTEX
  5
7FD
  8
CLUSTERS
 10
733841.26984099997
 20
4555245.1245100005
 30
0.0
  0
VERTEX
  5
7FE
  8
CLUSTERS
 10
733740.74387400004
 20
4555334.5724900002
 30
0.0
  0
SEQEND
  5
7FF
  8
CLUSTERS
  0
POLYLINE
  5
145
  8
CLUSTERS
 66
     1
 10
0.0
 20
0.0
 30
0.0
 70
   129
  0
VERTEX
  5
800
  8
CLUSTERS
 10
736505.78082686581
 20
4555225.9832062004
 30
0.0
  0
VERTEX
  5
801
  8
CLUSTERS
 10
736656.08465600002
 20
4555331.5614600005
 30
0.0
  0
VERTEX
  5
802
  8
CLUSTERS
 10
736753.51735699992
 20
4555234.2007400012
 30
0.0
  0
VERTEX
  5
803
  8
CLUSTERS
 10
736656.08465600002
 20
4555136.9351599999
 30
0.0
  0
VERTEX
  5
804
  8
CLUSTERS
 10
736505.78082686581
 20
4555225.9832062004
 30
0.0
  0
SEQEND
  5
805
  8
CLUSTERS
  0
POLYLINE
  5
146
  8
CLUSTERS
 66
     1
 10
0.0
 20
0.0
 30
0.0
 70
   129
  0
VERTEX
  5
806
  8
CLUSTERS
 10
727810.16004300001
 20
4554631.9702599999
 30
0.0
  0
VERTEX
  5
807
  8
CLUSTERS
 10
727831.59889899986
 20
4554732.3420099998
 30
0.0
  0
VERTEX
  5
808
  8
CLUSTERS
 10
727910.05290999997
 20
4554806.99933
 30
0.0
  0
VERTEX
  5
809
  8
CLUSTERS
 10
728010.58201100014
 20
4554796.80057
 30
0.0
  0
VERTEX
  5
80A
  8
CLUSTERS
 10
728083.70879800012
 20
4554732.3420099998
 30
0.0
  0
VERTEX
  5
80B
  8
CLUSTERS
 10
728111.11111099995
 20
4554696.7946600001
 30
0.0
  0
VERTEX
  5
80C
  8
CLUSTERS
 10
728163.58783600014
 20
4554631.9702599999
 30
0.0
  0
VERTEX
  5
80D
  8
CLUSTERS
 10
728111.11111099995
 20
4554575.2829600004
 30
0.0
  0
VERTEX
  5
80E
  8
CLUSTERS
 10
728010.58201100014
 20
4554532.287659999
 30
0.0
  0
VERTEX
  5
80F
  8
CLUSTERS
 10
727910.05290999997
 20
4554531.60996
 30
0.0
  0
VERTEX
  5
810
  8
CLUSTERS
 10
727810.16004300001
 20
4554631.9702599999
 30
0.0
  0
SEQEND
  5
811
  8
CLUSTERS
  0
POLYLINE
  5
147
  8
CLUSTERS
 66
     1
 10
0.0
 20
0.0
 30
0.0
 70
   129
  0
VERTEX
  5
812
  8
CLUSTERS
 10
736056.28702899988
 20
4554330.8550199987
 30
0.0
  0
VERTEX
  5
813
  8
CLUSTERS
 10
736153.43915300001
 20
4554428.0238299994
 30
0.0
  0
VERTEX
  5
814
  8
CLUSTERS
 10
736253.96825399995
 20
4554422.2608899996
 30
0.0
  0
VERTEX
  5
815
  8
CLUSTERS
 10
736345.25262699986
 20
4554330.8550199987
 30
0.0
  0
VERTEX
  5
816
  8
CLUSTERS
 10
736253.96825399995
 20
4554239.7102300003
 30
0.0
  0
VERTEX
  5
817
  8
CLUSTERS
 10
736153.43915300001
 20
4554233.9173600003
 30
0.0
  0
VERTEX
  5
818
  8
CLUSTERS
 10
736056.28702899988
 20
4554330.8550199987
 30
0.0
  0
SEQEND
  5
819
  8
CLUSTERS
  0
POLYLINE
  5
148
  8
CLUSTERS
 66
     1
 10
0.0
 20
0.0
 30
0.0
 70
   129
  0
VERTEX
  5
81A
  8
CLUSTERS
 10
732937.83747400006
 20
4554330.8550199987
 30
0.0
  0
VERTEX
  5
81B
  8
CLUSTERS
 10
732936.50793700013
 20
4554346.3681199998
 30
0.0
  0
VERTEX
  5
81C
  8
CLUSTERS
 10
732853.67735699995
 20
4554431.2267699987
 30
0.0
  0
VERTEX
  5
81D
  8
CLUSTERS
 10
732872.95779999997
 20
4554531.5985099999
 30
0.0
  0
VERTEX
  5
81E
  8
CLUSTERS
 10
732936.50793700013
 20
4554595.3603799986
 30
0.0
  0
VERTEX
  5
81F
  8
CLUSTERS
 10
733037.03703700006
 20
4554587.9028000012
 30
0.0
  0
VERTEX
  5
820
  8
CLUSTERS
 10
733137.56613799999
 20
4554628.4346000003
 30
0.0
  0
VERTEX
  5
821
  8
CLUSTERS
 10
733174.47246199998
 20
4554631.9702599999
 30
0.0
  0
VERTEX
  5
822
  8
CLUSTERS
 10
733187.11657199985
 20
4554732.3420099998
 30
0.0
  0
VERTEX
  5
823
  8
CLUSTERS
 10
733238.09523800015
 20
4554783.0173000013
 30
0.0
  0
VERTEX
  5
824
  8
CLUSTERS
 10
733338.62433899986
 20
4554803.3631199999
 30
0.0
  0
VERTEX
  5
825
  8
CLUSTERS
 10
733409.70152499992
 20
4554732.3420099998
 30
0.0
  0
VERTEX
  5
826
  8
CLUSTERS
 10
733338.62433899986
 20
4554655.36393
 30
0.0
  0
VERTEX
  5
827
  8
CLUSTERS
 10
733304.36913300015
 20
4554631.9702599999
 30
0.0
  0
VERTEX
  5
828
  8
CLUSTERS
 10
733338.62433899986
 20
4554605.3072900008
 30
0.0
  0
VERTEX
  5
829
  8
CLUSTERS
 10
733408.64222399984
 20
4554531.5985099999
 30
0.0
  0
VERTEX
  5
82A
  8
CLUSTERS
 10
733439.1534389999
 20
4554527.11259
 30
0.0
  0
VERTEX
  5
82B
  8
CLUSTERS
 10
733539.68253999995
 20
4554497.0465999991
 30
0.0
  0
VERTEX
  5
82C
  8
CLUSTERS
 10
733605.04473299987
 20
4554431.2267699987
 30
0.0
  0
VERTEX
  5
82D
  8
CLUSTERS
 10
733539.68253999995
 20
4554365.6120100003
 30
0.0
  0
VERTEX
  5
82E
  8
CLUSTERS
 10
733481.33146400005
 20
4554330.8550199987
 30
0.0
  0
VERTEX
  5
82F
  8
CLUSTERS
 10
733439.1534389999
 20
4554288.5313899992
 30
0.0
  0
VERTEX
  5
830
  8
CLUSTERS
 10
733338.62433899986
 20
4554235.5122300005
 30
0.0
  0
VERTEX
  5
831
  8
CLUSTERS
 10
733238.09523800015
 20
4554230.8456700006
 30
0.0
  0
VERTEX
  5
832
  8
CLUSTERS
 10
733137.56613799999
 20
4554231.5767799998
 30
0.0
  0
VERTEX
  5
833
  8
CLUSTERS
 10
733037.03703700006
 20
4554231.83868
 30
0.0
  0
VERTEX
  5
834
  8
CLUSTERS
 10
732937.83747400006
 20
4554330.8550199987
 30
0.0
  0
SEQEND
  5
835
  8
CLUSTERS
  0
POLYLINE
  5
149
  8
CLUSTERS
 66
     1
 10
0.0
 20
0.0
 30
0.0
 70
   129
  0
VERTEX
  5
836
  8
CLUSTERS
 10
728255.1780040001
 20
4554130.1115200007
 30
0.0
  0
VERTEX
  5
837
  8
CLUSTERS
 10
728312.16931199993
 20
4554196.01724
 30
0.0
  0
VERTEX
  5
838
  8
CLUSTERS
 10
728412.69841300021
 20
4554229.9122500001
 30
0.0
  0
VERTEX
  5
839
  8
CLUSTERS
 10
728513.22751300002
 20
4554205.16218
 30
0.0
  0
VERTEX
  5
83A
  8
CLUSTERS
 10
728576.86260699993
 20
4554130.1115200007
 30
0.0
  0
VERTEX
  5
83B
  8
CLUSTERS
 10
728513.22751300002
 20
4554062.9836999988
 30
0.0
  0
VERTEX
  5
83C
  8
CLUSTERS
 10
728412.69841300021
 20
4554032.0687199989
 30
0.0
  0
VERTEX
  5
83D
  8
CLUSTERS
 10
728312.16931199993
 20
4554050.6168299988
 30
0.0
  0
VERTEX
  5
83E
  8
CLUSTERS
 10
728255.1780040001
 20
4554130.1115200007
 30
0.0
  0
SEQEND
  5
83F
  8
CLUSTERS
  0
POLYLINE
  5
14A
  8
CLUSTERS
 66
     1
 10
0.0
 20
0.0
 30
0.0
 70
   129
  0
VERTEX
  5
840
  8
CLUSTERS
 10
727882.55607991095
 20
4552785.1471221736
 30
0.0
  0
VERTEX
  5
841
  8
CLUSTERS
 10
727868.99902701017
 20
4552866.4432484172
 30
0.0
  0
VERTEX
  5
842
  8
CLUSTERS
 10
727986.29980000004
 20
4552925.650559999
 30
0.0
  0
VERTEX
  5
843
  8
CLUSTERS
 10
728010.58201100014
 20
4552949.3030000003
 30
0.0
  0
VERTEX
  5
844
  8
CLUSTERS
 10
728108.50738615706
 20
4552965.8051523333
 30
0.0
  0
VERTEX
  5
845
  8
CLUSTERS
 10
728212.44496155635
 20
4552879.9925499894
 30
0.0
  0
VERTEX
  5
846
  8
CLUSTERS
 10
728130.09738499997
 20
4552825.27881
 30
0.0
  0
VERTEX
  5
847
  8
CLUSTERS
 10
728111.11111099995
 20
4552807.4603300001
 30
0.0
  0
VERTEX
  5
848
  8
CLUSTERS
 10
728010.58201100014
 20
4552752.30437
 30
0.0
  0
VERTEX
  5
849
  8
CLUSTERS
 10
727941.30339406081
 20
4552771.5977572389
 30
0.0
  0
VERTEX
  5
84A
  8
CLUSTERS
 10
727882.55607991095
 20
4552785.1471221736
 30
0.0
  0
SEQEND
  5
84B
  8
CLUSTERS
  0
POLYLINE
  5
14B
  8
CLUSTERS
 66
     1
 10
0.0
 20
0.0
 30
0.0
 70
   129
  0
VERTEX
  5
84C
  8
CLUSTERS
 10
732940.91693699989
 20
4552624.5353199989
 30
0.0
  0
VERTEX
  5
84D
  8
CLUSTERS
 10
732936.50793700013
 20
4552625.5775299994
 30
0.0
  0
VERTEX
  5
84E
  8
CLUSTERS
 10
732837.07265100011
 20
4552724.9070600001
 30
0.0
  0
VERTEX
  5
84F
  8
CLUSTERS
 10
732906.13446900016
 20
4552825.27881
 30
0.0
  0
VERTEX
  5
850
  8
CLUSTERS
 10
732936.50793700013
 20
4552853.7698999988
 30
0.0
  0
VERTEX
  5
851
  8
CLUSTERS
 10
733037.03703700006
 20
4552861.7618999993
 30
0.0
  0
VERTEX
  5
852
  8
CLUSTERS
 10
733079.57854000013
 20
4552825.27881
 30
0.0
  0
VERTEX
  5
853
  8
CLUSTERS
 10
733119.62289256405
 20
4552802.5451322543
 30
0.0
  0
VERTEX
  5
854
  8
CLUSTERS
 10
733197.01086786913
 20
4552770.3185504954
 30
0.0
  0
VERTEX
  5
855
  8
CLUSTERS
 10
733233.4323000001
 20
4552624.5353199989
 30
0.0
  0
VERTEX
  5
856
  8
CLUSTERS
 10
733137.56613799999
 20
4552529.3515699999
 30
0.0
  0
VERTEX
  5
857
  8
CLUSTERS
 10
733037.03703700006
 20
4552529.8583300002
 30
0.0
  0
VERTEX
  5
858
  8
CLUSTERS
 10
732940.91693699989
 20
4552624.5353199989
 30
0.0
  0
SEQEND
  5
859
  8
CLUSTERS
  0
POLYLINE
  5
14C
  8
CLUSTERS
 66
     1
 10
0.0
 20
0.0
 30
0.0
 70
   129
  0
VERTEX
  5
85A
  8
CLUSTERS
 10
727454.13714699994
 20
4551921.9330899986
 30
0.0
  0
VERTEX
  5
85B
  8
CLUSTERS
 10
727407.40740699996
 20
4551948.5900699999
 30
0.0
  0
VERTEX
  5
85C
  8
CLUSTERS
 10
727330.43271600013
 20
4552022.3048300007
 30
0.0
  0
VERTEX
  5
85D
  8
CLUSTERS
 10
727306.87830699992
 20
4552036.3477600003
 30
0.0
  0
VERTEX
  5
85E
  8
CLUSTERS
 10
727223.0455769999
 20
4552122.6765799988
 30
0.0
  0
VERTEX
  5
85F
  8
CLUSTERS
 10
727306.87830699992
 20
4552221.8024300002
 30
0.0
  0
VERTEX
  5
860
  8
CLUSTERS
 10
727308.26142300002
 20
4552223.0483299997
 30
0.0
  0
VERTEX
  5
861
  8
CLUSTERS
 10
727407.40740699996
 20
4552308.3189099999
 30
0.0
  0
VERTEX
  5
862
  8
CLUSTERS
 10
727507.93650800001
 20
4552295.1682500001
 30
0.0
  0
VERTEX
  5
863
  8
CLUSTERS
 10
727589.03768700012
 20
4552223.0483299997
 30
0.0
  0
VERTEX
  5
864
  8
CLUSTERS
 10
727606.54465699999
 20
4552122.6765799988
 30
0.0
  0
VERTEX
  5
865
  8
CLUSTERS
 10
727628.47097511112
 20
4552012.2811970413
 30
0.0
  0
VERTEX
  5
866
  8
CLUSTERS
 10
727586.307485
 20
4551921.9330899986
 30
0.0
  0
VERTEX
  5
867
  8
CLUSTERS
 10
727507.93650800001
 20
4551871.1166599998
 30
0.0
  0
VERTEX
  5
868
  8
CLUSTERS
 10
727454.13714699994
 20
4551921.9330899986
 30
0.0
  0
SEQEND
  5
869
  8
CLUSTERS
  0
POLYLINE
  5
14D
  8
CLUSTERS
 66
     1
 10
0.0
 20
0.0
 30
0.0
 70
   129
  0
VERTEX
  5
86A
  8
CLUSTERS
 10
732670.77807600005
 20
4551821.5613399986
 30
0.0
  0
VERTEX
  5
86B
  8
CLUSTERS
 10
732677.84881200001
 20
4551921.9330899986
 30
0.0
  0
VERTEX
  5
86C
  8
CLUSTERS
 10
732735.44973500003
 20
4551980.8661799999
 30
0.0
  0
VERTEX
  5
86D
  8
CLUSTERS
 10
732793.7982379999
 20
4551921.9330899986
 30
0.0
  0
VERTEX
  5
86E
  8
CLUSTERS
 10
732800.78433299996
 20
4551821.5613399986
 30
0.0
  0
VERTEX
  5
86F
  8
CLUSTERS
 10
732735.44973500003
 20
4551757.13741
 30
0.0
  0
VERTEX
  5
870
  8
CLUSTERS
 10
732670.77807600005
 20
4551821.5613399986
 30
0.0
  0
SEQEND
  5
871
  8
CLUSTERS
  0
POLYLINE
  5
14E
  8
CLUSTERS
 66
     1
 10
0.0
 20
0.0
 30
0.0
 70
   129
  0
VERTEX
  5
872
  8
CLUSTERS
 10
727872.37494800007
 20
4550717.47212
 30
0.0
  0
VERTEX
  5
873
  8
CLUSTERS
 10
727887.68994694052
 20
4550804.3551482968
 30
0.0
  0
VERTEX
  5
874
  8
CLUSTERS
 10
727989.76245258364
 20
4550766.6541229086
 30
0.0
  0
VERTEX
  5
875
  8
CLUSTERS
 10
728015.26168399979
 20
4550717.47212
 30
0.0
  0
VERTEX
  5
876
  8
CLUSTERS
 10
728010.58201100014
 20
4550713.51064
 30
0.0
  0
VERTEX
  5
877
  8
CLUSTERS
 10
727910.05290999997
 20
4550682.4768599998
 30
0.0
  0
VERTEX
  5
878
  8
CLUSTERS
 10
727872.37494800007
 20
4550717.47212
 30
0.0
  0
SEQEND
  5
879
  8
CLUSTERS
  0
POLYLINE
  5
14F
  8
CLUSTERS
 66
     1
 10
0.0
 20
0.0
 30
0.0
 70
   129
  0
VERTEX
  5
87A
  8
CLUSTERS
 10
726473.17107900011
 20
4550617.1003700001
 30
0.0
  0
VERTEX
  5
87B
  8
CLUSTERS
 10
726523.02376022644
 20
4550720.0823352579
 30
0.0
  0
VERTEX
  5
87C
  8
CLUSTERS
 10
726642.84811144206
 20
4550657.9866183931
 30
0.0
  0
VERTEX
  5
87D
  8
CLUSTERS
 10
726649.50506948924
 20
4550589.2377345711
 30
0.0
  0
VERTEX
  5
87E
  8
CLUSTERS
 10
726578.49807018798
 20
4550567.0607019057
 30
0.0
  0
VERTEX
  5
87F
  8
CLUSTERS
 10
726502.64550300001
 20
4550587.4475299986
 30
0.0
  0
VERTEX
  5
880
  8
CLUSTERS
 10
726473.17107900011
 20
4550617.1003700001
 30
0.0
  0
SEQEND
  5
881
  8
CLUSTERS
  0
POLYLINE
  5
150
  8
CLUSTERS
 66
     1
 10
0.0
 20
0.0
 30
0.0
 70
   129
  0
VERTEX
  5
882
  8
CLUSTERS
 10
731640.50161600008
 20
4550215.61338
 30
0.0
  0
VERTEX
  5
883
  8
CLUSTERS
 10
731643.80525199999
 20
4550315.9851299999
 30
0.0
  0
VERTEX
  5
884
  8
CLUSTERS
 10
731730.15873000014
 20
4550409.1587799992
 30
0.0
  0
VERTEX
  5
885
  8
CLUSTERS
 10
731819.15640500002
 20
4550315.9851299999
 30
0.0
  0
VERTEX
  5
886
  8
CLUSTERS
 10
731813.32983100007
 20
4550215.61338
 30
0.0
  0
VERTEX
  5
887
  8
CLUSTERS
 10
731730.15873000014
 20
4550135.66022
 30
0.0
  0
VERTEX
  5
888
  8
CLUSTERS
 10
731640.50161600008
 20
4550215.61338
 30
0.0
  0
SEQEND
  5
889
  8
CLUSTERS
  0
POLYLINE
  5
151
  8
CLUSTERS
 66
     1
 10
0.0
 20
0.0
 30
0.0
 70
   129
  0
VERTEX
  5
88A
  8
CLUSTERS
 10
727735.26995800005
 20
4549613.3828999987
 30
0.0
  0
VERTEX
  5
88B
  8
CLUSTERS
 10
727819.10189559357
 20
4549740.9172554659
 30
0.0
  0
VERTEX
  5
88C
  8
CLUSTERS
 10
727910.05290999997
 20
4549652.9672300015
 30
0.0
  0
VERTEX
  5
88D
  8
CLUSTERS
 10
727934.34326999995
 20
4549613.3828999987
 30
0.0
  0
VERTEX
  5
88E
  8
CLUSTERS
 10
727910.05290999997
 20
4549588.8757000007
 30
0.0
  0
VERTEX
  5
88F
  8
CLUSTERS
 10
727809.52380999993
 20
4549539.1223799987
 30
0.0
  0
VERTEX
  5
890
  8
CLUSTERS
 10
727735.26995800005
 20
4549613.3828999987
 30
0.0
  0
SEQEND
  5
891
  8
CLUSTERS
  0
POLYLINE
  5
152
  8
CLUSTERS
 66
     1
 10
0.0
 20
0.0
 30
0.0
 70
   129
  0
VERTEX
  5
892
  8
CLUSTERS
 10
728213.91531600012
 20
4549513.0111500006
 30
0.0
  0
VERTEX
  5
893
  8
CLUSTERS
 10
728222.36239800008
 20
4549613.3828999987
 30
0.0
  0
VERTEX
  5
894
  8
CLUSTERS
 10
728312.16931199993
 20
4549701.2964200014
 30
0.0
  0
VERTEX
  5
895
  8
CLUSTERS
 10
728412.69841300021
 20
4549688.9551100004
 30
0.0
  0
VERTEX
  5
896
  8
CLUSTERS
 10
728499.686491
 20
4549613.3828999987
 30
0.0
  0
VERTEX
  5
897
  8
CLUSTERS
 10
728509.31082399993
 20
4549513.0111500006
 30
0.0
  0
VERTEX
  5
898
  8
CLUSTERS
 10
728412.69841300021
 20
4549420.1799699999
 30
0.0
  0
VERTEX
  5
899
  8
CLUSTERS
 10
728312.16931199993
 20
4549414.8594300002
 30
0.0
  0
VERTEX
  5
89A
  8
CLUSTERS
 10
728213.91531600012
 20
4549513.0111500006
 30
0.0
  0
SEQEND
  5
89B
  8
CLUSTERS
  0
POLYLINE
  5
153
  8
CLUSTERS
 66
     1
 10
0.0
 20
0.0
 30
0.0
 70
   129
  0
VERTEX
  5
89C
  8
CLUSTERS
 10
727228.6941480001
 20
4549312.2676599994
 30
0.0
  0
VERTEX
  5
89D
  8
CLUSTERS
 10
727206.34920599998
 20
4549335.6557799997
 30
0.0
  0
VERTEX
  5
89E
  8
CLUSTERS
 10
727133.10115899995
 20
4549412.6394100003
 30
0.0
  0
VERTEX
  5
89F
  8
CLUSTERS
 10
727190.599238
 20
4549513.0111500006
 30
0.0
  0
VERTEX
  5
8A0
  8
CLUSTERS
 10
727206.34920599998
 20
4549528.9104200006
 30
0.0
  0
VERTEX
  5
8A1
  8
CLUSTERS
 10
727306.87830699992
 20
4549532.8873500004
 30
0.0
  0
VERTEX
  5
8A2
  8
CLUSTERS
 10
727337.30790899985
 20
4549513.0111500006
 30
0.0
  0
VERTEX
  5
8A3
  8
CLUSTERS
 10
727407.40740699996
 20
4549473.4953600001
 30
0.0
  0
VERTEX
  5
8A4
  8
CLUSTERS
 10
727490.69434828928
 20
4549430.4385441216
 30
0.0
  0
VERTEX
  5
8A5
  8
CLUSTERS
 10
727451.14292200003
 20
4549312.2676599994
 30
0.0
  0
VERTEX
  5
8A6
  8
CLUSTERS
 10
727407.40740699996
 20
4549268.2809800003
 30
0.0
  0
VERTEX
  5
8A7
  8
CLUSTERS
 10
727306.87830699992
 20
4549237.6672500009
 30
0.0
  0
VERTEX
  5
8A8
  8
CLUSTERS
 10
727228.6941480001
 20
4549312.2676599994
 30
0.0
  0
SEQEND
  5
8A9
  8
CLUSTERS
  0
ENDSEC
  0
EOF
