  0
SECTION
  2
HEADER
  9
$ACADVER
  1
AC1009
  9
$INSBASE
 10
0.0
 20
0.0
 30
0.0
  9
$EXTMIN
 10
729652.29472100025
 20
4555440.3902500002
 30
0.0
  9
$EXTMAX
 10
739193.47885272629
 20
4565922.8383389367
 30
100000.0
  9
$LIMMIN
 10
0.0
 20
0.0
  9
$LIMMAX
 10
12.0
 20
9.0
  9
$ORTHOMODE
 70
     0
  9
$REGENMODE
 70
     1
  9
$FILLMODE
 70
     1
  9
$QTEXTMODE
 70
     0
  9
$MIRRTEXT
 70
     1
  9
$DRAGMODE
 70
     2
  9
$LTSCALE
 40
1.0
  9
$OSMODE
 70
   613
  9
$ATTMODE
 70
     1
  9
$TEXTSIZE
 40
0.2
  9
$TRACEWID
 40
0.05
  9
$TEXTSTYLE
  7
STANDARD
  9
$CLAYER
  8
CLUSTERS
  9
$CELTYPE
  6
BYLAYER
  9
$CECOLOR
 62
   256
  9
$DIMSCALE
 40
1.0
  9
$DIMASZ
 40
0.18
  9
$DIMEXO
 40
0.0625
  9
$DIMDLI
 40
0.38
  9
$DIMRND
 40
0.0
  9
$DIMDLE
 40
0.0
  9
$DIMEXE
 40
0.18
  9
$DIMTP
 40
0.0
  9
$DIMTM
 40
0.0
  9
$DIMTXT
 40
0.18
  9
$DIMCEN
 40
0.09
  9
$DIMTSZ
 40
0.0
  9
$DIMTOL
 70
     0
  9
$DIMLIM
 70
     0
  9
$DIMTIH
 70
     1
  9
$DIMTOH
 70
     1
  9
$DIMSE1
 70
     0
  9
$DIMSE2
 70
     0
  9
$DIMTAD
 70
     0
  9
$DIMZIN
 70
     0
  9
$DIMBLK
  1

  9
$DIMASO
 70
     1
  9
$DIMSHO
 70
     1
  9
$DIMPOST
  1

  9
$DIMAPOST
  1

  9
$DIMALT
 70
     0
  9
$DIMALTD
 70
     2
  9
$DIMALTF
 40
25.399999999999999
  9
$DIMLFAC
 40
1.0
  9
$DIMTOFL
 70
     0
  9
$DIMTVP
 40
0.0
  9
$DIMTIX
 70
     0
  9
$DIMSOXD
 70
     0
  9
$DIMSAH
 70
     0
  9
$DIMBLK1
  1

  9
$DIMBLK2
  1

  9
$DIMSTYLE
  2
STANDARD
  9
$DIMCLRD
 70
     0
  9
$DIMCLRE
 70
     0
  9
$DIMCLRT
 70
     0
  9
$DIMTFAC
 40
1.0
  9
$DIMGAP
 40
0.09
  9
$LUNITS
 70
     2
  9
$LUPREC
 70
     4
  9
$SKETCHINC
 40
0.1
  9
$FILLETRAD
 40
0.5
  9
$AUNITS
 70
     0
  9
$AUPREC
 70
     0
  9
$MENU
  1
.
  9
$ELEVATION
 40
0.0
  9
$PELEVATION
 40
0.0
  9
$THICKNESS
 40
0.0
  9
$LIMCHECK
 70
     0
  9
$BLIPMODE
 70
     0
  9
$CHAMFERA
 40
0.5
  9
$CHAMFERB
 40
0.5
  9
$SKPOLY
 70
     0
  9
$TDCREATE
 40
2455395.9464814821
  9
$TDUPDATE
 40
2456579.6843766668
  9
$TDINDWG
 40
0.3138850116
  9
$TDUSRTIMER
 40
0.3138850116
  9
$USRTIMER
 70
     1
  9
$ANGBASE
 50
0.0
  9
$ANGDIR
 70
     1
  9
$PDMODE
 70
    66
  9
$PDSIZE
 40
0.0
  9
$PLINEWID
 40
0.0
  9
$COORDS
 70
     1
  9
$SPLFRAME
 70
     0
  9
$SPLINETYPE
 70
     6
  9
$SPLINESEGS
 70
     8
  9
$ATTDIA
 70
     0
  9
$ATTREQ
 70
     1
  9
$HANDLING
 70
     1
  9
$HANDSEED
  5
2F8
  9
$SURFTAB1
 70
     6
  9
$SURFTAB2
 70
     6
  9
$SURFTYPE
 70
     6
  9
$SURFU
 70
     6
  9
$SURFV
 70
     6
  9
$UCSNAME
  2

  9
$UCSORG
 10
0.0
 20
0.0
 30
0.0
  9
$UCSXDIR
 10
1.0
 20
0.0
 30
0.0
  9
$UCSYDIR
 10
0.0
 20
1.0
 30
0.0
  9
$PUCSNAME
  2

  9
$PUCSORG
 10
0.0
 20
0.0
 30
0.0
  9
$PUCSXDIR
 10
1.0
 20
0.0
 30
0.0
  9
$PUCSYDIR
 10
0.0
 20
1.0
 30
0.0
  9
$USERI1
 70
     0
  9
$USERI2
 70
     0
  9
$USERI3
 70
     0
  9
$USERI4
 70
     0
  9
$USERI5
 70
     0
  9
$USERR1
 40
0.0
  9
$USERR2
 40
0.0
  9
$USERR3
 40
0.0
  9
$USERR4
 40
0.0
  9
$USERR5
 40
0.0
  9
$WORLDVIEW
 70
     1
  9
$SHADEDGE
 70
     3
  9
$SHADEDIF
 70
    70
  9
$TILEMODE
 70
     1
  9
$MAXACTVP
 70
    64
  9
$PLIMCHECK
 70
     0
  9
$PEXTMIN
 10
0.0
 20
0.0
 30
0.0
  9
$PEXTMAX
 10
0.0
 20
0.0
 30
0.0
  9
$PLIMMIN
 10
0.0
 20
0.0
  9
$PLIMMAX
 10
12.0
 20
9.0
  9
$UNITMODE
 70
     0
  9
$VISRETAIN
 70
     1
  9
$PLINEGEN
 70
     0
  9
$PSLTSCALE
 70
     1
  0
ENDSEC
  0
SECTION
  2
TABLES
  0
TABLE
  2
VPORT
 70
     1
  0
VPORT
  2
*ACTIVE
 70
     0
 10
0.0
 20
0.0
 11
1.0
 21
1.0
 12
734422.88678686332
 22
4560681.6142944694
 13
0.0
 23
0.0
 14
0.5
 24
0.5
 15
0.5
 25
0.5
 16
0.0
 26
0.0
 36
1.0
 17
0.0
 27
0.0
 37
0.0
 40
10559.430571841071
 41
1.4411764705882351
 42
50.0
 43
0.0
 44
0.0
 50
0.0
 51
0.0
 71
     0
 72
   100
 73
     1
 74
     2
 75
     0
 76
     0
 77
     0
 78
     0
  0
ENDTAB
  0
TABLE
  2
LTYPE
 70
     1
  0
LTYPE
  2
CONTINUOUS
 70
     0
  3
Solid line
 72
    65
 73
     0
 40
0.0
  0
ENDTAB
  0
TABLE
  2
LAYER
 70
     2
  0
LAYER
  2
0
 70
     0
 62
    -7
  6
CONTINUOUS
  0
LAYER
  2
CLUSTERS
 70
     0
 62
     6
  6
CONTINUOUS
  0
ENDTAB
  0
TABLE
  2
STYLE
 70
     3
  0
STYLE
  2
STANDARD
 70
     0
 40
0.0
 41
1.0
 50
0.0
 71
     0
 42
0.2
  3
txt
  4

  0
STYLE
  2
ANNOTATIVE
 70
     0
 40
0.0
 41
1.0
 50
0.0
 71
     0
 42
0.2
  3
txt
  4

  0
STYLE
  2
LEGEND
 70
     0
 40
0.0
 41
1.0
 50
0.0
 71
     0
 42
0.2
  3
txt
  4

  0
ENDTAB
  0
TABLE
  2
VIEW
 70
     0
  0
ENDTAB
  0
TABLE
  2
UCS
 70
     0
  0
ENDTAB
  0
TABLE
  2
APPID
 70
     7
  0
APPID
  2
ACAD
 70
     0
  0
APPID
  2
ACADANNOTATIVE
 70
     0
  0
APPID
  2
ADE
 70
     0
  0
APPID
  2
ACMAPDMDISPLAYSTYLEREGAPP
 70
     0
  0
APPID
  2
MAPGWS
 70
     0
  0
APPID
  2
DCO15
 70
     0
  0
APPID
  2
ACAD_MLEADERVER
 70
     0
  0
ENDTAB
  0
TABLE
  2
DIMSTYLE
 70
     2
  0
DIMSTYLE
  2
STANDARD
 70
     0
  3

  4

  5

  6

  7

 40
1.0
 41
0.18
 42
0.0625
 43
0.38
 44
0.18
 45
0.0
 46
0.0
 47
0.0
 48
0.0
140
0.18
141
0.09
142
0.0
143
25.399999999999999
144
1.0
145
0.0
146
1.0
147
0.09
 71
     0
 72
     0
 73
     1
 74
     1
 75
     0
 76
     0
 77
     0
 78
     0
170
     0
171
     2
172
     0
173
     0
174
     0
175
     0
176
     0
177
     0
178
     0
  0
DIMSTYLE
  2
ANNOTATIVE
 70
     0
  3

  4

  5

  6

  7

 40
1.0
 41
0.18
 42
0.0625
 43
0.38
 44
0.18
 45
0.0
 46
0.0
 47
0.0
 48
0.0
140
0.18
141
0.09
142
0.0
143
25.399999999999999
144
1.0
145
0.0
146
1.0
147
0.09
 71
     0
 72
     0
 73
     1
 74
     1
 75
     0
 76
     0
 77
     0
 78
     0
170
     0
171
     2
172
     0
173
     0
174
     0
175
     0
176
     0
177
     0
178
     0
  0
ENDTAB
  0
ENDSEC
  0
SECTION
  2
BLOCKS
  0
BLOCK
  8
0
  2
$MODEL_SPACE
 70
     0
 10
0.0
 20
0.0
 30
0.0
  3
$MODEL_SPACE
  1

  0
ENDBLK
  5
220
  8
0
  0
BLOCK
 67
     1
  8
0
  2
$PAPER_SPACE
 70
     0
 10
0.0
 20
0.0
 30
0.0
  3
$PAPER_SPACE
  1

  0
ENDBLK
  5
21C
 67
     1
  8
0
  0
BLOCK
  8
0
  2
*U2
 70
     1
 10
0.0
 20
0.0
 30
0.0
  3
*U2
  1

  0
SOLID
  5
12B
  8
CLUSTERS
  6
CONTINUOUS
 10
738.86772486799975
 20
4565.8105729099998
 30
0.0
 11
738.76719576699998
 21
4565.7779986500009
 31
0.0
 12
738.9167582462627
 22
4565.7779986500009
 32
0.0
 13
738.9167582462627
 23
4565.7779986500009
 33
0.0
  0
SOLID
  5
12C
  8
CLUSTERS
  6
CONTINUOUS
 10
738.76719576699998
 20
4565.7779986500009
 30
0.0
 11
738.76440099699983
 21
4565.7732341999999
 31
0.0
 12
738.92393007700002
 22
4565.7732341999999
 32
0.0
 13
738.92393007700002
 23
4565.7732341999999
 33
0.0
  0
SOLID
  5
12D
  8
CLUSTERS
  6
CONTINUOUS
 10
-738.76719576699998
 20
4565.7779986500009
 30
0.0
 11
-738.9167582462627
 21
4565.7779986500009
 31
0.0
 12
-738.92393007700002
 22
4565.7732341999999
 32
0.0
 13
-738.92393007700002
 23
4565.7732341999999
 33
0.0
210
0.0
220
0.0
230
-1.0
  0
SOLID
  5
12E
  8
CLUSTERS
  6
CONTINUOUS
 10
-738.76719576699998
 20
4565.7681563300002
 30
0.0
 11
-738.91901013315373
 21
4565.7681563300002
 31
0.0
 12
-738.86772486799975
 22
4565.7152248499988
 32
0.0
 13
-738.86772486799975
 23
4565.7152248499988
 33
0.0
210
0.0
220
0.0
230
-1.0
  0
SOLID
  5
12F
  8
CLUSTERS
  6
CONTINUOUS
 10
738.76440099699983
 20
4565.7732341999999
 30
0.0
 11
738.76719576699998
 21
4565.7681563300002
 31
0.0
 12
738.91901013315373
 22
4565.7681563300002
 32
0.0
 13
738.91901013315373
 23
4565.7681563300002
 33
0.0
  0
SOLID
  5
130
  8
CLUSTERS
  6
CONTINUOUS
 10
-738.76440099699983
 20
4565.7732341999999
 30
0.0
 11
-738.92393007700002
 21
4565.7732341999999
 31
0.0
 12
-738.91901013315373
 22
4565.7681563300002
 32
0.0
 13
-738.91901013315373
 23
4565.7681563300002
 33
0.0
210
0.0
220
0.0
230
-1.0
  0
SOLID
  5
131
  8
CLUSTERS
  6
CONTINUOUS
 10
738.66666666699984
 20
4565.5495098900001
 30
0.0
 11
738.65324963730029
 21
4565.5354855799987
 31
0.0
 12
738.76719576699998
 22
4565.5354855799987
 32
0.0
 13
738.76719576699998
 23
4565.5354855799987
 33
0.0
  0
SOLID
  5
132
  8
CLUSTERS
  6
CONTINUOUS
 10
738.65324963730029
 20
4565.5354855799987
 30
0.0
 11
738.59262691699985
 21
4565.4721189600004
 31
0.0
 12
738.85752470499983
 22
4565.4721189600004
 32
0.0
 13
738.85752470499983
 23
4565.4721189600004
 33
0.0
  0
SOLID
  5
133
  8
CLUSTERS
  6
CONTINUOUS
 10
-738.65324963730029
 20
4565.5354855799987
 30
0.0
 11
-738.76719576699998
 21
4565.5354855799987
 31
0.0
 12
-738.85752470499983
 22
4565.4721189600004
 32
0.0
 13
-738.85752470499983
 23
4565.4721189600004
 33
0.0
210
0.0
220
0.0
230
-1.0
  0
SOLID
  5
134
  8
CLUSTERS
  6
CONTINUOUS
 10
738.59262691699985
 20
4565.4721189600004
 30
0.0
 11
738.59322506100011
 21
4565.3717472099997
 31
0.0
 12
738.77825013799998
 22
4565.3717472099997
 32
0.0
 13
738.77825013799998
 23
4565.3717472099997
 33
0.0
  0
SOLID
  5
135
  8
CLUSTERS
  6
CONTINUOUS
 10
-738.59262691699985
 20
4565.4721189600004
 30
0.0
 11
-738.85752470499983
 21
4565.4721189600004
 31
0.0
 12
-738.77825013799998
 22
4565.3717472099997
 32
0.0
 13
-738.77825013799998
 23
4565.3717472099997
 33
0.0
210
0.0
220
0.0
230
-1.0
  0
SOLID
  5
136
  8
CLUSTERS
  6
CONTINUOUS
 10
-738.60253882792222
 20
4565.3626802000008
 30
0.0
 11
-738.76719576699998
 21
4565.3626802000008
 31
0.0
 12
-738.66666666699984
 22
4565.3002513499996
 32
0.0
 13
-738.66666666699984
 23
4565.3002513499996
 33
0.0
210
0.0
220
0.0
230
-1.0
  0
SOLID
  5
137
  8
CLUSTERS
  6
CONTINUOUS
 10
738.59322506100011
 20
4565.3717472099997
 30
0.0
 11
738.60253882792222
 21
4565.3626802000008
 31
0.0
 12
738.76719576699998
 22
4565.3626802000008
 32
0.0
 13
738.76719576699998
 23
4565.3626802000008
 33
0.0
  0
SOLID
  5
138
  8
CLUSTERS
  6
CONTINUOUS
 10
-738.59322506100011
 20
4565.3717472099997
 30
0.0
 11
-738.77825013799998
 21
4565.3717472099997
 31
0.0
 12
-738.76719576699998
 22
4565.3626802000008
 32
0.0
 13
-738.76719576699998
 23
4565.3626802000008
 33
0.0
210
0.0
220
0.0
230
-1.0
  0
SOLID
  5
139
  8
CLUSTERS
  6
CONTINUOUS
 10
739.97354497399988
 20
4564.4931551099999
 30
0.0
 11
739.94941266800015
 21
4564.4684014900004
 31
0.0
 12
739.993034395
 22
4564.4684014900004
 32
0.0
 13
739.993034395
 23
4564.4684014900004
 33
0.0
  0
SOLID
  5
13A
  8
CLUSTERS
  6
CONTINUOUS
 10
-739.94941266800015
 20
4564.4684014900004
 30
0.0
 11
-739.993034395
 21
4564.4684014900004
 31
0.0
 12
-739.97354497399988
 22
4564.4487349000001
 32
0.0
 13
-739.97354497399988
 23
4564.4487349000001
 33
0.0
210
0.0
220
0.0
230
-1.0
  0
SOLID
  5
13B
  8
CLUSTERS
  6
CONTINUOUS
 10
734.44444444399994
 20
4564.0057444699996
 30
0.0
 11
734.40902761600012
 21
4563.9665427500013
 31
0.0
 12
734.47625130799986
 22
4563.9665427500013
 32
0.0
 13
734.47625130799986
 23
4563.9665427500013
 33
0.0
  0
SOLID
  5
13C
  8
CLUSTERS
  6
CONTINUOUS
 10
-734.40902761600012
 20
4563.9665427500013
 30
0.0
 11
-734.47625130799986
 21
4563.9665427500013
 31
0.0
 12
-734.44444444399994
 22
4563.9215850299997
 32
0.0
 13
-734.44444444399994
 23
4563.9215850299997
 33
0.0
210
0.0
220
0.0
230
-1.0
  0
SOLID
  5
13D
  8
CLUSTERS
  6
CONTINUOUS
 10
733.53968253999983
 20
4561.1768173600012
 30
0.0
 11
733.51783743500005
 21
4561.1561338299989
 31
0.0
 12
733.57090181199999
 22
4561.1561338299989
 32
0.0
 13
733.57090181199999
 23
4561.1561338299989
 33
0.0
  0
SOLID
  5
13E
  8
CLUSTERS
  6
CONTINUOUS
 10
-733.52824929300016
 20
4561.05576208
 30
0.0
 11
-733.55201842199983
 21
4561.05576208
 31
0.0
 12
-733.53968253999983
 22
4561.0457073899988
 32
0.0
 13
-733.53968253999983
 23
4561.0457073899988
 33
0.0
210
0.0
220
0.0
230
-1.0
  0
SOLID
  5
13F
  8
CLUSTERS
  6
CONTINUOUS
 10
733.51783743500005
 20
4561.1561338299989
 30
0.0
 11
733.52824929300016
 21
4561.05576208
 31
0.0
 12
733.55201842199983
 22
4561.05576208
 32
0.0
 13
733.55201842199983
 23
4561.05576208
 33
0.0
  0
SOLID
  5
140
  8
CLUSTERS
  6
CONTINUOUS
 10
-733.51783743500005
 20
4561.1561338299989
 30
0.0
 11
-733.57090181199999
 21
4561.1561338299989
 31
0.0
 12
-733.55201842199983
 22
4561.05576208
 32
0.0
 13
-733.55201842199983
 23
4561.05576208
 33
0.0
210
0.0
220
0.0
230
-1.0
  0
SOLID
  5
141
  8
CLUSTERS
  6
CONTINUOUS
 10
732.23280423300002
 20
4561.030536469998
 30
0.0
 11
732.13447964099998
 21
4560.9553903300002
 31
0.0
 12
732.31054046500014
 22
4560.9553903300002
 32
0.0
 13
732.31054046500014
 23
4560.9553903300002
 33
0.0
  0
SOLID
  5
142
  8
CLUSTERS
  6
CONTINUOUS
 10
-732.13511914199989
 20
4560.8550185900003
 30
0.0
 11
-732.28719029299998
 21
4560.8550185900003
 31
0.0
 12
-732.23280423300002
 22
4560.8007885799989
 32
0.0
 13
-732.23280423300002
 23
4560.8007885799989
 33
0.0
210
0.0
220
0.0
230
-1.0
  0
SOLID
  5
143
  8
CLUSTERS
  6
CONTINUOUS
 10
732.13447964099998
 20
4560.9553903300002
 30
0.0
 11
732.13511914199989
 21
4560.8550185900003
 31
0.0
 12
732.28719029299998
 22
4560.8550185900003
 32
0.0
 13
732.28719029299998
 23
4560.8550185900003
 33
0.0
  0
SOLID
  5
144
  8
CLUSTERS
  6
CONTINUOUS
 10
-732.13447964099998
 20
4560.9553903300002
 30
0.0
 11
-732.31054046500014
 21
4560.9553903300002
 31
0.0
 12
-732.28719029299998
 22
4560.8550185900003
 32
0.0
 13
-732.28719029299998
 23
4560.8550185900003
 33
0.0
210
0.0
220
0.0
230
-1.0
  0
SOLID
  5
145
  8
CLUSTERS
  6
CONTINUOUS
 10
737.56084656099995
 20
4560.7785365799991
 30
0.0
 11
737.55353822600011
 21
4560.7546468399978
 31
0.0
 12
737.56733431899988
 22
4560.7546468399978
 32
0.0
 13
737.56733431899988
 23
4560.7546468399978
 33
0.0
  0
SOLID
  5
146
  8
CLUSTERS
  6
CONTINUOUS
 10
-737.55353822600011
 20
4560.7546468399978
 30
0.0
 11
-737.56733431899988
 21
4560.7546468399978
 31
0.0
 12
-737.56084656099995
 22
4560.742044229999
 32
0.0
 13
-737.56084656099995
 23
4560.742044229999
 33
0.0
210
0.0
220
0.0
230
-1.0
  0
SOLID
  5
147
  8
CLUSTERS
  6
CONTINUOUS
 10
734.04232804200012
 20
4558.7941820300002
 30
0.0
 11
733.99528449599995
 21
4558.7472119000004
 31
0.0
 12
734.08937181500005
 22
4558.7472119000004
 32
0.0
 13
734.08937181500005
 23
4558.7472119000004
 33
0.0
  0
SOLID
  5
148
  8
CLUSTERS
  6
CONTINUOUS
 10
-733.99528449599995
 20
4558.7472119000004
 30
0.0
 11
-734.08937181500005
 21
4558.7472119000004
 31
0.0
 12
-734.04232804200012
 22
4558.70024199
 32
0.0
 13
-734.04232804200012
 23
4558.70024199
 33
0.0
210
0.0
220
0.0
230
-1.0
  0
SOLID
  5
149
  8
CLUSTERS
  6
CONTINUOUS
 10
735.34920634899993
 20
4558.2098494600004
 30
0.0
 11
735.28642976899994
 21
4558.1449814099988
 31
0.0
 12
735.43776646899994
 22
4558.1449814099988
 32
0.0
 13
735.43776646899994
 23
4558.1449814099988
 33
0.0
  0
SOLID
  5
14A
  8
CLUSTERS
  6
CONTINUOUS
 10
-735.28642976899994
 20
4558.1449814099988
 30
0.0
 11
-735.43776646899994
 21
4558.1449814099988
 31
0.0
 12
-735.34920634899993
 22
4558.0850831300004
 32
0.0
 13
-735.34920634899993
 23
4558.0850831300004
 33
0.0
210
0.0
220
0.0
230
-1.0
  0
SOLID
  5
14B
  8
CLUSTERS
  6
CONTINUOUS
 10
733.13756613800001
 20
4557.9079666900006
 30
0.0
 11
733.06899358600003
 21
4557.8438661700002
 31
0.0
 12
733.19639537999979
 22
4557.8438661700002
 32
0.0
 13
733.19639537999979
 23
4557.8438661700002
 33
0.0
  0
SOLID
  5
14C
  8
CLUSTERS
  6
CONTINUOUS
 10
-733.06899358600003
 20
4557.8438661700002
 30
0.0
 11
-733.19639537999979
 21
4557.8438661700002
 31
0.0
 12
-733.13756613800001
 22
4557.7814820599997
 32
0.0
 13
-733.13756613800001
 23
4557.7814820599997
 33
0.0
210
0.0
220
0.0
230
-1.0
  0
LINE
  5
14D
  8
CLUSTERS
  6
CONTINUOUS
 10
738.86772486799975
 20
4565.8105729099998
 30
0.0
 11
738.76719576699998
 21
4565.7779986500009
 31
0.0
  0
LINE
  5
14E
  8
CLUSTERS
  6
CONTINUOUS
 10
738.9167582462627
 20
4565.7779986500009
 30
0.0
 11
738.86772486799975
 21
4565.8105729099998
 31
0.0
  0
LINE
  5
14F
  8
CLUSTERS
  6
CONTINUOUS
 10
738.76719576699998
 20
4565.7779986500009
 30
0.0
 11
738.76440099699983
 21
4565.7732341999999
 31
0.0
  0
LINE
  5
150
  8
CLUSTERS
  6
CONTINUOUS
 10
738.9167582462627
 20
4565.7779986500009
 30
0.0
 11
738.92393007700002
 21
4565.7732341999999
 31
0.0
  0
LINE
  5
151
  8
CLUSTERS
  6
CONTINUOUS
 10
738.91901013315373
 20
4565.7681563300002
 30
0.0
 11
738.86772486799975
 21
4565.7152248499988
 31
0.0
  0
LINE
  5
152
  8
CLUSTERS
  6
CONTINUOUS
 10
738.86772486799975
 20
4565.7152248499988
 30
0.0
 11
738.76719576699998
 21
4565.7681563300002
 31
0.0
  0
LINE
  5
153
  8
CLUSTERS
  6
CONTINUOUS
 10
738.76440099699983
 20
4565.7732341999999
 30
0.0
 11
738.76719576699998
 21
4565.7681563300002
 31
0.0
  0
LINE
  5
154
  8
CLUSTERS
  6
CONTINUOUS
 10
738.92393007700002
 20
4565.7732341999999
 30
0.0
 11
738.91901013315373
 21
4565.7681563300002
 31
0.0
  0
LINE
  5
155
  8
CLUSTERS
  6
CONTINUOUS
 10
738.66666666699984
 20
4565.5495098900001
 30
0.0
 11
738.65324963730029
 21
4565.5354855799987
 31
0.0
  0
LINE
  5
156
  8
CLUSTERS
  6
CONTINUOUS
 10
738.76719576699998
 20
4565.5354855799987
 30
0.0
 11
738.66666666699984
 21
4565.5495098900001
 31
0.0
  0
LINE
  5
157
  8
CLUSTERS
  6
CONTINUOUS
 10
738.65324963730029
 20
4565.5354855799987
 30
0.0
 11
738.59262691699985
 21
4565.4721189600004
 31
0.0
  0
LINE
  5
158
  8
CLUSTERS
  6
CONTINUOUS
 10
738.76719576699998
 20
4565.5354855799987
 30
0.0
 11
738.85752470499983
 21
4565.4721189600004
 31
0.0
  0
LINE
  5
159
  8
CLUSTERS
  6
CONTINUOUS
 10
738.59262691699985
 20
4565.4721189600004
 30
0.0
 11
738.59322506100011
 21
4565.3717472099997
 31
0.0
  0
LINE
  5
15A
  8
CLUSTERS
  6
CONTINUOUS
 10
738.85752470499983
 20
4565.4721189600004
 30
0.0
 11
738.77825013799998
 21
4565.3717472099997
 31
0.0
  0
LINE
  5
15B
  8
CLUSTERS
  6
CONTINUOUS
 10
738.76719576699998
 20
4565.3626802000008
 30
0.0
 11
738.66666666699984
 21
4565.3002513499996
 31
0.0
  0
LINE
  5
15C
  8
CLUSTERS
  6
CONTINUOUS
 10
738.66666666699984
 20
4565.3002513499996
 30
0.0
 11
738.60253882792222
 21
4565.3626802000008
 31
0.0
  0
LINE
  5
15D
  8
CLUSTERS
  6
CONTINUOUS
 10
738.59322506100011
 20
4565.3717472099997
 30
0.0
 11
738.60253882792222
 21
4565.3626802000008
 31
0.0
  0
LINE
  5
15E
  8
CLUSTERS
  6
CONTINUOUS
 10
738.77825013799998
 20
4565.3717472099997
 30
0.0
 11
738.76719576699998
 21
4565.3626802000008
 31
0.0
  0
LINE
  5
15F
  8
CLUSTERS
  6
CONTINUOUS
 10
739.97354497399988
 20
4564.4931551099999
 30
0.0
 11
739.94941266800015
 21
4564.4684014900004
 31
0.0
  0
LINE
  5
160
  8
CLUSTERS
  6
CONTINUOUS
 10
739.993034395
 20
4564.4684014900004
 30
0.0
 11
739.97354497399988
 21
4564.4931551099999
 31
0.0
  0
LINE
  5
161
  8
CLUSTERS
  6
CONTINUOUS
 10
739.993034395
 20
4564.4684014900004
 30
0.0
 11
739.97354497399988
 21
4564.4487349000001
 31
0.0
  0
LINE
  5
162
  8
CLUSTERS
  6
CONTINUOUS
 10
739.97354497399988
 20
4564.4487349000001
 30
0.0
 11
739.94941266800015
 21
4564.4684014900004
 31
0.0
  0
LINE
  5
163
  8
CLUSTERS
  6
CONTINUOUS
 10
734.44444444399994
 20
4564.0057444699996
 30
0.0
 11
734.40902761600012
 21
4563.9665427500013
 31
0.0
  0
LINE
  5
164
  8
CLUSTERS
  6
CONTINUOUS
 10
734.47625130799986
 20
4563.9665427500013
 30
0.0
 11
734.44444444399994
 21
4564.0057444699996
 31
0.0
  0
LINE
  5
165
  8
CLUSTERS
  6
CONTINUOUS
 10
734.47625130799986
 20
4563.9665427500013
 30
0.0
 11
734.44444444399994
 21
4563.9215850299997
 31
0.0
  0
LINE
  5
166
  8
CLUSTERS
  6
CONTINUOUS
 10
734.44444444399994
 20
4563.9215850299997
 30
0.0
 11
734.40902761600012
 21
4563.9665427500013
 31
0.0
  0
LINE
  5
167
  8
CLUSTERS
  6
CONTINUOUS
 10
733.53968253999983
 20
4561.1768173600012
 30
0.0
 11
733.51783743500005
 21
4561.1561338299989
 31
0.0
  0
LINE
  5
168
  8
CLUSTERS
  6
CONTINUOUS
 10
733.57090181199999
 20
4561.1561338299989
 30
0.0
 11
733.53968253999983
 21
4561.1768173600012
 31
0.0
  0
LINE
  5
169
  8
CLUSTERS
  6
CONTINUOUS
 10
733.55201842199983
 20
4561.05576208
 30
0.0
 11
733.53968253999983
 21
4561.0457073899988
 31
0.0
  0
LINE
  5
16A
  8
CLUSTERS
  6
CONTINUOUS
 10
733.53968253999983
 20
4561.0457073899988
 30
0.0
 11
733.52824929300016
 21
4561.05576208
 31
0.0
  0
LINE
  5
16B
  8
CLUSTERS
  6
CONTINUOUS
 10
733.51783743500005
 20
4561.1561338299989
 30
0.0
 11
733.52824929300016
 21
4561.05576208
 31
0.0
  0
LINE
  5
16C
  8
CLUSTERS
  6
CONTINUOUS
 10
733.57090181199999
 20
4561.1561338299989
 30
0.0
 11
733.55201842199983
 21
4561.05576208
 31
0.0
  0
LINE
  5
16D
  8
CLUSTERS
  6
CONTINUOUS
 10
732.23280423300002
 20
4561.030536469998
 30
0.0
 11
732.13447964099998
 21
4560.9553903300002
 31
0.0
  0
LINE
  5
16E
  8
CLUSTERS
  6
CONTINUOUS
 10
732.31054046500014
 20
4560.9553903300002
 30
0.0
 11
732.23280423300002
 21
4561.030536469998
 31
0.0
  0
LINE
  5
16F
  8
CLUSTERS
  6
CONTINUOUS
 10
732.28719029299998
 20
4560.8550185900003
 30
0.0
 11
732.23280423300002
 21
4560.8007885799989
 31
0.0
  0
LINE
  5
170
  8
CLUSTERS
  6
CONTINUOUS
 10
732.23280423300002
 20
4560.8007885799989
 30
0.0
 11
732.13511914199989
 21
4560.8550185900003
 31
0.0
  0
LINE
  5
171
  8
CLUSTERS
  6
CONTINUOUS
 10
732.13447964099998
 20
4560.9553903300002
 30
0.0
 11
732.13511914199989
 21
4560.8550185900003
 31
0.0
  0
LINE
  5
172
  8
CLUSTERS
  6
CONTINUOUS
 10
732.31054046500014
 20
4560.9553903300002
 30
0.0
 11
732.28719029299998
 21
4560.8550185900003
 31
0.0
  0
LINE
  5
173
  8
CLUSTERS
  6
CONTINUOUS
 10
737.56084656099995
 20
4560.7785365799991
 30
0.0
 11
737.55353822600011
 21
4560.7546468399978
 31
0.0
  0
LINE
  5
174
  8
CLUSTERS
  6
CONTINUOUS
 10
737.56733431899988
 20
4560.7546468399978
 30
0.0
 11
737.56084656099995
 21
4560.7785365799991
 31
0.0
  0
LINE
  5
175
  8
CLUSTERS
  6
CONTINUOUS
 10
737.56733431899988
 20
4560.7546468399978
 30
0.0
 11
737.56084656099995
 21
4560.742044229999
 31
0.0
  0
LINE
  5
176
  8
CLUSTERS
  6
CONTINUOUS
 10
737.56084656099995
 20
4560.742044229999
 30
0.0
 11
737.55353822600011
 21
4560.7546468399978
 31
0.0
  0
LINE
  5
177
  8
CLUSTERS
  6
CONTINUOUS
 10
734.04232804200012
 20
4558.7941820300002
 30
0.0
 11
733.99528449599995
 21
4558.7472119000004
 31
0.0
  0
LINE
  5
178
  8
CLUSTERS
  6
CONTINUOUS
 10
734.08937181500005
 20
4558.7472119000004
 30
0.0
 11
734.04232804200012
 21
4558.7941820300002
 31
0.0
  0
LINE
  5
179
  8
CLUSTERS
  6
CONTINUOUS
 10
734.08937181500005
 20
4558.7472119000004
 30
0.0
 11
734.04232804200012
 21
4558.70024199
 31
0.0
  0
LINE
  5
17A
  8
CLUSTERS
  6
CONTINUOUS
 10
734.04232804200012
 20
4558.70024199
 30
0.0
 11
733.99528449599995
 21
4558.7472119000004
 31
0.0
  0
LINE
  5
17B
  8
CLUSTERS
  6
CONTINUOUS
 10
735.34920634899993
 20
4558.2098494600004
 30
0.0
 11
735.28642976899994
 21
4558.1449814099988
 31
0.0
  0
LINE
  5
17C
  8
CLUSTERS
  6
CONTINUOUS
 10
735.43776646899994
 20
4558.1449814099988
 30
0.0
 11
735.34920634899993
 21
4558.2098494600004
 31
0.0
  0
LINE
  5
17D
  8
CLUSTERS
  6
CONTINUOUS
 10
735.43776646899994
 20
4558.1449814099988
 30
0.0
 11
735.34920634899993
 21
4558.0850831300004
 31
0.0
  0
LINE
  5
17E
  8
CLUSTERS
  6
CONTINUOUS
 10
735.34920634899993
 20
4558.0850831300004
 30
0.0
 11
735.28642976899994
 21
4558.1449814099988
 31
0.0
  0
LINE
  5
17F
  8
CLUSTERS
  6
CONTINUOUS
 10
733.13756613800001
 20
4557.9079666900006
 30
0.0
 11
733.06899358600003
 21
4557.8438661700002
 31
0.0
  0
LINE
  5
180
  8
CLUSTERS
  6
CONTINUOUS
 10
733.19639537999979
 20
4557.8438661700002
 30
0.0
 11
733.13756613800001
 21
4557.9079666900006
 31
0.0
  0
LINE
  5
181
  8
CLUSTERS
  6
CONTINUOUS
 10
733.19639537999979
 20
4557.8438661700002
 30
0.0
 11
733.13756613800001
 21
4557.7814820599997
 31
0.0
  0
LINE
  5
182
  8
CLUSTERS
  6
CONTINUOUS
 10
733.13756613800001
 20
4557.7814820599997
 30
0.0
 11
733.06899358600003
 21
4557.8438661700002
 31
0.0
  0
ENDBLK
  5
184
  8
0
  0
ENDSEC
  0
SECTION
  2
ENTITIES
  0
POLYLINE
  5
71
  8
CLUSTERS
 66
     1
 10
0.0
 20
0.0
 30
0.0
 70
     1
  0
VERTEX
  5
25B
  8
CLUSTERS
 10
738688.54081936926
 20
4565914.268253576
 30
0.0
  0
VERTEX
  5
25C
  8
CLUSTERS
 10
738667.70601178962
 20
4565810.2024592562
 30
0.0
  0
VERTEX
  5
25D
  8
CLUSTERS
 10
738643.19442434993
 20
4565665.7346765883
 30
0.0
  0
VERTEX
  5
25E
  8
CLUSTERS
 10
738580.69000160985
 20
4565570.239025604
 30
0.0
  0
VERTEX
  5
25F
  8
CLUSTERS
 10
738503.47859857685
 20
4565506.575277607
 30
0.0
  0
VERTEX
  5
260
  8
CLUSTERS
 10
738467.93681070418
 20
4565417.2011575783
 30
0.0
  0
VERTEX
  5
261
  8
CLUSTERS
 10
738498.57636457623
 20
4565338.8457352901
 30
0.0
  0
VERTEX
  5
262
  8
CLUSTERS
 10
738634.6154104895
 20
4565320.4812004017
 30
0.0
  0
VERTEX
  5
263
  8
CLUSTERS
 10
738781.68479598151
 20
4565322.9298127852
 30
0.0
  0
VERTEX
  5
264
  8
CLUSTERS
 10
738920.17502846778
 20
4565330.2755919527
 30
0.0
  0
VERTEX
  5
265
  8
CLUSTERS
 10
739048.86065380753
 20
4565360.8831887469
 30
0.0
  0
VERTEX
  5
266
  8
CLUSTERS
 10
739134.65107070038
 20
4565409.8553204322
 30
0.0
  0
VERTEX
  5
267
  8
CLUSTERS
 10
739192.25325943972
 20
4565538.4071805952
 30
0.0
  0
VERTEX
  5
268
  8
CLUSTERS
 10
739193.47885272629
 20
4565654.7159788478
 30
0.0
  0
VERTEX
  5
269
  8
CLUSTERS
 10
739179.99746572005
 20
4565777.1463080561
 30
0.0
  0
VERTEX
  5
26A
  8
CLUSTERS
 10
739151.80909842055
 20
4565862.8475095127
 30
0.0
  0
VERTEX
  5
26B
  8
CLUSTERS
 10
739094.20704882708
 20
4565906.9224164328
 30
0.0
  0
VERTEX
  5
26C
  8
CLUSTERS
 10
738977.77707806148
 20
4565908.1467226222
 30
0.0
  0
VERTEX
  5
26D
  8
CLUSTERS
 10
738851.5426392951
 20
4565916.7168659596
 30
0.0
  0
VERTEX
  5
26E
  8
CLUSTERS
 10
738737.56399424816
 20
4565922.8383389367
 30
0.0
  0
SEQEND
  5
26F
  8
CLUSTERS
  0
POLYLINE
  5
72
  8
CLUSTERS
 66
     1
 10
0.0
 20
0.0
 30
0.0
 70
     1
  0
VERTEX
  5
270
  8
CLUSTERS
 10
732032.61724024243
 20
4561075.5780459531
 30
0.0
  0
VERTEX
  5
271
  8
CLUSTERS
 10
732047.15321075462
 20
4560998.1337365974
 30
0.0
  0
VERTEX
  5
272
  8
CLUSTERS
 10
732073.80235088128
 20
4560932.7901549311
 30
0.0
  0
VERTEX
  5
273
  8
CLUSTERS
 10
732095.60630664928
 20
4560852.9257000377
 30
0.0
  0
VERTEX
  5
274
  8
CLUSTERS
 10
732131.94609378395
 20
4560826.3042150727
 30
0.0
  0
VERTEX
  5
275
  8
CLUSTERS
 10
732199.7803445491
 20
4560792.4223514711
 30
0.0
  0
VERTEX
  5
276
  8
CLUSTERS
 10
732277.30524232262
 20
4560799.6827301066
 30
0.0
  0
VERTEX
  5
277
  8
CLUSTERS
 10
732301.53172069718
 20
4560828.7243606104
 30
0.0
  0
VERTEX
  5
278
  8
CLUSTERS
 10
732359.67546359985
 20
4560867.4465152873
 30
0.0
  0
VERTEX
  5
279
  8
CLUSTERS
 10
732403.28323599044
 20
4560911.0089030648
 30
0.0
  0
VERTEX
  5
27A
  8
CLUSTERS
 10
732408.12855949486
 20
4560952.1512032831
 30
0.0
  0
VERTEX
  5
27B
  8
CLUSTERS
 10
732396.01525073452
 20
4560981.192833785
 30
0.0
  0
VERTEX
  5
27C
  8
CLUSTERS
 10
732342.71683133603
 20
4561000.5538821351
 30
0.0
  0
VERTEX
  5
27D
  8
CLUSTERS
 10
732301.53172069718
 20
4561012.6545518488
 30
0.0
  0
VERTEX
  5
27E
  8
CLUSTERS
 10
732294.26387458679
 20
4561056.2169976011
 30
0.0
  0
VERTEX
  5
27F
  8
CLUSTERS
 10
732289.41855108249
 20
4561102.1995309172
 30
0.0
  0
VERTEX
  5
280
  8
CLUSTERS
 10
732243.38811693981
 20
4561133.661248982
 30
0.0
  0
VERTEX
  5
281
  8
CLUSTERS
 10
732187.66703578923
 20
4561087.6787156658
 30
0.0
  0
VERTEX
  5
282
  8
CLUSTERS
 10
732190.08969754132
 20
4561044.1163278893
 30
0.0
  0
VERTEX
  5
283
  8
CLUSTERS
 10
732148.90458690247
 20
4561036.8558912752
 30
0.0
  0
VERTEX
  5
284
  8
CLUSTERS
 10
732117.41012327198
 20
4561061.0572307007
 30
0.0
  0
VERTEX
  5
285
  8
CLUSTERS
 10
732068.95702737721
 20
4561087.6787156658
 30
0.0
  0
SEQEND
  5
286
  8
CLUSTERS
  0
POLYLINE
  5
73
  8
CLUSTERS
 66
     1
 10
0.0
 20
0.0
 30
0.0
 70
     1
  0
VERTEX
  5
287
  8
CLUSTERS
 10
735267.21422933543
 20
4558319.6406336194
 30
0.0
  0
VERTEX
  5
288
  8
CLUSTERS
 10
735263.44992697611
 20
4558240.6707101539
 30
0.0
  0
VERTEX
  5
289
  8
CLUSTERS
 10
735237.09925387928
 20
4558165.4612509552
 30
0.0
  0
VERTEX
  5
28A
  8
CLUSTERS
 10
735240.86355623871
 20
4558097.7727202801
 30
0.0
  0
VERTEX
  5
28B
  8
CLUSTERS
 10
735331.20890004293
 20
4558086.4913274897
 30
0.0
  0
VERTEX
  5
28C
  8
CLUSTERS
 10
735462.96240467206
 20
4558109.054171049
 30
0.0
  0
VERTEX
  5
28D
  8
CLUSTERS
 10
735508.13514614664
 20
4558161.7007866902
 30
0.0
  0
VERTEX
  5
28E
  8
CLUSTERS
 10
735519.42819236976
 20
4558229.3893173654
 30
0.0
  0
VERTEX
  5
28F
  8
CLUSTERS
 10
735481.78433390451
 20
4558297.077790061
 30
0.0
  0
VERTEX
  5
290
  8
CLUSTERS
 10
735417.78980234219
 20
4558297.077790061
 30
0.0
  0
VERTEX
  5
291
  8
CLUSTERS
 10
735338.73764390685
 20
4558319.6406336194
 30
0.0
  0
VERTEX
  5
292
  8
CLUSTERS
 10
735278.50741470396
 20
4558330.9220843865
 30
0.0
  0
SEQEND
  5
293
  8
CLUSTERS
  0
POLYLINE
  5
74
  8
CLUSTERS
 66
     1
 10
0.0
 20
0.0
 30
0.0
 70
     1
  0
VERTEX
  5
294
  8
CLUSTERS
 10
733042.46144264401
 20
4557988.7190247327
 30
0.0
  0
VERTEX
  5
295
  8
CLUSTERS
 10
732978.46691108181
 20
4557894.7071862379
 30
0.0
  0
VERTEX
  5
296
  8
CLUSTERS
 10
732993.52439880976
 20
4557830.7791778035
 30
0.0
  0
VERTEX
  5
297
  8
CLUSTERS
 10
732959.64498184901
 20
4557778.1325621624
 30
0.0
  0
VERTEX
  5
298
  8
CLUSTERS
 10
732997.28884031426
 20
4557676.5997951441
 30
0.0
  0
VERTEX
  5
299
  8
CLUSTERS
 10
733125.27804258408
 20
4557706.6835672259
 30
0.0
  0
VERTEX
  5
29A
  8
CLUSTERS
 10
733155.39301804011
 20
4557766.8511113962
 30
0.0
  0
VERTEX
  5
29B
  8
CLUSTERS
 10
733193.03701565089
 20
4557789.4139549518
 30
0.0
  0
VERTEX
  5
29C
  8
CLUSTERS
 10
733257.03154721286
 20
4557838.3001063317
 30
0.0
  0
VERTEX
  5
29D
  8
CLUSTERS
 10
733219.38768874772
 20
4557924.7909583207
 30
0.0
  0
VERTEX
  5
29E
  8
CLUSTERS
 10
733144.09997181676
 20
4557947.353801881
 30
0.0
  0
VERTEX
  5
29F
  8
CLUSTERS
 10
733110.22041571082
 20
4558000.0004175231
 30
0.0
  0
SEQEND
  5
2A0
  8
CLUSTERS
  0
POLYLINE
  5
80
  8
CLUSTERS
 66
     1
 10
0.0
 20
0.0
 30
100000.0
 70
   129
  0
VERTEX
  5
2A1
  8
CLUSTERS
 10
730045.20942699979
 20
4555535.3159900019
 30
100000.0
  0
VERTEX
  5
2A2
  8
CLUSTERS
 10
730021.16402100015
 20
4555538.8144400008
 30
100000.0
  0
VERTEX
  5
2A3
  8
CLUSTERS
 10
729920.63492100022
 20
4555540.7667699996
 30
100000.0
  0
VERTEX
  5
2A4
  8
CLUSTERS
 10
729820.10582000006
 20
4555545.2420199988
 30
100000.0
  0
VERTEX
  5
2A5
  8
CLUSTERS
 10
729719.57671999978
 20
4555602.1647699978
 30
100000.0
  0
VERTEX
  5
2A6
  8
CLUSTERS
 10
729686.33220399998
 20
4555635.6877300004
 30
100000.0
  0
VERTEX
  5
2A7
  8
CLUSTERS
 10
729652.29472100025
 20
4555736.0594800003
 30
100000.0
  0
VERTEX
  5
2A8
  8
CLUSTERS
 10
729719.57671999978
 20
4555808.1536399992
 30
100000.0
  0
VERTEX
  5
2A9
  8
CLUSTERS
 10
729723.39527199988
 20
4555836.4312300002
 30
100000.0
  0
VERTEX
  5
2AA
  8
CLUSTERS
 10
729725.50421399972
 20
4555936.8029699987
 30
100000.0
  0
VERTEX
  5
2AB
  8
CLUSTERS
 10
729730.20807799988
 20
4556037.1747199995
 30
100000.0
  0
VERTEX
  5
2AC
  8
CLUSTERS
 10
729759.96641399979
 20
4556137.5464700004
 30
100000.0
  0
VERTEX
  5
2AD
  8
CLUSTERS
 10
729820.10582000006
 20
4556199.9520500004
 30
100000.0
  0
VERTEX
  5
2AE
  8
CLUSTERS
 10
729827.55746299983
 20
4556237.9182200003
 30
100000.0
  0
VERTEX
  5
2AF
  8
CLUSTERS
 10
729920.63492100022
 20
4556331.25703
 30
100000.0
  0
VERTEX
  5
2B0
  8
CLUSTERS
 10
730021.16402100015
 20
4556328.6528299991
 30
100000.0
  0
VERTEX
  5
2B1
  8
CLUSTERS
 10
730121.69312199974
 20
4556295.3309500022
 30
100000.0
  0
VERTEX
  5
2B2
  8
CLUSTERS
 10
730191.5261260001
 20
4556237.9182200003
 30
100000.0
  0
VERTEX
  5
2B3
  8
CLUSTERS
 10
730222.22222199989
 20
4556235.2677999986
 30
100000.0
  0
VERTEX
  5
2B4
  8
CLUSTERS
 10
730322.75132300018
 20
4556232.8932799986
 30
100000.0
  0
VERTEX
  5
2B5
  8
CLUSTERS
 10
730423.28042300011
 20
4556227.0233899988
 30
100000.0
  0
VERTEX
  5
2B6
  8
CLUSTERS
 10
730523.80952400004
 20
4556171.5113700004
 30
100000.0
  0
VERTEX
  5
2B7
  8
CLUSTERS
 10
730643.75928800157
 20
4556140.3105052579
 30
100000.0
  0
VERTEX
  5
2B8
  8
CLUSTERS
 10
730697.3993095255
 20
4555994.8674867898
 30
100000.0
  0
VERTEX
  5
2B9
  8
CLUSTERS
 10
730620.72334600019
 20
4555936.8029699987
 30
100000.0
  0
VERTEX
  5
2BA
  8
CLUSTERS
 10
730617.05407399999
 20
4555836.4312300002
 30
100000.0
  0
VERTEX
  5
2BB
  8
CLUSTERS
 10
730598.20530100015
 20
4555736.0594800003
 30
100000.0
  0
VERTEX
  5
2BC
  8
CLUSTERS
 10
730523.80952400004
 20
4555646.8840800002
 30
100000.0
  0
VERTEX
  5
2BD
  8
CLUSTERS
 10
730522.29608500015
 20
4555635.6877300004
 30
100000.0
  0
VERTEX
  5
2BE
  8
CLUSTERS
 10
730519.00047600013
 20
4555535.3159900019
 30
100000.0
  0
VERTEX
  5
2BF
  8
CLUSTERS
 10
730423.28042300011
 20
4555441.825389999
 30
100000.0
  0
VERTEX
  5
2C0
  8
CLUSTERS
 10
730322.75132300018
 20
4555440.3902500002
 30
100000.0
  0
VERTEX
  5
2C1
  8
CLUSTERS
 10
730222.22222199989
 20
4555444.1234400002
 30
100000.0
  0
VERTEX
  5
2C2
  8
CLUSTERS
 10
730121.69312199974
 20
4555463.4399300003
 30
100000.0
  0
VERTEX
  5
2C3
  8
CLUSTERS
 10
730045.20942699979
 20
4555535.3159900019
 30
100000.0
  0
SEQEND
  5
2C4
  8
CLUSTERS
  0
ENDSEC
  0
EOF
