  0
SECTION
  2
HEADER
  9
$ACADVER
  1
AC1009
  9
$INSBASE
 10
0.0
 20
0.0
 30
0.0
  9
$EXTMIN
 10
726700.8693777736
 20
4549308.8676231978
 30
-0.7659328644585913
  9
$EXTMAX
 10
743606.69371811801
 20
4571630.5960900132
 30
1.14138689955871
  9
$LIMMIN
 10
0.0
 20
0.0
  9
$LIMMAX
 10
12.0
 20
9.0
  9
$ORTHOMODE
 70
     0
  9
$REGENMODE
 70
     1
  9
$FILLMODE
 70
     1
  9
$QTEXTMODE
 70
     0
  9
$MIRRTEXT
 70
     1
  9
$DRAGMODE
 70
     2
  9
$LTSCALE
 40
1.0
  9
$OSMODE
 70
   613
  9
$ATTMODE
 70
     1
  9
$TEXTSIZE
 40
0.2
  9
$TRACEWID
 40
0.05
  9
$TEXTSTYLE
  7
STANDARD
  9
$CLAYER
  8
0
  9
$CELTYPE
  6
BYLAYER
  9
$CECOLOR
 62
   256
  9
$DIMSCALE
 40
1.0
  9
$DIMASZ
 40
0.18
  9
$DIMEXO
 40
0.0625
  9
$DIMDLI
 40
0.38
  9
$DIMRND
 40
0.0
  9
$DIMDLE
 40
0.0
  9
$DIMEXE
 40
0.18
  9
$DIMTP
 40
0.0
  9
$DIMTM
 40
0.0
  9
$DIMTXT
 40
0.18
  9
$DIMCEN
 40
0.09
  9
$DIMTSZ
 40
0.0
  9
$DIMTOL
 70
     0
  9
$DIMLIM
 70
     0
  9
$DIMTIH
 70
     1
  9
$DIMTOH
 70
     1
  9
$DIMSE1
 70
     0
  9
$DIMSE2
 70
     0
  9
$DIMTAD
 70
     0
  9
$DIMZIN
 70
     0
  9
$DIMBLK
  1

  9
$DIMASO
 70
     1
  9
$DIMSHO
 70
     1
  9
$DIMPOST
  1

  9
$DIMAPOST
  1

  9
$DIMALT
 70
     0
  9
$DIMALTD
 70
     2
  9
$DIMALTF
 40
25.399999999999999
  9
$DIMLFAC
 40
1.0
  9
$DIMTOFL
 70
     0
  9
$DIMTVP
 40
0.0
  9
$DIMTIX
 70
     0
  9
$DIMSOXD
 70
     0
  9
$DIMSAH
 70
     0
  9
$DIMBLK1
  1

  9
$DIMBLK2
  1

  9
$DIMSTYLE
  2
STANDARD
  9
$DIMCLRD
 70
     0
  9
$DIMCLRE
 70
     0
  9
$DIMCLRT
 70
     0
  9
$DIMTFAC
 40
1.0
  9
$DIMGAP
 40
0.09
  9
$LUNITS
 70
     2
  9
$LUPREC
 70
     4
  9
$SKETCHINC
 40
0.1
  9
$FILLETRAD
 40
0.5
  9
$AUNITS
 70
     0
  9
$AUPREC
 70
     0
  9
$MENU
  1
.
  9
$ELEVATION
 40
0.0
  9
$PELEVATION
 40
0.0
  9
$THICKNESS
 40
0.0
  9
$LIMCHECK
 70
     0
  9
$BLIPMODE
 70
     0
  9
$CHAMFERA
 40
0.5
  9
$CHAMFERB
 40
0.5
  9
$SKPOLY
 70
     0
  9
$TDCREATE
 40
2455013.087628576
  9
$TDUPDATE
 40
2456448.9083913658
  9
$TDINDWG
 40
0.4456712731
  9
$TDUSRTIMER
 40
0.4456710995
  9
$USRTIMER
 70
     1
  9
$ANGBASE
 50
0.0
  9
$ANGDIR
 70
     1
  9
$PDMODE
 70
    66
  9
$PDSIZE
 40
0.0
  9
$PLINEWID
 40
0.0
  9
$COORDS
 70
     1
  9
$SPLFRAME
 70
     0
  9
$SPLINETYPE
 70
     6
  9
$SPLINESEGS
 70
     8
  9
$ATTDIA
 70
     0
  9
$ATTREQ
 70
     1
  9
$HANDLING
 70
     1
  9
$HANDSEED
  5
6B2
  9
$SURFTAB1
 70
     6
  9
$SURFTAB2
 70
     6
  9
$SURFTYPE
 70
     6
  9
$SURFU
 70
     6
  9
$SURFV
 70
     6
  9
$UCSNAME
  2

  9
$UCSORG
 10
0.0
 20
0.0
 30
0.0
  9
$UCSXDIR
 10
1.0
 20
0.0
 30
0.0
  9
$UCSYDIR
 10
0.0
 20
1.0
 30
0.0
  9
$PUCSNAME
  2

  9
$PUCSORG
 10
0.0
 20
0.0
 30
0.0
  9
$PUCSXDIR
 10
1.0
 20
0.0
 30
0.0
  9
$PUCSYDIR
 10
0.0
 20
1.0
 30
0.0
  9
$USERI1
 70
     0
  9
$USERI2
 70
     0
  9
$USERI3
 70
     0
  9
$USERI4
 70
     0
  9
$USERI5
 70
     0
  9
$USERR1
 40
0.0
  9
$USERR2
 40
0.0
  9
$USERR3
 40
0.0
  9
$USERR4
 40
0.0
  9
$USERR5
 40
0.0
  9
$WORLDVIEW
 70
     1
  9
$SHADEDGE
 70
     3
  9
$SHADEDIF
 70
    70
  9
$TILEMODE
 70
     1
  9
$MAXACTVP
 70
    64
  9
$PLIMCHECK
 70
     0
  9
$PEXTMIN
 10
0.0
 20
0.0
 30
0.0
  9
$PEXTMAX
 10
0.0
 20
0.0
 30
0.0
  9
$PLIMMIN
 10
0.0
 20
0.0
  9
$PLIMMAX
 10
12.0
 20
9.0
  9
$UNITMODE
 70
     0
  9
$VISRETAIN
 70
     1
  9
$PLINEGEN
 70
     0
  9
$PSLTSCALE
 70
     1
  0
ENDSEC
  0
SECTION
  2
TABLES
  0
TABLE
  2
VPORT
 70
     1
  0
VPORT
  2
*ACTIVE
 70
     0
 10
0.0
 20
0.0
 11
1.0
 21
1.0
 12
734161.76875820197
 22
4561055.1548809102
 13
0.0
 23
0.0
 14
0.5
 24
0.5
 15
0.5
 25
0.5
 16
0.0
 26
0.0
 36
1.0
 17
0.0
 27
0.0
 37
0.0
 40
35946.442818830357
 41
1.4411764705882351
 42
50.0
 43
0.0
 44
0.0
 50
0.0
 51
0.0
 71
     0
 72
   100
 73
     1
 74
     2
 75
     0
 76
     0
 77
     0
 78
     1
  0
ENDTAB
  0
TABLE
  2
LTYPE
 70
     1
  0
LTYPE
  2
CONTINUOUS
 70
     0
  3
Solid line
 72
    65
 73
     0
 40
0.0
  0
ENDTAB
  0
TABLE
  2
LAYER
 70
     2
  0
LAYER
  2
0
 70
     0
 62
     7
  6
CONTINUOUS
  0
LAYER
  2
CLUSTERS
 70
     0
 62
     6
  6
CONTINUOUS
  0
ENDTAB
  0
TABLE
  2
STYLE
 70
     1
  0
STYLE
  2
STANDARD
 70
     0
 40
0.0
 41
1.0
 50
0.0
 71
     0
 42
0.2
  3
txt
  4

  0
ENDTAB
  0
TABLE
  2
VIEW
 70
     0
  0
ENDTAB
  0
TABLE
  2
UCS
 70
     0
  0
ENDTAB
  0
TABLE
  2
APPID
 70
     1
  0
APPID
  2
ACAD
 70
     0
  0
ENDTAB
  0
TABLE
  2
DIMSTYLE
 70
     1
  0
DIMSTYLE
  2
STANDARD
 70
     0
  3

  4

  5

  6

  7

 40
1.0
 41
0.18
 42
0.0625
 43
0.38
 44
0.18
 45
0.0
 46
0.0
 47
0.0
 48
0.0
140
0.18
141
0.09
142
0.0
143
25.399999999999999
144
1.0
145
0.0
146
1.0
147
0.09
 71
     0
 72
     0
 73
     1
 74
     1
 75
     0
 76
     0
 77
     0
 78
     0
170
     0
171
     2
172
     0
173
     0
174
     0
175
     0
176
     0
177
     0
178
     0
  0
ENDTAB
  0
ENDSEC
  0
SECTION
  2
BLOCKS
  0
BLOCK
  8
0
  2
$MODEL_SPACE
 70
     0
 10
0.0
 20
0.0
 30
0.0
  3
$MODEL_SPACE
  1

  0
ENDBLK
  5
14
  8
0
  0
BLOCK
 67
     1
  8
0
  2
$PAPER_SPACE
 70
     0
 10
0.0
 20
0.0
 30
0.0
  3
$PAPER_SPACE
  1

  0
ENDBLK
  5
19
 67
     1
  8
0
  0
ENDSEC
  0
SECTION
  2
ENTITIES
  0
POLYLINE
  5
69
  8
CLUSTERS
 66
     1
 10
0.0
 20
0.0
 30
0.0
 70
   129
  0
VERTEX
  5
10E
  8
CLUSTERS
 10
726897.90408197755
 20
4550143.5678657256
 30
0.0
  0
VERTEX
  5
10F
  8
CLUSTERS
 10
726945.98687997751
 20
4550208.0779857254
 30
0.0
  0
VERTEX
  5
110
  8
CLUSTERS
 10
727046.51597997756
 20
4550157.436235724
 30
0.0
  0
VERTEX
  5
111
  8
CLUSTERS
 10
727055.24561897758
 20
4550143.5678657256
 30
0.0
  0
VERTEX
  5
112
  8
CLUSTERS
 10
727046.51597997756
 20
4550134.7890757229
 30
0.0
  0
VERTEX
  5
113
  8
CLUSTERS
 10
726945.98687997751
 20
4550095.3794857236
 30
0.0
  0
VERTEX
  5
114
  8
CLUSTERS
 10
726897.90408197755
 20
4550143.5678657256
 30
0.0
  0
SEQEND
  5
115
  8
CLUSTERS
  0
POLYLINE
  5
6B
  8
CLUSTERS
 66
     1
 10
0.0
 20
0.0
 30
0.0
 70
   129
  0
VERTEX
  5
116
  8
CLUSTERS
 10
726939.75151700003
 20
4550315.9851299999
 30
0.0
  0
VERTEX
  5
117
  8
CLUSTERS
 10
726904.76190499985
 20
4550393.8024299992
 30
0.0
  0
VERTEX
  5
118
  8
CLUSTERS
 10
726804.23280400003
 20
4550365.2180299982
 30
0.0
  0
VERTEX
  5
119
  8
CLUSTERS
 10
726753.32380299969
 20
4550416.3568800008
 30
0.0
  0
VERTEX
  5
11A
  8
CLUSTERS
 10
726729.668771
 20
4550516.7286200002
 30
0.0
  0
VERTEX
  5
11B
  8
CLUSTERS
 10
726804.23280400003
 20
4550608.5533699999
 30
0.0
  0
VERTEX
  5
11C
  8
CLUSTERS
 10
726904.76190499985
 20
4550592.3385600001
 30
0.0
  0
VERTEX
  5
11D
  8
CLUSTERS
 10
726963.44290299993
 20
4550516.7286200002
 30
0.0
  0
VERTEX
  5
11E
  8
CLUSTERS
 10
726948.90592299984
 20
4550416.3568800008
 30
0.0
  0
VERTEX
  5
11F
  8
CLUSTERS
 10
727005.29100500012
 20
4550399.7927700002
 30
0.0
  0
VERTEX
  5
120
  8
CLUSTERS
 10
727105.82010600006
 20
4550359.7866399987
 30
0.0
  0
VERTEX
  5
121
  8
CLUSTERS
 10
727136.33763299999
 20
4550315.9851299999
 30
0.0
  0
VERTEX
  5
122
  8
CLUSTERS
 10
727105.82010600006
 20
4550284.5820099991
 30
0.0
  0
VERTEX
  5
123
  8
CLUSTERS
 10
727005.29100500012
 20
4550241.6038600001
 30
0.0
  0
VERTEX
  5
124
  8
CLUSTERS
 10
726939.75151700003
 20
4550315.9851299999
 30
0.0
  0
SEQEND
  5
125
  8
CLUSTERS
  0
POLYLINE
  5
6C
  8
CLUSTERS
 66
     1
 10
0.0
 20
0.0
 30
0.0
 70
   129
  0
VERTEX
  5
126
  8
CLUSTERS
 10
728622.56992100005
 20
4550516.7286200002
 30
0.0
  0
VERTEX
  5
127
  8
CLUSTERS
 10
728613.75661399995
 20
4550540.7739099991
 30
0.0
  0
VERTEX
  5
128
  8
CLUSTERS
 10
728554.11480500002
 20
4550617.1003700001
 30
0.0
  0
VERTEX
  5
129
  8
CLUSTERS
 10
728619.32647987804
 20
4550690.7570378296
 30
0.0
  0
VERTEX
  5
12A
  8
CLUSTERS
 10
728754.96873157262
 20
4550663.6441075886
 30
0.0
  0
VERTEX
  5
12B
  8
CLUSTERS
 10
728756.13385700004
 20
4550617.1003700001
 30
0.0
  0
VERTEX
  5
12C
  8
CLUSTERS
 10
728814.81481500005
 20
4550529.3088400001
 30
0.0
  0
VERTEX
  5
12D
  8
CLUSTERS
 10
728822.86877100007
 20
4550516.7286200002
 30
0.0
  0
VERTEX
  5
12E
  8
CLUSTERS
 10
728814.81481500005
 20
4550508.4749299996
 30
0.0
  0
VERTEX
  5
12F
  8
CLUSTERS
 10
728714.285714
 20
4550433.03632
 30
0.0
  0
VERTEX
  5
130
  8
CLUSTERS
 10
728622.56992100005
 20
4550516.7286200002
 30
0.0
  0
SEQEND
  5
131
  8
CLUSTERS
  0
POLYLINE
  5
6D
  8
CLUSTERS
 66
     1
 10
0.0
 20
0.0
 30
0.0
 70
   129
  0
VERTEX
  5
132
  8
CLUSTERS
 10
728619.32647987804
 20
4550826.3219421981
 30
0.0
  0
VERTEX
  5
133
  8
CLUSTERS
 10
728613.75661399995
 20
4550889.2091800002
 30
0.0
  0
VERTEX
  5
134
  8
CLUSTERS
 10
728690.84689359681
 20
4550878.0830886541
 30
0.0
  0
VERTEX
  5
135
  8
CLUSTERS
 10
728743.23355400003
 20
4550918.2156099984
 30
0.0
  0
VERTEX
  5
136
  8
CLUSTERS
 10
728851.15136130585
 20
4551016.1127703367
 30
0.0
  0
VERTEX
  5
137
  8
CLUSTERS
 10
728952.26633245766
 20
4550929.8442351092
 30
0.0
  0
VERTEX
  5
138
  8
CLUSTERS
 10
728814.81481500005
 20
4550850.132269999
 30
0.0
  0
VERTEX
  5
139
  8
CLUSTERS
 10
728732.30911500007
 20
4550817.8438699991
 30
0.0
  0
VERTEX
  5
13A
  8
CLUSTERS
 10
728714.285714
 20
4550798.7699100003
 30
0.0
  0
VERTEX
  5
13B
  8
CLUSTERS
 10
728641.52246156801
 20
4550786.8848722056
 30
0.0
  0
VERTEX
  5
13C
  8
CLUSTERS
 10
728619.32647987804
 20
4550826.3219421981
 30
0.0
  0
SEQEND
  5
13D
  8
CLUSTERS
  0
POLYLINE
  5
6E
  8
CLUSTERS
 66
     1
 10
0.0
 20
0.0
 30
0.0
 70
   129
  0
VERTEX
  5
13E
  8
CLUSTERS
 10
732044.66933099995
 20
4550817.8438699991
 30
0.0
  0
VERTEX
  5
13F
  8
CLUSTERS
 10
732098.83373701142
 20
4550934.1318830699
 30
0.0
  0
VERTEX
  5
140
  8
CLUSTERS
 10
732221.70751399989
 20
4550817.8438699991
 30
0.0
  0
VERTEX
  5
141
  8
CLUSTERS
 10
732132.27513199998
 20
4550730.5863999994
 30
0.0
  0
VERTEX
  5
142
  8
CLUSTERS
 10
732044.66933099995
 20
4550817.8438699991
 30
0.0
  0
SEQEND
  5
143
  8
CLUSTERS
  0
POLYLINE
  5
6F
  8
CLUSTERS
 66
     1
 10
0.0
 20
0.0
 30
0.0
 70
   129
  0
VERTEX
  5
144
  8
CLUSTERS
 10
729574.97253600007
 20
4551721.1895899996
 30
0.0
  0
VERTEX
  5
145
  8
CLUSTERS
 10
729518.51851899992
 20
4551726.0832600016
 30
0.0
  0
VERTEX
  5
146
  8
CLUSTERS
 10
729423.02669299999
 20
4551821.5613399977
 30
0.0
  0
VERTEX
  5
147
  8
CLUSTERS
 10
729438.64818300016
 20
4551921.9330899986
 30
0.0
  0
VERTEX
  5
148
  8
CLUSTERS
 10
729518.51851899992
 20
4552005.1848400002
 30
0.0
  0
VERTEX
  5
149
  8
CLUSTERS
 10
729619.04761899996
 20
4551924.2110300008
 30
0.0
  0
VERTEX
  5
14A
  8
CLUSTERS
 10
729621.78275699995
 20
4551921.9330899986
 30
0.0
  0
VERTEX
  5
14B
  8
CLUSTERS
 10
729719.57671999978
 20
4551893.5007800013
 30
0.0
  0
VERTEX
  5
14C
  8
CLUSTERS
 10
729791.59845100017
 20
4551821.5613399977
 30
0.0
  0
VERTEX
  5
14D
  8
CLUSTERS
 10
729799.3125179999
 20
4551721.1895899996
 30
0.0
  0
VERTEX
  5
14E
  8
CLUSTERS
 10
729719.57671999978
 20
4551647.9000700004
 30
0.0
  0
VERTEX
  5
14F
  8
CLUSTERS
 10
729619.04761899996
 20
4551681.6769200005
 30
0.0
  0
VERTEX
  5
150
  8
CLUSTERS
 10
729574.97253600007
 20
4551721.1895899996
 30
0.0
  0
SEQEND
  5
151
  8
CLUSTERS
  0
POLYLINE
  5
70
  8
CLUSTERS
 66
     1
 10
0.0
 20
0.0
 30
0.0
 70
   129
  0
VERTEX
  5
152
  8
CLUSTERS
 10
729423.46061999991
 20
4552323.42007
 30
0.0
  0
VERTEX
  5
153
  8
CLUSTERS
 10
729417.9894180001
 20
4552325.1942799985
 30
0.0
  0
VERTEX
  5
154
  8
CLUSTERS
 10
729319.839393
 20
4552423.791819999
 30
0.0
  0
VERTEX
  5
155
  8
CLUSTERS
 10
729317.46031699982
 20
4552472.8091500001
 30
0.0
  0
VERTEX
  5
156
  8
CLUSTERS
 10
729277.22727000003
 20
4552524.1635700017
 30
0.0
  0
VERTEX
  5
157
  8
CLUSTERS
 10
729217.48908199987
 20
4552624.5353199989
 30
0.0
  0
VERTEX
  5
158
  8
CLUSTERS
 10
729216.931217
 20
4552629.5895699989
 30
0.0
  0
VERTEX
  5
159
  8
CLUSTERS
 10
729130.64988199994
 20
4552724.9070599992
 30
0.0
  0
VERTEX
  5
15A
  8
CLUSTERS
 10
729216.931217
 20
4552817.1847000001
 30
0.0
  0
VERTEX
  5
15B
  8
CLUSTERS
 10
729317.46031699982
 20
4552823.0149499988
 30
0.0
  0
VERTEX
  5
15C
  8
CLUSTERS
 10
729342.23863699986
 20
4552825.27881
 30
0.0
  0
VERTEX
  5
15D
  8
CLUSTERS
 10
729417.9894180001
 20
4552867.8714699997
 30
0.0
  0
VERTEX
  5
15E
  8
CLUSTERS
 10
729518.51851899992
 20
4552920.612019999
 30
0.0
  0
VERTEX
  5
15F
  8
CLUSTERS
 10
729619.04761899996
 20
4552914.9635699987
 30
0.0
  0
VERTEX
  5
160
  8
CLUSTERS
 10
729719.57671999978
 20
4552907.6656999998
 30
0.0
  0
VERTEX
  5
161
  8
CLUSTERS
 10
729819.13984399999
 20
4552825.27881
 30
0.0
  0
VERTEX
  5
162
  8
CLUSTERS
 10
729820.10582000006
 20
4552824.0389499981
 30
0.0
  0
VERTEX
  5
163
  8
CLUSTERS
 10
729895.1546880001
 20
4552724.9070599992
 30
0.0
  0
VERTEX
  5
164
  8
CLUSTERS
 10
729891.97222899995
 20
4552624.5353199989
 30
0.0
  0
VERTEX
  5
165
  8
CLUSTERS
 10
729879.49623099994
 20
4552524.1635700017
 30
0.0
  0
VERTEX
  5
166
  8
CLUSTERS
 10
729820.10582000006
 20
4552453.2999699991
 30
0.0
  0
VERTEX
  5
167
  8
CLUSTERS
 10
729809.78272000002
 20
4552423.791819999
 30
0.0
  0
VERTEX
  5
168
  8
CLUSTERS
 10
729797.66390399996
 20
4552323.42007
 30
0.0
  0
VERTEX
  5
169
  8
CLUSTERS
 10
729719.57671999978
 20
4552243.5203799987
 30
0.0
  0
VERTEX
  5
16A
  8
CLUSTERS
 10
729619.04761899996
 20
4552224.2872899976
 30
0.0
  0
VERTEX
  5
16B
  8
CLUSTERS
 10
729518.51851899992
 20
4552233.8552499991
 30
0.0
  0
VERTEX
  5
16C
  8
CLUSTERS
 10
729423.46061999991
 20
4552323.42007
 30
0.0
  0
SEQEND
  5
16D
  8
CLUSTERS
  0
POLYLINE
  5
71
  8
CLUSTERS
 66
     1
 10
0.0
 20
0.0
 30
0.0
 70
   129
  0
VERTEX
  5
16E
  8
CLUSTERS
 10
730059.6107980964
 20
4552464.7963484582
 30
0.0
  0
VERTEX
  5
16F
  8
CLUSTERS
 10
730144.72472609638
 20
4552553.6461684583
 30
0.0
  0
VERTEX
  5
170
  8
CLUSTERS
 10
730234.15230009647
 20
4552464.7963484582
 30
0.0
  0
VERTEX
  5
171
  8
CLUSTERS
 10
730144.72472609638
 20
4552380.2272984581
 30
0.0
  0
VERTEX
  5
172
  8
CLUSTERS
 10
730059.6107980964
 20
4552464.7963484582
 30
0.0
  0
SEQEND
  5
173
  8
CLUSTERS
  0
POLYLINE
  5
72
  8
CLUSTERS
 66
     1
 10
0.0
 20
0.0
 30
0.0
 70
   129
  0
VERTEX
  5
174
  8
CLUSTERS
 10
728274.56844886171
 20
4553096.8208175479
 30
0.0
  0
VERTEX
  5
175
  8
CLUSTERS
 10
728351.01293386146
 20
4553178.5055475449
 30
0.0
  0
VERTEX
  5
176
  8
CLUSTERS
 10
728444.82738286164
 20
4553096.8208175479
 30
0.0
  0
VERTEX
  5
177
  8
CLUSTERS
 10
728351.01293386146
 20
4553020.2033775449
 30
0.0
  0
VERTEX
  5
178
  8
CLUSTERS
 10
728274.56844886171
 20
4553096.8208175479
 30
0.0
  0
SEQEND
  5
179
  8
CLUSTERS
  0
POLYLINE
  5
73
  8
CLUSTERS
 66
     1
 10
0.0
 20
0.0
 30
0.0
 70
   129
  0
VERTEX
  5
17A
  8
CLUSTERS
 10
729987.59335100011
 20
4553026.0222999994
 30
0.0
  0
VERTEX
  5
17B
  8
CLUSTERS
 10
730021.16402100015
 20
4553060.3232100001
 30
0.0
  0
VERTEX
  5
17C
  8
CLUSTERS
 10
730056.04125300015
 20
4553026.0222999994
 30
0.0
  0
VERTEX
  5
17D
  8
CLUSTERS
 10
730021.16402100015
 20
4552992.5441499986
 30
0.0
  0
VERTEX
  5
17E
  8
CLUSTERS
 10
729987.59335100011
 20
4553026.0222999994
 30
0.0
  0
SEQEND
  5
17F
  8
CLUSTERS
  0
POLYLINE
  5
74
  8
CLUSTERS
 66
     1
 10
0.0
 20
0.0
 30
0.0
 70
   129
  0
VERTEX
  5
180
  8
CLUSTERS
 10
728475.60905300011
 20
4553226.7658000002
 30
0.0
  0
VERTEX
  5
181
  8
CLUSTERS
 10
728512.90918126679
 20
4553294.5665807007
 30
0.0
  0
VERTEX
  5
182
  8
CLUSTERS
 10
728557.50203400012
 20
4553226.7658000002
 30
0.0
  0
VERTEX
  5
183
  8
CLUSTERS
 10
728513.2275129999
 20
4553189.0152599998
 30
0.0
  0
VERTEX
  5
184
  8
CLUSTERS
 10
728475.60905300011
 20
4553226.7658000002
 30
0.0
  0
SEQEND
  5
185
  8
CLUSTERS
  0
POLYLINE
  5
75
  8
CLUSTERS
 66
     1
 10
0.0
 20
0.0
 30
0.0
 70
   129
  0
VERTEX
  5
186
  8
CLUSTERS
 10
729223.21075699979
 20
4553226.7658000002
 30
0.0
  0
VERTEX
  5
187
  8
CLUSTERS
 10
729216.931217
 20
4553278.8725199988
 30
0.0
  0
VERTEX
  5
188
  8
CLUSTERS
 10
729171.59518299985
 20
4553327.1375500001
 30
0.0
  0
VERTEX
  5
189
  8
CLUSTERS
 10
729216.931217
 20
4553374.4691600008
 30
0.0
  0
VERTEX
  5
18A
  8
CLUSTERS
 10
729305.06218600005
 20
4553327.1375500001
 30
0.0
  0
VERTEX
  5
18B
  8
CLUSTERS
 10
729317.46031699982
 20
4553326.2736299997
 30
0.0
  0
VERTEX
  5
18C
  8
CLUSTERS
 10
729417.9894180001
 20
4553257.9770399993
 30
0.0
  0
VERTEX
  5
18D
  8
CLUSTERS
 10
729442.82698100014
 20
4553226.7658000002
 30
0.0
  0
VERTEX
  5
18E
  8
CLUSTERS
 10
729417.9894180001
 20
4553200.52458
 30
0.0
  0
VERTEX
  5
18F
  8
CLUSTERS
 10
729317.46031699982
 20
4553132.4725599997
 30
0.0
  0
VERTEX
  5
190
  8
CLUSTERS
 10
729223.21075699979
 20
4553226.7658000002
 30
0.0
  0
SEQEND
  5
191
  8
CLUSTERS
  0
POLYLINE
  5
76
  8
CLUSTERS
 66
     1
 10
0.0
 20
0.0
 30
0.0
 70
   129
  0
VERTEX
  5
192
  8
CLUSTERS
 10
728762.97858920274
 20
4553783.4042483307
 30
0.0
  0
VERTEX
  5
193
  8
CLUSTERS
 10
728819.10418320261
 20
4553841.9360383321
 30
0.0
  0
VERTEX
  5
194
  8
CLUSTERS
 10
728882.65043120272
 20
4553783.4042483307
 30
0.0
  0
VERTEX
  5
195
  8
CLUSTERS
 10
728819.10418320261
 20
4553727.2162983334
 30
0.0
  0
VERTEX
  5
196
  8
CLUSTERS
 10
728762.97858920274
 20
4553783.4042483307
 30
0.0
  0
SEQEND
  5
197
  8
CLUSTERS
  0
POLYLINE
  5
77
  8
CLUSTERS
 66
     1
 10
0.0
 20
0.0
 30
0.0
 70
   129
  0
VERTEX
  5
198
  8
CLUSTERS
 10
728245.86102899991
 20
4554029.7397800013
 30
0.0
  0
VERTEX
  5
199
  8
CLUSTERS
 10
728211.640212
 20
4554058.5594499987
 30
0.0
  0
VERTEX
  5
19A
  8
CLUSTERS
 10
728141.3195959999
 20
4554130.1115200007
 30
0.0
  0
VERTEX
  5
19B
  8
CLUSTERS
 10
728211.640212
 20
4554204.593489999
 30
0.0
  0
VERTEX
  5
19C
  8
CLUSTERS
 10
728291.18181433179
 20
4554233.7330054212
 30
0.0
  0
VERTEX
  5
19D
  8
CLUSTERS
 10
728346.74285799987
 20
4554230.4832699997
 30
0.0
  0
VERTEX
  5
19E
  8
CLUSTERS
 10
728412.69841300021
 20
4554280.6203299994
 30
0.0
  0
VERTEX
  5
19F
  8
CLUSTERS
 10
728509.55143699993
 20
4554230.4832699997
 30
0.0
  0
VERTEX
  5
1A0
  8
CLUSTERS
 10
728513.2275129999
 20
4554229.7337299976
 30
0.0
  0
VERTEX
  5
1A1
  8
CLUSTERS
 10
728597.68261000002
 20
4554130.1115200007
 30
0.0
  0
VERTEX
  5
1A2
  8
CLUSTERS
 10
728513.2275129999
 20
4554041.7725200001
 30
0.0
  0
VERTEX
  5
1A3
  8
CLUSTERS
 10
728442.28926300013
 20
4554029.7397800013
 30
0.0
  0
VERTEX
  5
1A4
  8
CLUSTERS
 10
728412.69841300021
 20
4554007.8947200002
 30
0.0
  0
VERTEX
  5
1A5
  8
CLUSTERS
 10
728312.16931199993
 20
4553964.3818300003
 30
0.0
  0
VERTEX
  5
1A6
  8
CLUSTERS
 10
728245.86102899991
 20
4554029.7397800013
 30
0.0
  0
SEQEND
  5
1A7
  8
CLUSTERS
  0
POLYLINE
  5
78
  8
CLUSTERS
 66
     1
 10
0.0
 20
0.0
 30
0.0
 70
   129
  0
VERTEX
  5
1A8
  8
CLUSTERS
 10
732952.81548899994
 20
4554330.8550199987
 30
0.0
  0
VERTEX
  5
1A9
  8
CLUSTERS
 10
732936.50793699978
 20
4554379.6037299996
 30
0.0
  0
VERTEX
  5
1AA
  8
CLUSTERS
 10
732885.66933699988
 20
4554431.2267699987
 30
0.0
  0
VERTEX
  5
1AB
  8
CLUSTERS
 10
732841.00944099994
 20
4554531.5985099981
 30
0.0
  0
VERTEX
  5
1AC
  8
CLUSTERS
 10
732835.97883600008
 20
4554569.1189599987
 30
0.0
  0
VERTEX
  5
1AD
  8
CLUSTERS
 10
732774.0901749999
 20
4554631.9702599999
 30
0.0
  0
VERTEX
  5
1AE
  8
CLUSTERS
 10
732835.97883600008
 20
4554694.5979700014
 30
0.0
  0
VERTEX
  5
1AF
  8
CLUSTERS
 10
732936.50793699978
 20
4554713.8418299994
 30
0.0
  0
VERTEX
  5
1B0
  8
CLUSTERS
 10
733037.03703700006
 20
4554634.0825399989
 30
0.0
  0
VERTEX
  5
1B1
  8
CLUSTERS
 10
733040.45521199994
 20
4554732.3420099998
 30
0.0
  0
VERTEX
  5
1B2
  8
CLUSTERS
 10
733137.56613799999
 20
4554829.5446599983
 30
0.0
  0
VERTEX
  5
1B3
  8
CLUSTERS
 10
733238.09523800015
 20
4554827.0692699989
 30
0.0
  0
VERTEX
  5
1B4
  8
CLUSTERS
 10
733241.24611199996
 20
4554832.7137500001
 30
0.0
  0
VERTEX
  5
1B5
  8
CLUSTERS
 10
733238.09523800015
 20
4554862.0709899999
 30
0.0
  0
VERTEX
  5
1B6
  8
CLUSTERS
 10
733137.56613799999
 20
4554841.1556000011
 30
0.0
  0
VERTEX
  5
1B7
  8
CLUSTERS
 10
733046.27065299987
 20
4554933.0855
 30
0.0
  0
VERTEX
  5
1B8
  8
CLUSTERS
 10
733037.03703700006
 20
4554942.58299
 30
0.0
  0
VERTEX
  5
1B9
  8
CLUSTERS
 10
732977.97527911945
 20
4555039.0301796552
 30
0.0
  0
VERTEX
  5
1BA
  8
CLUSTERS
 10
732936.90486600017
 20
4555133.828999999
 30
0.0
  0
VERTEX
  5
1BB
  8
CLUSTERS
 10
733037.03703700006
 20
4555233.8127899999
 30
0.0
  0
VERTEX
  5
1BC
  8
CLUSTERS
 10
733037.51334399998
 20
4555234.2007400012
 30
0.0
  0
VERTEX
  5
1BD
  8
CLUSTERS
 10
733043.96674800001
 20
4555334.5724899992
 30
0.0
  0
VERTEX
  5
1BE
  8
CLUSTERS
 10
733137.56613799999
 20
4555427.7983100014
 30
0.0
  0
VERTEX
  5
1BF
  8
CLUSTERS
 10
733238.09523800015
 20
4555430.5569199994
 30
0.0
  0
VERTEX
  5
1C0
  8
CLUSTERS
 10
733241.40468300018
 20
4555434.9442399992
 30
0.0
  0
VERTEX
  5
1C1
  8
CLUSTERS
 10
733238.09523800015
 20
4555449.3256799988
 30
0.0
  0
VERTEX
  5
1C2
  8
CLUSTERS
 10
733153.234726
 20
4555535.3159899991
 30
0.0
  0
VERTEX
  5
1C3
  8
CLUSTERS
 10
733142.76887199981
 20
4555635.6877300004
 30
0.0
  0
VERTEX
  5
1C4
  8
CLUSTERS
 10
733238.09523800015
 20
4555730.9731100006
 30
0.0
  0
VERTEX
  5
1C5
  8
CLUSTERS
 10
733338.62433899986
 20
4555728.5145500014
 30
0.0
  0
VERTEX
  5
1C6
  8
CLUSTERS
 10
733431.61978499987
 20
4555635.6877300004
 30
0.0
  0
VERTEX
  5
1C7
  8
CLUSTERS
 10
733439.1534389999
 20
4555580.1573199993
 30
0.0
  0
VERTEX
  5
1C8
  8
CLUSTERS
 10
733483.47164999985
 20
4555535.3159899991
 30
0.0
  0
VERTEX
  5
1C9
  8
CLUSTERS
 10
733476.15194082668
 20
4555445.7248294661
 30
0.0
  0
VERTEX
  5
1CA
  8
CLUSTERS
 10
733439.1534389999
 20
4555348.240869998
 30
0.0
  0
VERTEX
  5
1CB
  8
CLUSTERS
 10
733338.62433899986
 20
4555337.6728499997
 30
0.0
  0
VERTEX
  5
1CC
  8
CLUSTERS
 10
733334.49846399995
 20
4555334.5724899992
 30
0.0
  0
VERTEX
  5
1CD
  8
CLUSTERS
 10
733338.62433899986
 20
4555328.5202599987
 30
0.0
  0
VERTEX
  5
1CE
  8
CLUSTERS
 10
733439.1534389999
 20
4555332.3223799989
 30
0.0
  0
VERTEX
  5
1CF
  8
CLUSTERS
 10
733537.46943899954
 20
4555234.2007400012
 30
0.0
  0
VERTEX
  5
1D0
  8
CLUSTERS
 10
733539.68253999983
 20
4555182.1484099999
 30
0.0
  0
VERTEX
  5
1D1
  8
CLUSTERS
 10
733632.69070199993
 20
4555133.828999999
 30
0.0
  0
VERTEX
  5
1D2
  8
CLUSTERS
 10
733640.21163999988
 20
4555133.8085299991
 30
0.0
  0
VERTEX
  5
1D3
  8
CLUSTERS
 10
733740.7407409997
 20
4555133.30131
 30
0.0
  0
VERTEX
  5
1D4
  8
CLUSTERS
 10
733840.55881199986
 20
4555033.45725
 30
0.0
  0
VERTEX
  5
1D5
  8
CLUSTERS
 10
733840.15201699978
 20
4554933.0855
 30
0.0
  0
VERTEX
  5
1D6
  8
CLUSTERS
 10
733740.7407409997
 20
4554833.6656499999
 30
0.0
  0
VERTEX
  5
1D7
  8
CLUSTERS
 10
733640.21163999988
 20
4554832.7425899999
 30
0.0
  0
VERTEX
  5
1D8
  8
CLUSTERS
 10
733539.68253999983
 20
4554841.1872699996
 30
0.0
  0
VERTEX
  5
1D9
  8
CLUSTERS
 10
733537.16356300015
 20
4554832.7137500001
 30
0.0
  0
VERTEX
  5
1DA
  8
CLUSTERS
 10
733537.42996199976
 20
4554732.3420099998
 30
0.0
  0
VERTEX
  5
1DB
  8
CLUSTERS
 10
733538.73284099996
 20
4554631.9702599999
 30
0.0
  0
VERTEX
  5
1DC
  8
CLUSTERS
 10
733539.68253999983
 20
4554620.6677299999
 30
0.0
  0
VERTEX
  5
1DD
  8
CLUSTERS
 10
733640.21163999988
 20
4554625.9382999996
 30
0.0
  0
VERTEX
  5
1DE
  8
CLUSTERS
 10
733645.61399900005
 20
4554631.9702599999
 30
0.0
  0
VERTEX
  5
1DF
  8
CLUSTERS
 10
733649.45000199985
 20
4554732.3420099998
 30
0.0
  0
VERTEX
  5
1E0
  8
CLUSTERS
 10
733740.7407409997
 20
4554820.4428599998
 30
0.0
  0
VERTEX
  5
1E1
  8
CLUSTERS
 10
733824.03727099998
 20
4554732.3420099998
 30
0.0
  0
VERTEX
  5
1E2
  8
CLUSTERS
 10
733830.92922099994
 20
4554631.9702599999
 30
0.0
  0
VERTEX
  5
1E3
  8
CLUSTERS
 10
733819.00750499987
 20
4554531.5985099981
 30
0.0
  0
VERTEX
  5
1E4
  8
CLUSTERS
 10
733740.7407409997
 20
4554452.9588900004
 30
0.0
  0
VERTEX
  5
1E5
  8
CLUSTERS
 10
733732.6039580002
 20
4554431.2267699987
 30
0.0
  0
VERTEX
  5
1E6
  8
CLUSTERS
 10
733640.21163999988
 20
4554339.0784900002
 30
0.0
  0
VERTEX
  5
1E7
  8
CLUSTERS
 10
733539.68253999983
 20
4554341.1226599999
 30
0.0
  0
VERTEX
  5
1E8
  8
CLUSTERS
 10
733529.35380100005
 20
4554330.8550199987
 30
0.0
  0
VERTEX
  5
1E9
  8
CLUSTERS
 10
733439.1534389999
 20
4554241.1620100001
 30
0.0
  0
VERTEX
  5
1EA
  8
CLUSTERS
 10
733338.62433899986
 20
4554234.3792399978
 30
0.0
  0
VERTEX
  5
1EB
  8
CLUSTERS
 10
733238.09523800015
 20
4554230.7713500001
 30
0.0
  0
VERTEX
  5
1EC
  8
CLUSTERS
 10
733137.56613799999
 20
4554239.9667099994
 30
0.0
  0
VERTEX
  5
1ED
  8
CLUSTERS
 10
733037.03703700006
 20
4554246.8405799987
 30
0.0
  0
VERTEX
  5
1EE
  8
CLUSTERS
 10
732952.81548899994
 20
4554330.8550199987
 30
0.0
  0
SEQEND
  5
1EF
  8
CLUSTERS
  0
POLYLINE
  5
79
  8
CLUSTERS
 66
     1
 10
0.0
 20
0.0
 30
0.0
 70
   129
  0
VERTEX
  5
1F0
  8
CLUSTERS
 10
732734.84290768194
 20
4554956.5484400503
 30
0.0
  0
VERTEX
  5
1F1
  8
CLUSTERS
 10
732834.93445168214
 20
4555056.8232600493
 30
0.0
  0
VERTEX
  5
1F2
  8
CLUSTERS
 10
732935.25498468184
 20
4554956.5484400503
 30
0.0
  0
VERTEX
  5
1F3
  8
CLUSTERS
 10
732834.93445168214
 20
4554856.6338100489
 30
0.0
  0
VERTEX
  5
1F4
  8
CLUSTERS
 10
732734.84290768194
 20
4554956.5484400503
 30
0.0
  0
SEQEND
  5
1F5
  8
CLUSTERS
  0
POLYLINE
  5
7A
  8
CLUSTERS
 66
     1
 10
0.0
 20
0.0
 30
0.0
 70
   129
  0
VERTEX
  5
1F6
  8
CLUSTERS
 10
732636.40164399997
 20
4555133.828999999
 30
0.0
  0
VERTEX
  5
1F7
  8
CLUSTERS
 10
732634.92063499987
 20
4555205.79789
 30
0.0
  0
VERTEX
  5
1F8
  8
CLUSTERS
 10
732613.34683199995
 20
4555234.2007400012
 30
0.0
  0
VERTEX
  5
1F9
  8
CLUSTERS
 10
732634.92063499987
 20
4555268.0157699985
 30
0.0
  0
VERTEX
  5
1FA
  8
CLUSTERS
 10
732639.21272299998
 20
4555334.5724899992
 30
0.0
  0
VERTEX
  5
1FB
  8
CLUSTERS
 10
732649.19169600017
 20
4555434.9442399992
 30
0.0
  0
VERTEX
  5
1FC
  8
CLUSTERS
 10
732634.92063499987
 20
4555476.0760899996
 30
0.0
  0
VERTEX
  5
1FD
  8
CLUSTERS
 10
732577.88700899994
 20
4555535.3159899991
 30
0.0
  0
VERTEX
  5
1FE
  8
CLUSTERS
 10
732634.92063499987
 20
4555596.0335500007
 30
0.0
  0
VERTEX
  5
1FF
  8
CLUSTERS
 10
732735.44973499991
 20
4555615.3327700002
 30
0.0
  0
VERTEX
  5
200
  8
CLUSTERS
 10
732809.82898899994
 20
4555535.3159899991
 30
0.0
  0
VERTEX
  5
201
  8
CLUSTERS
 10
732822.09267100017
 20
4555434.9442399992
 30
0.0
  0
VERTEX
  5
202
  8
CLUSTERS
 10
732835.15070799994
 20
4555334.5724899992
 30
0.0
  0
VERTEX
  5
203
  8
CLUSTERS
 10
732835.97883600008
 20
4555330.9597300002
 30
0.0
  0
VERTEX
  5
204
  8
CLUSTERS
 10
732825.06951438414
 20
4555253.4692240087
 30
0.0
  0
VERTEX
  5
205
  8
CLUSTERS
 10
732822.60328005964
 20
4555216.496931334
 30
0.0
  0
VERTEX
  5
206
  8
CLUSTERS
 10
732790.54248830245
 20
4555159.8061669534
 30
0.0
  0
VERTEX
  5
207
  8
CLUSTERS
 10
732738.75182194868
 20
4555152.4117717091
 30
0.0
  0
VERTEX
  5
208
  8
CLUSTERS
 10
732636.40164399997
 20
4555133.828999999
 30
0.0
  0
SEQEND
  5
209
  8
CLUSTERS
  0
POLYLINE
  5
7B
  8
CLUSTERS
 66
     1
 10
0.0
 20
0.0
 30
0.0
 70
   129
  0
VERTEX
  5
20A
  8
CLUSTERS
 10
733568.01565100008
 20
4555334.5724899992
 30
0.0
  0
VERTEX
  5
20B
  8
CLUSTERS
 10
733582.19950785779
 20
4555428.4711350799
 30
0.0
  0
VERTEX
  5
20C
  8
CLUSTERS
 10
733640.21163999988
 20
4555505.0093400003
 30
0.0
  0
VERTEX
  5
20D
  8
CLUSTERS
 10
733710.62919600005
 20
4555434.9442399992
 30
0.0
  0
VERTEX
  5
20E
  8
CLUSTERS
 10
733740.7407409997
 20
4555372.72028
 30
0.0
  0
VERTEX
  5
20F
  8
CLUSTERS
 10
733841.15271239425
 20
4555401.3581415452
 30
0.0
  0
VERTEX
  5
210
  8
CLUSTERS
 10
733938.03213900002
 20
4555334.5724899992
 30
0.0
  0
VERTEX
  5
211
  8
CLUSTERS
 10
733841.26984099997
 20
4555237.9624399999
 30
0.0
  0
VERTEX
  5
212
  8
CLUSTERS
 10
733740.7407409997
 20
4555295.7053899998
 30
0.0
  0
VERTEX
  5
213
  8
CLUSTERS
 10
733640.21163999988
 20
4555261.975779999
 30
0.0
  0
VERTEX
  5
214
  8
CLUSTERS
 10
733568.01565100008
 20
4555334.5724899992
 30
0.0
  0
SEQEND
  5
215
  8
CLUSTERS
  0
POLYLINE
  5
7C
  8
CLUSTERS
 66
     1
 10
0.0
 20
0.0
 30
0.0
 70
   129
  0
VERTEX
  5
216
  8
CLUSTERS
 10
733747.18321399996
 20
4555535.3159899991
 30
0.0
  0
VERTEX
  5
217
  8
CLUSTERS
 10
733760.10430300015
 20
4555635.6877300004
 30
0.0
  0
VERTEX
  5
218
  8
CLUSTERS
 10
733823.88919935352
 20
4555672.487950285
 30
0.0
  0
VERTEX
  5
219
  8
CLUSTERS
 10
733865.81492840871
 20
4555630.5860396829
 30
0.0
  0
VERTEX
  5
21A
  8
CLUSTERS
 10
733897.87572016637
 20
4555551.7119629849
 30
0.0
  0
VERTEX
  5
21B
  8
CLUSTERS
 10
733855.94999111083
 20
4555527.0637467708
 30
0.0
  0
VERTEX
  5
21C
  8
CLUSTERS
 10
733747.18321399996
 20
4555535.3159899991
 30
0.0
  0
SEQEND
  5
21D
  8
CLUSTERS
  0
POLYLINE
  5
7D
  8
CLUSTERS
 66
     1
 10
0.0
 20
0.0
 30
0.0
 70
   129
  0
VERTEX
  5
21E
  8
CLUSTERS
 10
733999.22864899994
 20
4555535.3159899991
 30
0.0
  0
VERTEX
  5
21F
  8
CLUSTERS
 10
733944.61391699989
 20
4555635.6877300004
 30
0.0
  0
VERTEX
  5
220
  8
CLUSTERS
 10
733986.2361000001
 20
4555736.0594800003
 30
0.0
  0
VERTEX
  5
221
  8
CLUSTERS
 10
733942.30538600008
 20
4555836.4312300002
 30
0.0
  0
VERTEX
  5
222
  8
CLUSTERS
 10
733941.79894200014
 20
4555836.7546100002
 30
0.0
  0
VERTEX
  5
223
  8
CLUSTERS
 10
733934.37320299982
 20
4555836.4312300002
 30
0.0
  0
VERTEX
  5
224
  8
CLUSTERS
 10
733841.26984099997
 20
4555782.2959000003
 30
0.0
  0
VERTEX
  5
225
  8
CLUSTERS
 10
733787.315222
 20
4555836.4312300002
 30
0.0
  0
VERTEX
  5
226
  8
CLUSTERS
 10
733756.26429600001
 20
4555936.8029699987
 30
0.0
  0
VERTEX
  5
227
  8
CLUSTERS
 10
733841.26984099997
 20
4556021.8268999988
 30
0.0
  0
VERTEX
  5
228
  8
CLUSTERS
 10
733908.37161200005
 20
4556037.1747199995
 30
0.0
  0
VERTEX
  5
229
  8
CLUSTERS
 10
733941.79894200014
 20
4556070.4693300007
 30
0.0
  0
VERTEX
  5
22A
  8
CLUSTERS
 10
734042.32804200007
 20
4556131.4079900002
 30
0.0
  0
VERTEX
  5
22B
  8
CLUSTERS
 10
734142.857143
 20
4556136.8204899989
 30
0.0
  0
VERTEX
  5
22C
  8
CLUSTERS
 10
734145.78704100009
 20
4556137.5464700004
 30
0.0
  0
VERTEX
  5
22D
  8
CLUSTERS
 10
734243.38624300004
 20
4556234.6533899978
 30
0.0
  0
VERTEX
  5
22E
  8
CLUSTERS
 10
734343.9153440001
 20
4556235.9121300001
 30
0.0
  0
VERTEX
  5
22F
  8
CLUSTERS
 10
734442.45064100006
 20
4556137.5464700004
 30
0.0
  0
VERTEX
  5
230
  8
CLUSTERS
 10
734444.44444399991
 20
4556124.7260299986
 30
0.0
  0
VERTEX
  5
231
  8
CLUSTERS
 10
734531.81480499986
 20
4556037.1747199995
 30
0.0
  0
VERTEX
  5
232
  8
CLUSTERS
 10
734542.75345399987
 20
4555936.8029699987
 30
0.0
  0
VERTEX
  5
233
  8
CLUSTERS
 10
734444.44444399991
 20
4555838.6081400001
 30
0.0
  0
VERTEX
  5
234
  8
CLUSTERS
 10
734343.9153440001
 20
4555837.7074600002
 30
0.0
  0
VERTEX
  5
235
  8
CLUSTERS
 10
734343.46317999985
 20
4555836.4312300002
 30
0.0
  0
VERTEX
  5
236
  8
CLUSTERS
 10
734243.38624300004
 20
4555736.5535500003
 30
0.0
  0
VERTEX
  5
237
  8
CLUSTERS
 10
734174.64201499987
 20
4555736.0594800003
 30
0.0
  0
VERTEX
  5
238
  8
CLUSTERS
 10
734142.857143
 20
4555705.8237199998
 30
0.0
  0
VERTEX
  5
239
  8
CLUSTERS
 10
734140.08065900009
 20
4555635.6877300004
 30
0.0
  0
VERTEX
  5
23A
  8
CLUSTERS
 10
734085.084194
 20
4555535.3159899991
 30
0.0
  0
VERTEX
  5
23B
  8
CLUSTERS
 10
734042.32804200007
 20
4555492.8054800006
 30
0.0
  0
VERTEX
  5
23C
  8
CLUSTERS
 10
733999.22864899994
 20
4555535.3159899991
 30
0.0
  0
SEQEND
  5
23D
  8
CLUSTERS
  0
POLYLINE
  5
7E
  8
CLUSTERS
 66
     1
 10
0.0
 20
0.0
 30
0.0
 70
   129
  0
VERTEX
  5
23E
  8
CLUSTERS
 10
734445.54431899998
 20
4555535.3159899991
 30
0.0
  0
VERTEX
  5
23F
  8
CLUSTERS
 10
734444.6218239998
 20
4555635.6877300004
 30
0.0
  0
VERTEX
  5
240
  8
CLUSTERS
 10
734455.66583000007
 20
4555736.0594800003
 30
0.0
  0
VERTEX
  5
241
  8
CLUSTERS
 10
734544.97354499996
 20
4555824.7779899985
 30
0.0
  0
VERTEX
  5
242
  8
CLUSTERS
 10
734550.00622800004
 20
4555836.4312300002
 30
0.0
  0
VERTEX
  5
243
  8
CLUSTERS
 10
734645.50264600024
 20
4555931.5719999978
 30
0.0
  0
VERTEX
  5
244
  8
CLUSTERS
 10
734740.86863100005
 20
4555836.4312300002
 30
0.0
  0
VERTEX
  5
245
  8
CLUSTERS
 10
734737.94963000005
 20
4555736.0594800003
 30
0.0
  0
VERTEX
  5
246
  8
CLUSTERS
 10
734746.00801300001
 20
4555635.6877300004
 30
0.0
  0
VERTEX
  5
247
  8
CLUSTERS
 10
734742.13320000004
 20
4555535.3159899991
 30
0.0
  0
VERTEX
  5
248
  8
CLUSTERS
 10
734645.50264600024
 20
4555439.2641399996
 30
0.0
  0
VERTEX
  5
249
  8
CLUSTERS
 10
734544.97354499996
 20
4555436.0924899997
 30
0.0
  0
VERTEX
  5
24A
  8
CLUSTERS
 10
734445.54431899998
 20
4555535.3159899991
 30
0.0
  0
SEQEND
  5
24B
  8
CLUSTERS
  0
POLYLINE
  5
7F
  8
CLUSTERS
 66
     1
 10
0.0
 20
0.0
 30
0.0
 70
   129
  0
VERTEX
  5
24C
  8
CLUSTERS
 10
732404.32944872265
 20
4555669.1043126108
 30
0.0
  0
VERTEX
  5
24D
  8
CLUSTERS
 10
732386.58101172256
 20
4555769.4760626126
 30
0.0
  0
VERTEX
  5
24E
  8
CLUSTERS
 10
732457.60263572249
 20
4555840.5166226123
 30
0.0
  0
VERTEX
  5
24F
  8
CLUSTERS
 10
732528.85064772295
 20
4555769.4760626126
 30
0.0
  0
VERTEX
  5
250
  8
CLUSTERS
 10
732511.15129172278
 20
4555669.1043126108
 30
0.0
  0
VERTEX
  5
251
  8
CLUSTERS
 10
732457.60263572249
 20
4555615.7971226098
 30
0.0
  0
VERTEX
  5
252
  8
CLUSTERS
 10
732404.32944872265
 20
4555669.1043126108
 30
0.0
  0
SEQEND
  5
253
  8
CLUSTERS
  0
POLYLINE
  5
80
  8
CLUSTERS
 66
     1
 10
0.0
 20
0.0
 30
0.0
 70
   129
  0
VERTEX
  5
254
  8
CLUSTERS
 10
733858.84813199996
 20
4556338.2899599997
 30
0.0
  0
VERTEX
  5
255
  8
CLUSTERS
 10
733941.79894200014
 20
4556421.1432499979
 30
0.0
  0
VERTEX
  5
256
  8
CLUSTERS
 10
734042.32804200007
 20
4556405.3846800001
 30
0.0
  0
VERTEX
  5
257
  8
CLUSTERS
 10
734050.27710900002
 20
4556438.6617099978
 30
0.0
  0
VERTEX
  5
258
  8
CLUSTERS
 10
734095.80864199984
 20
4556539.0334599987
 30
0.0
  0
VERTEX
  5
259
  8
CLUSTERS
 10
734042.32804200007
 20
4556541.3504600003
 30
0.0
  0
VERTEX
  5
25A
  8
CLUSTERS
 10
733910.03665749601
 20
4556669.8203475038
 30
0.0
  0
VERTEX
  5
25B
  8
CLUSTERS
 10
734005.06263554515
 20
4556761.2747696508
 30
0.0
  0
VERTEX
  5
25C
  8
CLUSTERS
 10
734142.857143
 20
4556735.3215199998
 30
0.0
  0
VERTEX
  5
25D
  8
CLUSTERS
 10
734238.91099200002
 20
4556639.4052000018
 30
0.0
  0
VERTEX
  5
25E
  8
CLUSTERS
 10
734243.38624300004
 20
4556589.5921999989
 30
0.0
  0
VERTEX
  5
25F
  8
CLUSTERS
 10
734293.85655699985
 20
4556539.0334599987
 30
0.0
  0
VERTEX
  5
260
  8
CLUSTERS
 10
734334.927975
 20
4556438.6617099978
 30
0.0
  0
VERTEX
  5
261
  8
CLUSTERS
 10
734243.38624300004
 20
4556347.2437199997
 30
0.0
  0
VERTEX
  5
262
  8
CLUSTERS
 10
734142.857143
 20
4556346.2193599986
 30
0.0
  0
VERTEX
  5
263
  8
CLUSTERS
 10
734114.16665878624
 20
4556296.967761782
 30
0.0
  0
VERTEX
  5
264
  8
CLUSTERS
 10
734042.32804200007
 20
4556271.1329600001
 30
0.0
  0
VERTEX
  5
265
  8
CLUSTERS
 10
733941.79894200014
 20
4556255.4151299978
 30
0.0
  0
VERTEX
  5
266
  8
CLUSTERS
 10
733858.84813199996
 20
4556338.2899599997
 30
0.0
  0
SEQEND
  5
267
  8
CLUSTERS
  0
POLYLINE
  5
81
  8
CLUSTERS
 66
     1
 10
0.0
 20
0.0
 30
0.0
 70
   129
  0
VERTEX
  5
268
  8
CLUSTERS
 10
737331.31513492041
 20
4556429.4651598604
 30
0.0
  0
VERTEX
  5
269
  8
CLUSTERS
 10
737384.8138159205
 20
4556482.8837698596
 30
0.0
  0
VERTEX
  5
26A
  8
CLUSTERS
 10
737438.29687792051
 20
4556429.4651598604
 30
0.0
  0
VERTEX
  5
26B
  8
CLUSTERS
 10
737384.8138159205
 20
4556376.06697986
 30
0.0
  0
VERTEX
  5
26C
  8
CLUSTERS
 10
737331.31513492041
 20
4556429.4651598604
 30
0.0
  0
SEQEND
  5
26D
  8
CLUSTERS
  0
POLYLINE
  5
82
  8
CLUSTERS
 66
     1
 10
0.0
 20
0.0
 30
0.0
 70
   129
  0
VERTEX
  5
26E
  8
CLUSTERS
 10
732524.10062889045
 20
4556613.9499730142
 30
0.0
  0
VERTEX
  5
26F
  8
CLUSTERS
 10
732539.68606400013
 20
4556739.7769499999
 30
0.0
  0
VERTEX
  5
270
  8
CLUSTERS
 10
732634.92063499987
 20
4556834.9355899999
 30
0.0
  0
VERTEX
  5
271
  8
CLUSTERS
 10
732730.26323199982
 20
4556739.7769499999
 30
0.0
  0
VERTEX
  5
272
  8
CLUSTERS
 10
732703.64018800005
 20
4556639.4052000018
 30
0.0
  0
VERTEX
  5
273
  8
CLUSTERS
 10
732634.92063499987
 20
4556555.8134000013
 30
0.0
  0
VERTEX
  5
274
  8
CLUSTERS
 10
732524.10062889045
 20
4556613.9499730142
 30
0.0
  0
SEQEND
  5
275
  8
CLUSTERS
  0
POLYLINE
  5
83
  8
CLUSTERS
 66
     1
 10
0.0
 20
0.0
 30
0.0
 70
   129
  0
VERTEX
  5
276
  8
CLUSTERS
 10
733698.93126099999
 20
4556739.7769499999
 30
0.0
  0
VERTEX
  5
277
  8
CLUSTERS
 10
733679.33613399987
 20
4556840.1486999998
 30
0.0
  0
VERTEX
  5
278
  8
CLUSTERS
 10
733740.7407409997
 20
4556901.466839999
 30
0.0
  0
VERTEX
  5
279
  8
CLUSTERS
 10
733802.15102600004
 20
4556840.1486999998
 30
0.0
  0
VERTEX
  5
27A
  8
CLUSTERS
 10
733782.57271800016
 20
4556739.7769499999
 30
0.0
  0
VERTEX
  5
27B
  8
CLUSTERS
 10
733740.7407409997
 20
4556698.0314299976
 30
0.0
  0
VERTEX
  5
27C
  8
CLUSTERS
 10
733698.93126099999
 20
4556739.7769499999
 30
0.0
  0
SEQEND
  5
27D
  8
CLUSTERS
  0
POLYLINE
  5
84
  8
CLUSTERS
 66
     1
 10
0.0
 20
0.0
 30
0.0
 70
   129
  0
VERTEX
  5
27E
  8
CLUSTERS
 10
728666.0079545388
 20
4556877.3514583241
 30
0.0
  0
VERTEX
  5
27F
  8
CLUSTERS
 10
728753.18217453884
 20
4556975.8749183277
 30
0.0
  0
VERTEX
  5
280
  8
CLUSTERS
 10
728853.7112755389
 20
4556967.4153483286
 30
0.0
  0
VERTEX
  5
281
  8
CLUSTERS
 10
728932.66763553885
 20
4556877.3514583241
 30
0.0
  0
VERTEX
  5
282
  8
CLUSTERS
 10
728853.7112755389
 20
4556802.9923383286
 30
0.0
  0
VERTEX
  5
283
  8
CLUSTERS
 10
728753.18217453884
 20
4556789.8441583253
 30
0.0
  0
VERTEX
  5
284
  8
CLUSTERS
 10
728666.0079545388
 20
4556877.3514583241
 30
0.0
  0
SEQEND
  5
285
  8
CLUSTERS
  0
POLYLINE
  5
85
  8
CLUSTERS
 66
     1
 10
0.0
 20
0.0
 30
0.0
 70
   129
  0
VERTEX
  5
286
  8
CLUSTERS
 10
733480.59215799998
 20
4556940.5204499988
 30
0.0
  0
VERTEX
  5
287
  8
CLUSTERS
 10
733461.1553649999
 20
4557040.8921899982
 30
0.0
  0
VERTEX
  5
288
  8
CLUSTERS
 10
733539.68253999983
 20
4557119.3689099997
 30
0.0
  0
VERTEX
  5
289
  8
CLUSTERS
 10
733632.78836899996
 20
4557040.8921899982
 30
0.0
  0
VERTEX
  5
28A
  8
CLUSTERS
 10
733623.44556300004
 20
4556940.5204499988
 30
0.0
  0
VERTEX
  5
28B
  8
CLUSTERS
 10
733539.68253999983
 20
4556881.5259599984
 30
0.0
  0
VERTEX
  5
28C
  8
CLUSTERS
 10
733480.59215799998
 20
4556940.5204499988
 30
0.0
  0
SEQEND
  5
28D
  8
CLUSTERS
  0
POLYLINE
  5
86
  8
CLUSTERS
 66
     1
 10
0.0
 20
0.0
 30
0.0
 70
   129
  0
VERTEX
  5
28E
  8
CLUSTERS
 10
732650.9314939999
 20
4557040.8921899982
 30
0.0
  0
VERTEX
  5
28F
  8
CLUSTERS
 10
732735.44973499991
 20
4557133.828209999
 30
0.0
  0
VERTEX
  5
290
  8
CLUSTERS
 10
732765.31365199981
 20
4557141.263939999
 30
0.0
  0
VERTEX
  5
291
  8
CLUSTERS
 10
732835.97883600008
 20
4557191.3876199992
 30
0.0
  0
VERTEX
  5
292
  8
CLUSTERS
 10
732886.17497799988
 20
4557141.263939999
 30
0.0
  0
VERTEX
  5
293
  8
CLUSTERS
 10
732835.97883600008
 20
4557062.8869499983
 30
0.0
  0
VERTEX
  5
294
  8
CLUSTERS
 10
732830.90730000008
 20
4557040.8921899982
 30
0.0
  0
VERTEX
  5
295
  8
CLUSTERS
 10
732735.44973499991
 20
4556956.50507
 30
0.0
  0
VERTEX
  5
296
  8
CLUSTERS
 10
732650.9314939999
 20
4557040.8921899982
 30
0.0
  0
SEQEND
  5
297
  8
CLUSTERS
  0
POLYLINE
  5
87
  8
CLUSTERS
 66
     1
 10
0.0
 20
0.0
 30
0.0
 70
   129
  0
VERTEX
  5
298
  8
CLUSTERS
 10
734142.91434699995
 20
4557040.8921899982
 30
0.0
  0
VERTEX
  5
299
  8
CLUSTERS
 10
734243.38624300004
 20
4557094.4245999996
 30
0.0
  0
VERTEX
  5
29A
  8
CLUSTERS
 10
734260.13496099995
 20
4557141.263939999
 30
0.0
  0
VERTEX
  5
29B
  8
CLUSTERS
 10
734343.9153440001
 20
4557224.9106299998
 30
0.0
  0
VERTEX
  5
29C
  8
CLUSTERS
 10
734427.69112399977
 20
4557141.263939999
 30
0.0
  0
VERTEX
  5
29D
  8
CLUSTERS
 10
734390.30943000002
 20
4557040.8921899982
 30
0.0
  0
VERTEX
  5
29E
  8
CLUSTERS
 10
734343.9153440001
 20
4556994.5729799988
 30
0.0
  0
VERTEX
  5
29F
  8
CLUSTERS
 10
734177.51735322969
 20
4556979.3583527487
 30
0.0
  0
VERTEX
  5
2A0
  8
CLUSTERS
 10
734142.91434699995
 20
4557040.8921899982
 30
0.0
  0
SEQEND
  5
2A1
  8
CLUSTERS
  0
POLYLINE
  5
88
  8
CLUSTERS
 66
     1
 10
0.0
 20
0.0
 30
0.0
 70
   129
  0
VERTEX
  5
2A2
  8
CLUSTERS
 10
733853.72498564923
 20
4557186.8894635709
 30
0.0
  0
VERTEX
  5
2A3
  8
CLUSTERS
 10
733941.79894200014
 20
4557222.5150100002
 30
0.0
  0
VERTEX
  5
2A4
  8
CLUSTERS
 10
734012.99243999994
 20
4557141.263939999
 30
0.0
  0
VERTEX
  5
2A5
  8
CLUSTERS
 10
733941.79894200014
 20
4557070.1886400003
 30
0.0
  0
VERTEX
  5
2A6
  8
CLUSTERS
 10
733853.72498564923
 20
4557186.8894635709
 30
0.0
  0
SEQEND
  5
2A7
  8
CLUSTERS
  0
POLYLINE
  5
89
  8
CLUSTERS
 66
     1
 10
0.0
 20
0.0
 30
0.0
 70
   129
  0
VERTEX
  5
2A8
  8
CLUSTERS
 10
732452.78620600002
 20
4557241.6356899999
 30
0.0
  0
VERTEX
  5
2A9
  8
CLUSTERS
 10
732437.48206900002
 20
4557342.0074300002
 30
0.0
  0
VERTEX
  5
2AA
  8
CLUSTERS
 10
732445.89077899989
 20
4557442.3791800002
 30
0.0
  0
VERTEX
  5
2AB
  8
CLUSTERS
 10
732461.96519299992
 20
4557542.7509299992
 30
0.0
  0
VERTEX
  5
2AC
  8
CLUSTERS
 10
732488.09490699985
 20
4557643.12268
 30
0.0
  0
VERTEX
  5
2AD
  8
CLUSTERS
 10
732534.39153399994
 20
4557689.3477999996
 30
0.0
  0
VERTEX
  5
2AE
  8
CLUSTERS
 10
732580.74534899998
 20
4557643.12268
 30
0.0
  0
VERTEX
  5
2AF
  8
CLUSTERS
 10
732606.98983600002
 20
4557542.7509299992
 30
0.0
  0
VERTEX
  5
2B0
  8
CLUSTERS
 10
732634.92063499987
 20
4557517.9269700004
 30
0.0
  0
VERTEX
  5
2B1
  8
CLUSTERS
 10
732710.47278900002
 20
4557442.3791800002
 30
0.0
  0
VERTEX
  5
2B2
  8
CLUSTERS
 10
732634.92063499987
 20
4557365.9737499999
 30
0.0
  0
VERTEX
  5
2B3
  8
CLUSTERS
 10
732631.44218000013
 20
4557342.0074300002
 30
0.0
  0
VERTEX
  5
2B4
  8
CLUSTERS
 10
732634.92063499987
 20
4557328.88454
 30
0.0
  0
VERTEX
  5
2B5
  8
CLUSTERS
 10
732721.76904000004
 20
4557241.6356899999
 30
0.0
  0
VERTEX
  5
2B6
  8
CLUSTERS
 10
732634.92063499987
 20
4557147.6194900004
 30
0.0
  0
VERTEX
  5
2B7
  8
CLUSTERS
 10
732534.39153399994
 20
4557160.1811499996
 30
0.0
  0
VERTEX
  5
2B8
  8
CLUSTERS
 10
732452.78620600002
 20
4557241.6356899999
 30
0.0
  0
SEQEND
  5
2B9
  8
CLUSTERS
  0
POLYLINE
  5
8A
  8
CLUSTERS
 66
     1
 10
0.0
 20
0.0
 30
0.0
 70
   129
  0
VERTEX
  5
2BA
  8
CLUSTERS
 10
733445.84310099995
 20
4557241.6356899999
 30
0.0
  0
VERTEX
  5
2BB
  8
CLUSTERS
 10
733455.49781499989
 20
4557342.0074300002
 30
0.0
  0
VERTEX
  5
2BC
  8
CLUSTERS
 10
733539.68253999983
 20
4557426.0608900012
 30
0.0
  0
VERTEX
  5
2BD
  8
CLUSTERS
 10
733623.88480500004
 20
4557342.0074300002
 30
0.0
  0
VERTEX
  5
2BE
  8
CLUSTERS
 10
733633.53915799968
 20
4557241.6356899999
 30
0.0
  0
VERTEX
  5
2BF
  8
CLUSTERS
 10
733539.68253999983
 20
4557147.9306299994
 30
0.0
  0
VERTEX
  5
2C0
  8
CLUSTERS
 10
733445.84310099995
 20
4557241.6356899999
 30
0.0
  0
SEQEND
  5
2C1
  8
CLUSTERS
  0
POLYLINE
  5
8B
  8
CLUSTERS
 66
     1
 10
0.0
 20
0.0
 30
0.0
 70
   129
  0
VERTEX
  5
2C2
  8
CLUSTERS
 10
733870.31634041865
 20
4557332.769432215
 30
0.0
  0
VERTEX
  5
2C3
  8
CLUSTERS
 10
733841.26984099997
 20
4557359.5719100013
 30
0.0
  0
VERTEX
  5
2C4
  8
CLUSTERS
 10
733730.54304444627
 20
4557433.1128883446
 30
0.0
  0
VERTEX
  5
2C5
  8
CLUSTERS
 10
733841.26984099997
 20
4557525.1857200004
 30
0.0
  0
VERTEX
  5
2C6
  8
CLUSTERS
 10
733924.21522799996
 20
4557442.3791800002
 30
0.0
  0
VERTEX
  5
2C7
  8
CLUSTERS
 10
733941.79894200014
 20
4557408.9341399996
 30
0.0
  0
VERTEX
  5
2C8
  8
CLUSTERS
 10
734008.80467300001
 20
4557342.0074300002
 30
0.0
  0
VERTEX
  5
2C9
  8
CLUSTERS
 10
733941.79894200014
 20
4557263.93695
 30
0.0
  0
VERTEX
  5
2CA
  8
CLUSTERS
 10
733870.31634041865
 20
4557332.769432215
 30
0.0
  0
SEQEND
  5
2CB
  8
CLUSTERS
  0
POLYLINE
  5
8C
  8
CLUSTERS
 66
     1
 10
0.0
 20
0.0
 30
0.0
 70
   129
  0
VERTEX
  5
2CC
  8
CLUSTERS
 10
734178.05038199993
 20
4557342.0074300002
 30
0.0
  0
VERTEX
  5
2CD
  8
CLUSTERS
 10
734162.96476699982
 20
4557442.3791800002
 30
0.0
  0
VERTEX
  5
2CE
  8
CLUSTERS
 10
734243.38624300004
 20
4557522.675979998
 30
0.0
  0
VERTEX
  5
2CF
  8
CLUSTERS
 10
734323.80930900003
 20
4557442.3791800002
 30
0.0
  0
VERTEX
  5
2D0
  8
CLUSTERS
 10
734308.72358500015
 20
4557342.0074300002
 30
0.0
  0
VERTEX
  5
2D1
  8
CLUSTERS
 10
734243.38624300004
 20
4557276.7720400002
 30
0.0
  0
VERTEX
  5
2D2
  8
CLUSTERS
 10
734178.05038199993
 20
4557342.0074300002
 30
0.0
  0
SEQEND
  5
2D3
  8
CLUSTERS
  0
POLYLINE
  5
8D
  8
CLUSTERS
 66
     1
 10
0.0
 20
0.0
 30
0.0
 70
   129
  0
VERTEX
  5
2D4
  8
CLUSTERS
 10
735269.37510600023
 20
4557342.0074300002
 30
0.0
  0
VERTEX
  5
2D5
  8
CLUSTERS
 10
735295.59028000012
 20
4557442.3791800002
 30
0.0
  0
VERTEX
  5
2D6
  8
CLUSTERS
 10
735349.20634899999
 20
4557495.9129199991
 30
0.0
  0
VERTEX
  5
2D7
  8
CLUSTERS
 10
735449.73545000015
 20
4557442.3834800003
 30
0.0
  0
VERTEX
  5
2D8
  8
CLUSTERS
 10
735449.73975100007
 20
4557442.3791800002
 30
0.0
  0
VERTEX
  5
2D9
  8
CLUSTERS
 10
735511.16706399992
 20
4557342.0074300002
 30
0.0
  0
VERTEX
  5
2DA
  8
CLUSTERS
 10
735449.73545000015
 20
4557280.6714599999
 30
0.0
  0
VERTEX
  5
2DB
  8
CLUSTERS
 10
735349.20634899999
 20
4557262.3014299991
 30
0.0
  0
VERTEX
  5
2DC
  8
CLUSTERS
 10
735269.37510600023
 20
4557342.0074300002
 30
0.0
  0
SEQEND
  5
2DD
  8
CLUSTERS
  0
POLYLINE
  5
8E
  8
CLUSTERS
 66
     1
 10
0.0
 20
0.0
 30
0.0
 70
   129
  0
VERTEX
  5
2DE
  8
CLUSTERS
 10
735160.49323100003
 20
4557643.12268
 30
0.0
  0
VERTEX
  5
2DF
  8
CLUSTERS
 10
735268.55669502984
 20
4557725.0633976059
 30
0.0
  0
VERTEX
  5
2E0
  8
CLUSTERS
 10
735349.20634899999
 20
4557704.4622299988
 30
0.0
  0
VERTEX
  5
2E1
  8
CLUSTERS
 10
735410.64042300009
 20
4557643.12268
 30
0.0
  0
VERTEX
  5
2E2
  8
CLUSTERS
 10
735349.20634899999
 20
4557581.7815899998
 30
0.0
  0
VERTEX
  5
2E3
  8
CLUSTERS
 10
735248.67724899994
 20
4557555.076489999
 30
0.0
  0
VERTEX
  5
2E4
  8
CLUSTERS
 10
735160.49323100003
 20
4557643.12268
 30
0.0
  0
SEQEND
  5
2E5
  8
CLUSTERS
  0
POLYLINE
  5
8F
  8
CLUSTERS
 66
     1
 10
0.0
 20
0.0
 30
0.0
 70
   129
  0
VERTEX
  5
2E6
  8
CLUSTERS
 10
732882.88928199979
 20
4557743.4944200013
 30
0.0
  0
VERTEX
  5
2E7
  8
CLUSTERS
 10
732936.50793699978
 20
4557797.1084999992
 30
0.0
  0
VERTEX
  5
2E8
  8
CLUSTERS
 10
733037.03703700006
 20
4557842.0155199999
 30
0.0
  0
VERTEX
  5
2E9
  8
CLUSTERS
 10
733038.69591800007
 20
4557843.8661700003
 30
0.0
  0
VERTEX
  5
2EA
  8
CLUSTERS
 10
733037.03703700006
 20
4557846.4422799991
 30
0.0
  0
VERTEX
  5
2EB
  8
CLUSTERS
 10
732945.39930699999
 20
4557944.2379200002
 30
0.0
  0
VERTEX
  5
2EC
  8
CLUSTERS
 10
732956.59525800007
 20
4558044.6096700002
 30
0.0
  0
VERTEX
  5
2ED
  8
CLUSTERS
 10
733040.72455540078
 20
4558069.776141651
 30
0.0
  0
VERTEX
  5
2EE
  8
CLUSTERS
 10
733117.53226000001
 20
4558044.6096700002
 30
0.0
  0
VERTEX
  5
2EF
  8
CLUSTERS
 10
733137.56613799999
 20
4558012.8890300002
 30
0.0
  0
VERTEX
  5
2F0
  8
CLUSTERS
 10
733206.30339999998
 20
4557944.2379200002
 30
0.0
  0
VERTEX
  5
2F1
  8
CLUSTERS
 10
733238.09523800015
 20
4557909.2799199987
 30
0.0
  0
VERTEX
  5
2F2
  8
CLUSTERS
 10
733303.53818000015
 20
4557843.8661700003
 30
0.0
  0
VERTEX
  5
2F3
  8
CLUSTERS
 10
733238.09523800015
 20
4557778.4406700004
 30
0.0
  0
VERTEX
  5
2F4
  8
CLUSTERS
 10
733217.5056939997
 20
4557743.4944200013
 30
0.0
  0
VERTEX
  5
2F5
  8
CLUSTERS
 10
733137.56613799999
 20
4557663.7099799989
 30
0.0
  0
VERTEX
  5
2F6
  8
CLUSTERS
 10
733037.03703700006
 20
4557649.6056299992
 30
0.0
  0
VERTEX
  5
2F7
  8
CLUSTERS
 10
732936.50793699978
 20
4557689.9321299978
 30
0.0
  0
VERTEX
  5
2F8
  8
CLUSTERS
 10
732882.88928199979
 20
4557743.4944200013
 30
0.0
  0
SEQEND
  5
2F9
  8
CLUSTERS
  0
POLYLINE
  5
90
  8
CLUSTERS
 66
     1
 10
0.0
 20
0.0
 30
0.0
 70
   129
  0
VERTEX
  5
2FA
  8
CLUSTERS
 10
735161.94598600012
 20
4557843.8661700003
 30
0.0
  0
VERTEX
  5
2FB
  8
CLUSTERS
 10
735248.67724899994
 20
4557930.4619300002
 30
0.0
  0
VERTEX
  5
2FC
  8
CLUSTERS
 10
735335.40855400008
 20
4557843.8661700003
 30
0.0
  0
VERTEX
  5
2FD
  8
CLUSTERS
 10
735272.0762699428
 20
4557784.8605295168
 30
0.0
  0
VERTEX
  5
2FE
  8
CLUSTERS
 10
735161.94598600012
 20
4557843.8661700003
 30
0.0
  0
SEQEND
  5
2FF
  8
CLUSTERS
  0
POLYLINE
  5
91
  8
CLUSTERS
 66
     1
 10
0.0
 20
0.0
 30
0.0
 70
   129
  0
VERTEX
  5
300
  8
CLUSTERS
 10
735966.45483599999
 20
4557944.2379200002
 30
0.0
  0
VERTEX
  5
301
  8
CLUSTERS
 10
736052.91005299997
 20
4558030.5585200004
 30
0.0
  0
VERTEX
  5
302
  8
CLUSTERS
 10
736139.36563499994
 20
4557944.2379200002
 30
0.0
  0
VERTEX
  5
303
  8
CLUSTERS
 10
736052.91005299997
 20
4557857.9180799993
 30
0.0
  0
VERTEX
  5
304
  8
CLUSTERS
 10
735966.45483599999
 20
4557944.2379200002
 30
0.0
  0
SEQEND
  5
305
  8
CLUSTERS
  0
POLYLINE
  5
92
  8
CLUSTERS
 66
     1
 10
0.0
 20
0.0
 30
0.0
 70
   129
  0
VERTEX
  5
306
  8
CLUSTERS
 10
738985.18506906112
 20
4557912.0234387144
 30
0.0
  0
VERTEX
  5
307
  8
CLUSTERS
 10
739063.7493250611
 20
4557990.3562987158
 30
0.0
  0
VERTEX
  5
308
  8
CLUSTERS
 10
739142.13931806094
 20
4557912.0234387144
 30
0.0
  0
VERTEX
  5
309
  8
CLUSTERS
 10
739063.7493250611
 20
4557815.6567387162
 30
0.0
  0
VERTEX
  5
30A
  8
CLUSTERS
 10
738985.18506906112
 20
4557912.0234387144
 30
0.0
  0
SEQEND
  5
30B
  8
CLUSTERS
  0
POLYLINE
  5
93
  8
CLUSTERS
 66
     1
 10
0.0
 20
0.0
 30
0.0
 70
   129
  0
VERTEX
  5
30C
  8
CLUSTERS
 10
734257.45924899995
 20
4558044.6096700002
 30
0.0
  0
VERTEX
  5
30D
  8
CLUSTERS
 10
734284.77427699999
 20
4558144.9814099986
 30
0.0
  0
VERTEX
  5
30E
  8
CLUSTERS
 10
734343.9153440001
 20
4558204.0298699997
 30
0.0
  0
VERTEX
  5
30F
  8
CLUSTERS
 10
734444.44444399991
 20
4558232.5809699977
 30
0.0
  0
VERTEX
  5
310
  8
CLUSTERS
 10
734544.97354499996
 20
4558214.8179299999
 30
0.0
  0
VERTEX
  5
311
  8
CLUSTERS
 10
734614.93160699995
 20
4558144.9814099986
 30
0.0
  0
VERTEX
  5
312
  8
CLUSTERS
 10
734645.50264600024
 20
4558139.7020799993
 30
0.0
  0
VERTEX
  5
313
  8
CLUSTERS
 10
734740.74271600018
 20
4558044.6096700002
 30
0.0
  0
VERTEX
  5
314
  8
CLUSTERS
 10
734645.50264600024
 20
4557949.5178100001
 30
0.0
  0
VERTEX
  5
315
  8
CLUSTERS
 10
734544.97354499996
 20
4557947.3168799989
 30
0.0
  0
VERTEX
  5
316
  8
CLUSTERS
 10
734447.52666500001
 20
4558044.6096700002
 30
0.0
  0
VERTEX
  5
317
  8
CLUSTERS
 10
734444.44444399991
 20
4558057.3683399996
 30
0.0
  0
VERTEX
  5
318
  8
CLUSTERS
 10
734430.38610100013
 20
4558044.6096700002
 30
0.0
  0
VERTEX
  5
319
  8
CLUSTERS
 10
734343.9153440001
 20
4557958.2887700005
 30
0.0
  0
VERTEX
  5
31A
  8
CLUSTERS
 10
734257.45924899995
 20
4558044.6096700002
 30
0.0
  0
SEQEND
  5
31B
  8
CLUSTERS
  0
POLYLINE
  5
94
  8
CLUSTERS
 66
     1
 10
0.0
 20
0.0
 30
0.0
 70
   129
  0
VERTEX
  5
31C
  8
CLUSTERS
 10
735258.72944899998
 20
4558044.6096700002
 30
0.0
  0
VERTEX
  5
31D
  8
CLUSTERS
 10
735256.49530499999
 20
4558144.9814099986
 30
0.0
  0
VERTEX
  5
31E
  8
CLUSTERS
 10
735248.67724899994
 20
4558157.7546199979
 30
0.0
  0
VERTEX
  5
31F
  8
CLUSTERS
 10
735160.94253700005
 20
4558245.3531600004
 30
0.0
  0
VERTEX
  5
320
  8
CLUSTERS
 10
735198.41239100019
 20
4558345.7249100003
 30
0.0
  0
VERTEX
  5
321
  8
CLUSTERS
 10
735248.67724899994
 20
4558395.9108099993
 30
0.0
  0
VERTEX
  5
322
  8
CLUSTERS
 10
735298.94208100007
 20
4558345.7249100003
 30
0.0
  0
VERTEX
  5
323
  8
CLUSTERS
 10
735336.41273900005
 20
4558245.3531600004
 30
0.0
  0
VERTEX
  5
324
  8
CLUSTERS
 10
735349.20634899999
 20
4558237.5470999992
 30
0.0
  0
VERTEX
  5
325
  8
CLUSTERS
 10
735441.91701400012
 20
4558144.9814099986
 30
0.0
  0
VERTEX
  5
326
  8
CLUSTERS
 10
735439.68313699996
 20
4558044.6096700002
 30
0.0
  0
VERTEX
  5
327
  8
CLUSTERS
 10
735349.20634899999
 20
4557954.2743800012
 30
0.0
  0
VERTEX
  5
328
  8
CLUSTERS
 10
735258.72944899998
 20
4558044.6096700002
 30
0.0
  0
SEQEND
  5
329
  8
CLUSTERS
  0
POLYLINE
  5
95
  8
CLUSTERS
 66
     1
 10
0.0
 20
0.0
 30
0.0
 70
   129
  0
VERTEX
  5
32A
  8
CLUSTERS
 10
735657.83021799987
 20
4558044.6096700002
 30
0.0
  0
VERTEX
  5
32B
  8
CLUSTERS
 10
735751.32275100006
 20
4558137.95584
 30
0.0
  0
VERTEX
  5
32C
  8
CLUSTERS
 10
735844.81538100005
 20
4558044.6096700002
 30
0.0
  0
VERTEX
  5
32D
  8
CLUSTERS
 10
735751.32275100006
 20
4557951.2633999977
 30
0.0
  0
VERTEX
  5
32E
  8
CLUSTERS
 10
735657.83021799987
 20
4558044.6096700002
 30
0.0
  0
SEQEND
  5
32F
  8
CLUSTERS
  0
POLYLINE
  5
96
  8
CLUSTERS
 66
     1
 10
0.0
 20
0.0
 30
0.0
 70
   129
  0
VERTEX
  5
330
  8
CLUSTERS
 10
736061.18758300005
 20
4558144.9814099986
 30
0.0
  0
VERTEX
  5
331
  8
CLUSTERS
 10
736059.94600899995
 20
4558245.3531600004
 30
0.0
  0
VERTEX
  5
332
  8
CLUSTERS
 10
736153.43915300001
 20
4558338.7011699993
 30
0.0
  0
VERTEX
  5
333
  8
CLUSTERS
 10
736162.34333900001
 20
4558345.7249100003
 30
0.0
  0
VERTEX
  5
334
  8
CLUSTERS
 10
736171.02680500015
 20
4558446.0966499997
 30
0.0
  0
VERTEX
  5
335
  8
CLUSTERS
 10
736253.96825399995
 20
4558528.9107400002
 30
0.0
  0
VERTEX
  5
336
  8
CLUSTERS
 10
736354.49735399976
 20
4558546.1108100004
 30
0.0
  0
VERTEX
  5
337
  8
CLUSTERS
 10
736355.15260899987
 20
4558546.4683999978
 30
0.0
  0
VERTEX
  5
338
  8
CLUSTERS
 10
736379.61432599998
 20
4558646.8401499977
 30
0.0
  0
VERTEX
  5
339
  8
CLUSTERS
 10
736379.62680500012
 20
4558747.2119000005
 30
0.0
  0
VERTEX
  5
33A
  8
CLUSTERS
 10
736455.02645500004
 20
4558822.4944000011
 30
0.0
  0
VERTEX
  5
33B
  8
CLUSTERS
 10
736555.55555599998
 20
4558812.4724500002
 30
0.0
  0
VERTEX
  5
33C
  8
CLUSTERS
 10
736620.92174899986
 20
4558747.2119000005
 30
0.0
  0
VERTEX
  5
33D
  8
CLUSTERS
 10
736654.47999100015
 20
4558646.8401499977
 30
0.0
  0
VERTEX
  5
33E
  8
CLUSTERS
 10
736652.08985600015
 20
4558546.4683999978
 30
0.0
  0
VERTEX
  5
33F
  8
CLUSTERS
 10
736577.98317600007
 20
4558446.0966499997
 30
0.0
  0
VERTEX
  5
340
  8
CLUSTERS
 10
736555.55555599998
 20
4558423.6990099987
 30
0.0
  0
VERTEX
  5
341
  8
CLUSTERS
 10
736543.83563600015
 20
4558345.7249100003
 30
0.0
  0
VERTEX
  5
342
  8
CLUSTERS
 10
736548.85630900005
 20
4558245.3531600004
 30
0.0
  0
VERTEX
  5
343
  8
CLUSTERS
 10
736455.02645500004
 20
4558151.6706400001
 30
0.0
  0
VERTEX
  5
344
  8
CLUSTERS
 10
736354.49735399976
 20
4558207.6293599997
 30
0.0
  0
VERTEX
  5
345
  8
CLUSTERS
 10
736349.31835800014
 20
4558144.9814099986
 30
0.0
  0
VERTEX
  5
346
  8
CLUSTERS
 10
736253.96825399995
 20
4558051.70493
 30
0.0
  0
VERTEX
  5
347
  8
CLUSTERS
 10
736153.43915300001
 20
4558052.8737799991
 30
0.0
  0
VERTEX
  5
348
  8
CLUSTERS
 10
736061.18758300005
 20
4558144.9814099986
 30
0.0
  0
SEQEND
  5
349
  8
CLUSTERS
  0
POLYLINE
  5
97
  8
CLUSTERS
 66
     1
 10
0.0
 20
0.0
 30
0.0
 70
   129
  0
VERTEX
  5
34A
  8
CLUSTERS
 10
732874.27724267845
 20
4558343.1855569556
 30
0.0
  0
VERTEX
  5
34B
  8
CLUSTERS
 10
732966.8153906787
 20
4558435.5937669538
 30
0.0
  0
VERTEX
  5
34C
  8
CLUSTERS
 10
733059.38424367877
 20
4558343.1855569556
 30
0.0
  0
VERTEX
  5
34D
  8
CLUSTERS
 10
732966.8153906787
 20
4558246.3849669527
 30
0.0
  0
VERTEX
  5
34E
  8
CLUSTERS
 10
732874.27724267845
 20
4558343.1855569556
 30
0.0
  0
SEQEND
  5
34F
  8
CLUSTERS
  0
POLYLINE
  5
98
  8
CLUSTERS
 66
     1
 10
0.0
 20
0.0
 30
0.0
 70
   129
  0
VERTEX
  5
350
  8
CLUSTERS
 10
732350.15189899993
 20
4558446.0966499997
 30
0.0
  0
VERTEX
  5
351
  8
CLUSTERS
 10
732372.50844800018
 20
4558546.4683999978
 30
0.0
  0
VERTEX
  5
352
  8
CLUSTERS
 10
732433.86243400001
 20
4558607.7282800004
 30
0.0
  0
VERTEX
  5
353
  8
CLUSTERS
 10
732495.27057699987
 20
4558546.4683999978
 30
0.0
  0
VERTEX
  5
354
  8
CLUSTERS
 10
732512.41451899987
 20
4558446.0966499997
 30
0.0
  0
VERTEX
  5
355
  8
CLUSTERS
 10
732433.86243400001
 20
4558367.7281099996
 30
0.0
  0
VERTEX
  5
356
  8
CLUSTERS
 10
732350.15189899993
 20
4558446.0966499997
 30
0.0
  0
SEQEND
  5
357
  8
CLUSTERS
  0
POLYLINE
  5
99
  8
CLUSTERS
 66
     1
 10
0.0
 20
0.0
 30
0.0
 70
   129
  0
VERTEX
  5
358
  8
CLUSTERS
 10
734166.41346031695
 20
4558573.2288080268
 30
0.0
  0
VERTEX
  5
359
  8
CLUSTERS
 10
734258.46541331685
 20
4558665.1368680298
 30
0.0
  0
VERTEX
  5
35A
  8
CLUSTERS
 10
734353.96965931705
 20
4558573.2288080268
 30
0.0
  0
VERTEX
  5
35B
  8
CLUSTERS
 10
734258.46541331685
 20
4558481.3209780296
 30
0.0
  0
VERTEX
  5
35C
  8
CLUSTERS
 10
734166.41346031695
 20
4558573.2288080268
 30
0.0
  0
SEQEND
  5
35D
  8
CLUSTERS
  0
POLYLINE
  5
9A
  8
CLUSTERS
 66
     1
 10
0.0
 20
0.0
 30
0.0
 70
   129
  0
VERTEX
  5
35E
  8
CLUSTERS
 10
731841.52261500002
 20
4558747.2119000005
 30
0.0
  0
VERTEX
  5
35F
  8
CLUSTERS
 10
731830.68783100008
 20
4558805.9613399999
 30
0.0
  0
VERTEX
  5
360
  8
CLUSTERS
 10
731789.15994000016
 20
4558847.5836399999
 30
0.0
  0
VERTEX
  5
361
  8
CLUSTERS
 10
731789.1184129999
 20
4558947.9553899979
 30
0.0
  0
VERTEX
  5
362
  8
CLUSTERS
 10
731742.03563739685
 20
4559075.7746587032
 30
0.0
  0
VERTEX
  5
363
  8
CLUSTERS
 10
731830.68783100008
 20
4559101.5449200002
 30
0.0
  0
VERTEX
  5
364
  8
CLUSTERS
 10
731884.09211600001
 20
4559048.3271399997
 30
0.0
  0
VERTEX
  5
365
  8
CLUSTERS
 10
731872.37938500021
 20
4558947.9553899979
 30
0.0
  0
VERTEX
  5
366
  8
CLUSTERS
 10
731872.60363400006
 20
4558847.5836399999
 30
0.0
  0
VERTEX
  5
367
  8
CLUSTERS
 10
731931.21693100012
 20
4558836.8557000002
 30
0.0
  0
VERTEX
  5
368
  8
CLUSTERS
 10
732021.06066199986
 20
4558747.2119000005
 30
0.0
  0
VERTEX
  5
369
  8
CLUSTERS
 10
731931.21693100012
 20
4558657.6448100004
 30
0.0
  0
VERTEX
  5
36A
  8
CLUSTERS
 10
731841.52261500002
 20
4558747.2119000005
 30
0.0
  0
SEQEND
  5
36B
  8
CLUSTERS
  0
POLYLINE
  5
9B
  8
CLUSTERS
 66
     1
 10
0.0
 20
0.0
 30
0.0
 70
   129
  0
VERTEX
  5
36C
  8
CLUSTERS
 10
735655.19174899999
 20
4558747.2119000005
 30
0.0
  0
VERTEX
  5
36D
  8
CLUSTERS
 10
735674.25035900006
 20
4558847.5836399999
 30
0.0
  0
VERTEX
  5
36E
  8
CLUSTERS
 10
735740.16739205364
 20
4558861.2085241675
 30
0.0
  0
VERTEX
  5
36F
  8
CLUSTERS
 10
735828.39522299997
 20
4558847.5836399999
 30
0.0
  0
VERTEX
  5
370
  8
CLUSTERS
 10
735847.4537999999
 20
4558747.2119000005
 30
0.0
  0
VERTEX
  5
371
  8
CLUSTERS
 10
735751.32275100006
 20
4558651.2313200003
 30
0.0
  0
VERTEX
  5
372
  8
CLUSTERS
 10
735655.19174899999
 20
4558747.2119000005
 30
0.0
  0
SEQEND
  5
373
  8
CLUSTERS
  0
POLYLINE
  5
9C
  8
CLUSTERS
 66
     1
 10
0.0
 20
0.0
 30
0.0
 70
   129
  0
VERTEX
  5
374
  8
CLUSTERS
 10
736083.05415510572
 20
4558874.3162177112
 30
0.0
  0
VERTEX
  5
375
  8
CLUSTERS
 10
736105.45989099995
 20
4558984.454309999
 30
0.0
  0
VERTEX
  5
376
  8
CLUSTERS
 10
736189.99569200003
 20
4559068.8578500003
 30
0.0
  0
VERTEX
  5
377
  8
CLUSTERS
 10
736290.52479299996
 20
4559014.5662700012
 30
0.0
  0
VERTEX
  5
378
  8
CLUSTERS
 10
736328.22463000007
 20
4558984.454309999
 30
0.0
  0
VERTEX
  5
379
  8
CLUSTERS
 10
736290.52479299996
 20
4558954.3421
 30
0.0
  0
VERTEX
  5
37A
  8
CLUSTERS
 10
736226.55223100015
 20
4558884.0825600009
 30
0.0
  0
VERTEX
  5
37B
  8
CLUSTERS
 10
736189.99569200003
 20
4558847.5836399999
 30
0.0
  0
VERTEX
  5
37C
  8
CLUSTERS
 10
736083.05415510572
 20
4558874.3162177112
 30
0.0
  0
SEQEND
  5
37D
  8
CLUSTERS
  0
POLYLINE
  5
9D
  8
CLUSTERS
 66
     1
 10
0.0
 20
0.0
 30
0.0
 70
   129
  0
VERTEX
  5
37E
  8
CLUSTERS
 10
734630.96858146566
 20
4558960.1782835694
 30
0.0
  0
VERTEX
  5
37F
  8
CLUSTERS
 10
734712.47861746594
 20
4559041.5606235703
 30
0.0
  0
VERTEX
  5
380
  8
CLUSTERS
 10
734793.98848346563
 20
4558960.1782835694
 30
0.0
  0
VERTEX
  5
381
  8
CLUSTERS
 10
734712.47861746594
 20
4558878.7958935676
 30
0.0
  0
VERTEX
  5
382
  8
CLUSTERS
 10
734630.96858146566
 20
4558960.1782835694
 30
0.0
  0
SEQEND
  5
383
  8
CLUSTERS
  0
POLYLINE
  5
9E
  8
CLUSTERS
 66
     1
 10
0.0
 20
0.0
 30
0.0
 70
   129
  0
VERTEX
  5
384
  8
CLUSTERS
 10
736570.19157599995
 20
4558947.9553899979
 30
0.0
  0
VERTEX
  5
385
  8
CLUSTERS
 10
736555.55555599998
 20
4558949.0134399999
 30
0.0
  0
VERTEX
  5
386
  8
CLUSTERS
 10
736456.08681199979
 20
4559048.3271399997
 30
0.0
  0
VERTEX
  5
387
  8
CLUSTERS
 10
736469.09289399988
 20
4559148.69888
 30
0.0
  0
VERTEX
  5
388
  8
CLUSTERS
 10
736555.55555599998
 20
4559235.0269799987
 30
0.0
  0
VERTEX
  5
389
  8
CLUSTERS
 10
736656.08465599979
 20
4559247.3339
 30
0.0
  0
VERTEX
  5
38A
  8
CLUSTERS
 10
736702.92262500001
 20
4559249.070629999
 30
0.0
  0
VERTEX
  5
38B
  8
CLUSTERS
 10
736657.896465
 20
4559349.4423799999
 30
0.0
  0
VERTEX
  5
38C
  8
CLUSTERS
 10
736678.06484799983
 20
4559449.8141299989
 30
0.0
  0
VERTEX
  5
38D
  8
CLUSTERS
 10
736756.61375699996
 20
4559528.24608
 30
0.0
  0
VERTEX
  5
38E
  8
CLUSTERS
 10
736775.62158000004
 20
4559550.1858700002
 30
0.0
  0
VERTEX
  5
38F
  8
CLUSTERS
 10
736767.39415599988
 20
4559650.5576199992
 30
0.0
  0
VERTEX
  5
390
  8
CLUSTERS
 10
736756.61375699996
 20
4559651.11711
 30
0.0
  0
VERTEX
  5
391
  8
CLUSTERS
 10
736656.08465599979
 20
4559651.0242899992
 30
0.0
  0
VERTEX
  5
392
  8
CLUSTERS
 10
736556.02339600015
 20
4559750.9293699991
 30
0.0
  0
VERTEX
  5
393
  8
CLUSTERS
 10
736656.08465599979
 20
4559850.834449999
 30
0.0
  0
VERTEX
  5
394
  8
CLUSTERS
 10
736756.61375699996
 20
4559850.7414800003
 30
0.0
  0
VERTEX
  5
395
  8
CLUSTERS
 10
736856.58223599999
 20
4559750.9293699991
 30
0.0
  0
VERTEX
  5
396
  8
CLUSTERS
 10
736857.142857
 20
4559740.1614100002
 30
0.0
  0
VERTEX
  5
397
  8
CLUSTERS
 10
736946.85348199983
 20
4559650.5576199992
 30
0.0
  0
VERTEX
  5
398
  8
CLUSTERS
 10
736957.67195800005
 20
4559586.7103700005
 30
0.0
  0
VERTEX
  5
399
  8
CLUSTERS
 10
736994.2499220001
 20
4559550.1858700002
 30
0.0
  0
VERTEX
  5
39A
  8
CLUSTERS
 10
736957.67195800005
 20
4559492.8083100002
 30
0.0
  0
VERTEX
  5
39B
  8
CLUSTERS
 10
736932.55735699995
 20
4559449.8141299989
 30
0.0
  0
VERTEX
  5
39C
  8
CLUSTERS
 10
736922.50652900001
 20
4559349.4423799999
 30
0.0
  0
VERTEX
  5
39D
  8
CLUSTERS
 10
736922.49706600013
 20
4559249.070629999
 30
0.0
  0
VERTEX
  5
39E
  8
CLUSTERS
 10
736857.142857
 20
4559183.8022999987
 30
0.0
  0
VERTEX
  5
39F
  8
CLUSTERS
 10
736853.00729399954
 20
4559148.69888
 30
0.0
  0
VERTEX
  5
3A0
  8
CLUSTERS
 10
736850.75089099992
 20
4559048.3271399997
 30
0.0
  0
VERTEX
  5
3A1
  8
CLUSTERS
 10
736756.61375699996
 20
4558954.3348500011
 30
0.0
  0
VERTEX
  5
3A2
  8
CLUSTERS
 10
736741.97260199965
 20
4558947.9553899979
 30
0.0
  0
VERTEX
  5
3A3
  8
CLUSTERS
 10
736656.08465599979
 20
4558862.2121400014
 30
0.0
  0
VERTEX
  5
3A4
  8
CLUSTERS
 10
736570.19157599995
 20
4558947.9553899979
 30
0.0
  0
SEQEND
  5
3A5
  8
CLUSTERS
  0
POLYLINE
  5
9F
  8
CLUSTERS
 66
     1
 10
0.0
 20
0.0
 30
0.0
 70
   129
  0
VERTEX
  5
3A6
  8
CLUSTERS
 10
735689.83223088994
 20
4559083.7898659538
 30
0.0
  0
VERTEX
  5
3A7
  8
CLUSTERS
 10
735771.84280289034
 20
4559178.078475954
 30
0.0
  0
VERTEX
  5
3A8
  8
CLUSTERS
 10
735872.37190388981
 20
4559125.6113959551
 30
0.0
  0
VERTEX
  5
3A9
  8
CLUSTERS
 10
735914.25901988975
 20
4559083.7898659538
 30
0.0
  0
VERTEX
  5
3AA
  8
CLUSTERS
 10
735872.37190388981
 20
4559041.9682859536
 30
0.0
  0
VERTEX
  5
3AB
  8
CLUSTERS
 10
735771.84280289034
 20
4559001.9076059563
 30
0.0
  0
VERTEX
  5
3AC
  8
CLUSTERS
 10
735689.83223088994
 20
4559083.7898659538
 30
0.0
  0
SEQEND
  5
3AD
  8
CLUSTERS
  0
POLYLINE
  5
A0
  8
CLUSTERS
 66
     1
 10
0.0
 20
0.0
 30
0.0
 70
   129
  0
VERTEX
  5
3AE
  8
CLUSTERS
 10
737061.71270100004
 20
4559650.5576199992
 30
0.0
  0
VERTEX
  5
3AF
  8
CLUSTERS
 10
737064.05394899996
 20
4559750.9293699991
 30
0.0
  0
VERTEX
  5
3B0
  8
CLUSTERS
 10
737061.54264199978
 20
4559851.3011200009
 30
0.0
  0
VERTEX
  5
3B1
  8
CLUSTERS
 10
737058.20105799998
 20
4559860.64334
 30
0.0
  0
VERTEX
  5
3B2
  8
CLUSTERS
 10
736967.046462
 20
4559951.6728600003
 30
0.0
  0
VERTEX
  5
3B3
  8
CLUSTERS
 10
737058.20105799998
 20
4560042.7024399983
 30
0.0
  0
VERTEX
  5
3B4
  8
CLUSTERS
 10
737158.73015900003
 20
4560032.0223399997
 30
0.0
  0
VERTEX
  5
3B5
  8
CLUSTERS
 10
737239.18318499986
 20
4559951.6728600003
 30
0.0
  0
VERTEX
  5
3B6
  8
CLUSTERS
 10
737255.91495999997
 20
4559851.3011200009
 30
0.0
  0
VERTEX
  5
3B7
  8
CLUSTERS
 10
737253.40530699992
 20
4559750.9293699991
 30
0.0
  0
VERTEX
  5
3B8
  8
CLUSTERS
 10
737255.74627300003
 20
4559650.5576199992
 30
0.0
  0
VERTEX
  5
3B9
  8
CLUSTERS
 10
737158.73015900003
 20
4559553.6937499987
 30
0.0
  0
VERTEX
  5
3BA
  8
CLUSTERS
 10
737061.71270100004
 20
4559650.5576199992
 30
0.0
  0
SEQEND
  5
3BB
  8
CLUSTERS
  0
POLYLINE
  5
A1
  8
CLUSTERS
 66
     1
 10
0.0
 20
0.0
 30
0.0
 70
   129
  0
VERTEX
  5
3BC
  8
CLUSTERS
 10
732548.45218599995
 20
4559750.9293699991
 30
0.0
  0
VERTEX
  5
3BD
  8
CLUSTERS
 10
732546.09801499988
 20
4559851.3011200009
 30
0.0
  0
VERTEX
  5
3BE
  8
CLUSTERS
 10
732581.11350800015
 20
4559951.6728600003
 30
0.0
  0
VERTEX
  5
3BF
  8
CLUSTERS
 10
732551.91865399992
 20
4560052.0446099993
 30
0.0
  0
VERTEX
  5
3C0
  8
CLUSTERS
 10
732534.39153399994
 20
4560069.5504799979
 30
0.0
  0
VERTEX
  5
3C1
  8
CLUSTERS
 10
732451.37400699966
 20
4560152.4163600001
 30
0.0
  0
VERTEX
  5
3C2
  8
CLUSTERS
 10
732433.86243400001
 20
4560166.4195299987
 30
0.0
  0
VERTEX
  5
3C3
  8
CLUSTERS
 10
732347.421508
 20
4560252.7880999986
 30
0.0
  0
VERTEX
  5
3C4
  8
CLUSTERS
 10
732433.86243400001
 20
4560339.1165599991
 30
0.0
  0
VERTEX
  5
3C5
  8
CLUSTERS
 10
732412.88422752288
 20
4560436.7124416744
 30
0.0
  0
VERTEX
  5
3C6
  8
CLUSTERS
 10
732520.91454099596
 20
4560462.8743523089
 30
0.0
  0
VERTEX
  5
3C7
  8
CLUSTERS
 10
732651.86024759104
 20
4560377.8481109925
 30
0.0
  0
VERTEX
  5
3C8
  8
CLUSTERS
 10
732723.88040805259
 20
4560325.5242262054
 30
0.0
  0
VERTEX
  5
3C9
  8
CLUSTERS
 10
732786.07964415813
 20
4560178.3634312497
 30
0.0
  0
VERTEX
  5
3CA
  8
CLUSTERS
 10
732802.27161199995
 20
4560052.0446099993
 30
0.0
  0
VERTEX
  5
3CB
  8
CLUSTERS
 10
732835.97883600008
 20
4560051.4248700012
 30
0.0
  0
VERTEX
  5
3CC
  8
CLUSTERS
 10
732936.50793699978
 20
4560042.9123499999
 30
0.0
  0
VERTEX
  5
3CD
  8
CLUSTERS
 10
733027.79465699976
 20
4559951.6728600003
 30
0.0
  0
VERTEX
  5
3CE
  8
CLUSTERS
 10
732936.50793699978
 20
4559853.9578900002
 30
0.0
  0
VERTEX
  5
3CF
  8
CLUSTERS
 10
732835.97883600008
 20
4559851.9178799978
 30
0.0
  0
VERTEX
  5
3D0
  8
CLUSTERS
 10
732736.07790600008
 20
4559951.6728600003
 30
0.0
  0
VERTEX
  5
3D1
  8
CLUSTERS
 10
732735.44973499991
 20
4559985.59669
 30
0.0
  0
VERTEX
  5
3D2
  8
CLUSTERS
 10
732689.82542600005
 20
4559951.6728600003
 30
0.0
  0
VERTEX
  5
3D3
  8
CLUSTERS
 10
732723.93429
 20
4559851.3011200009
 30
0.0
  0
VERTEX
  5
3D4
  8
CLUSTERS
 10
732735.44973499991
 20
4559805.1314399997
 30
0.0
  0
VERTEX
  5
3D5
  8
CLUSTERS
 10
732789.29708699998
 20
4559750.9293699991
 30
0.0
  0
VERTEX
  5
3D6
  8
CLUSTERS
 10
732735.44973499991
 20
4559697.2422099989
 30
0.0
  0
VERTEX
  5
3D7
  8
CLUSTERS
 10
732634.92063499987
 20
4559664.58916
 30
0.0
  0
VERTEX
  5
3D8
  8
CLUSTERS
 10
732548.45218599995
 20
4559750.9293699991
 30
0.0
  0
SEQEND
  5
3D9
  8
CLUSTERS
  0
POLYLINE
  5
A2
  8
CLUSTERS
 66
     1
 10
0.0
 20
0.0
 30
0.0
 70
   129
  0
VERTEX
  5
3DA
  8
CLUSTERS
 10
735352.44920499995
 20
4560052.0446099993
 30
0.0
  0
VERTEX
  5
3DB
  8
CLUSTERS
 10
735449.73545000015
 20
4560149.1785899987
 30
0.0
  0
VERTEX
  5
3DC
  8
CLUSTERS
 10
735547.02168999985
 20
4560052.0446099993
 30
0.0
  0
VERTEX
  5
3DD
  8
CLUSTERS
 10
735449.73545000015
 20
4559954.9106599996
 30
0.0
  0
VERTEX
  5
3DE
  8
CLUSTERS
 10
735352.44920499995
 20
4560052.0446099993
 30
0.0
  0
SEQEND
  5
3DF
  8
CLUSTERS
  0
POLYLINE
  5
A3
  8
CLUSTERS
 66
     1
 10
0.0
 20
0.0
 30
0.0
 70
   129
  0
VERTEX
  5
3E0
  8
CLUSTERS
 10
732897.38364760391
 20
4560230.6872525187
 30
0.0
  0
VERTEX
  5
3E1
  8
CLUSTERS
 10
732939.9410349984
 20
4560269.9301819857
 30
0.0
  0
VERTEX
  5
3E2
  8
CLUSTERS
 10
733126.76263199979
 20
4560152.4163600001
 30
0.0
  0
VERTEX
  5
3E3
  8
CLUSTERS
 10
733038.15027855407
 20
4560096.6074128821
 30
0.0
  0
VERTEX
  5
3E4
  8
CLUSTERS
 10
732897.38364760391
 20
4560230.6872525187
 30
0.0
  0
SEQEND
  5
3E5
  8
CLUSTERS
  0
POLYLINE
  5
A4
  8
CLUSTERS
 66
     1
 10
0.0
 20
0.0
 30
0.0
 70
   129
  0
VERTEX
  5
3E6
  8
CLUSTERS
 10
736859.33141099988
 20
4560252.7880999986
 30
0.0
  0
VERTEX
  5
3E7
  8
CLUSTERS
 10
736957.67195800005
 20
4560351.0311699985
 30
0.0
  0
VERTEX
  5
3E8
  8
CLUSTERS
 10
736957.98358499981
 20
4560353.1598500004
 30
0.0
  0
VERTEX
  5
3E9
  8
CLUSTERS
 10
736980.90402499982
 20
4560453.5316000022
 30
0.0
  0
VERTEX
  5
3EA
  8
CLUSTERS
 10
737056.89974552928
 20
4560463.6496072486
 30
0.0
  0
VERTEX
  5
3EB
  8
CLUSTERS
 10
737089.73486158019
 20
4560448.104984629
 30
0.0
  0
VERTEX
  5
3EC
  8
CLUSTERS
 10
737100.10388577404
 20
4560356.5644221753
 30
0.0
  0
VERTEX
  5
3ED
  8
CLUSTERS
 10
737094.919373677
 20
4560268.4782062368
 30
0.0
  0
VERTEX
  5
3EE
  8
CLUSTERS
 10
737058.20105799998
 20
4560152.5774800014
 30
0.0
  0
VERTEX
  5
3EF
  8
CLUSTERS
 10
736957.67195800005
 20
4560154.5878099976
 30
0.0
  0
VERTEX
  5
3F0
  8
CLUSTERS
 10
736859.33141099988
 20
4560252.7880999986
 30
0.0
  0
SEQEND
  5
3F1
  8
CLUSTERS
  0
POLYLINE
  5
A5
  8
CLUSTERS
 66
     1
 10
0.0
 20
0.0
 30
0.0
 70
   129
  0
VERTEX
  5
3F2
  8
CLUSTERS
 10
737214.16277021717
 20
4560247.7520005507
 30
0.0
  0
VERTEX
  5
3F3
  8
CLUSTERS
 10
737191.69667836046
 20
4560347.9284925899
 30
0.0
  0
VERTEX
  5
3F4
  8
CLUSTERS
 10
737240.08533070225
 20
4560429.1060154932
 30
0.0
  0
VERTEX
  5
3F5
  8
CLUSTERS
 10
737259.25925899995
 20
4560544.2892399998
 30
0.0
  0
VERTEX
  5
3F6
  8
CLUSTERS
 10
737276.61870699981
 20
4560553.9033500003
 30
0.0
  0
VERTEX
  5
3F7
  8
CLUSTERS
 10
737359.78836000001
 20
4560636.9222999997
 30
0.0
  0
VERTEX
  5
3F8
  8
CLUSTERS
 10
737364.01642300014
 20
4560654.2750899997
 30
0.0
  0
VERTEX
  5
3F9
  8
CLUSTERS
 10
737460.31746000005
 20
4560750.5158699993
 30
0.0
  0
VERTEX
  5
3FA
  8
CLUSTERS
 10
737461.21538100019
 20
4560754.6468399977
 30
0.0
  0
VERTEX
  5
3FB
  8
CLUSTERS
 10
737560.84656099998
 20
4560854.109910001
 30
0.0
  0
VERTEX
  5
3FC
  8
CLUSTERS
 10
737660.46409100015
 20
4560754.6468399977
 30
0.0
  0
VERTEX
  5
3FD
  8
CLUSTERS
 10
737560.84656099998
 20
4560655.174279999
 30
0.0
  0
VERTEX
  5
3FE
  8
CLUSTERS
 10
737556.697193
 20
4560654.2750899997
 30
0.0
  0
VERTEX
  5
3FF
  8
CLUSTERS
 10
737549.28535999998
 20
4560553.9033500003
 30
0.0
  0
VERTEX
  5
400
  8
CLUSTERS
 10
737560.84656099998
 20
4560535.6730399989
 30
0.0
  0
VERTEX
  5
401
  8
CLUSTERS
 10
737642.99546899996
 20
4560453.5316000022
 30
0.0
  0
VERTEX
  5
402
  8
CLUSTERS
 10
737560.84656099998
 20
4560371.3273800006
 30
0.0
  0
VERTEX
  5
403
  8
CLUSTERS
 10
737558.25650600006
 20
4560353.1598500004
 30
0.0
  0
VERTEX
  5
404
  8
CLUSTERS
 10
737460.31746000005
 20
4560255.34925
 30
0.0
  0
VERTEX
  5
405
  8
CLUSTERS
 10
737458.80481300002
 20
4560252.7880999986
 30
0.0
  0
VERTEX
  5
406
  8
CLUSTERS
 10
737359.78836000001
 20
4560153.9462700002
 30
0.0
  0
VERTEX
  5
407
  8
CLUSTERS
 10
737307.48373350257
 20
4560190.7550931433
 30
0.0
  0
VERTEX
  5
408
  8
CLUSTERS
 10
737214.16277021717
 20
4560247.7520005507
 30
0.0
  0
SEQEND
  5
409
  8
CLUSTERS
  0
POLYLINE
  5
A6
  8
CLUSTERS
 66
     1
 10
0.0
 20
0.0
 30
0.0
 70
   129
  0
VERTEX
  5
40A
  8
CLUSTERS
 10
736735.31619394454
 20
4560468.9014945719
 30
0.0
  0
VERTEX
  5
40B
  8
CLUSTERS
 10
736827.05380594474
 20
4560560.4967745692
 30
0.0
  0
VERTEX
  5
40C
  8
CLUSTERS
 10
736866.8016047912
 20
4560413.5613928745
 30
0.0
  0
VERTEX
  5
40D
  8
CLUSTERS
 10
736827.05380594474
 20
4560377.2905645696
 30
0.0
  0
VERTEX
  5
40E
  8
CLUSTERS
 10
736735.31619394454
 20
4560468.9014945719
 30
0.0
  0
SEQEND
  5
40F
  8
CLUSTERS
  0
POLYLINE
  5
A7
  8
CLUSTERS
 66
     1
 10
0.0
 20
0.0
 30
0.0
 70
   129
  0
VERTEX
  5
410
  8
CLUSTERS
 10
729795.76172977185
 20
4560658.639297151
 30
0.0
  0
VERTEX
  5
411
  8
CLUSTERS
 10
729875.62982177152
 20
4560738.6262771497
 30
0.0
  0
VERTEX
  5
412
  8
CLUSTERS
 10
729974.97333377169
 20
4560658.639297151
 30
0.0
  0
VERTEX
  5
413
  8
CLUSTERS
 10
729875.62982177152
 20
4560578.4822271522
 30
0.0
  0
VERTEX
  5
414
  8
CLUSTERS
 10
729795.76172977185
 20
4560658.639297151
 30
0.0
  0
SEQEND
  5
415
  8
CLUSTERS
  0
POLYLINE
  5
A8
  8
CLUSTERS
 66
     1
 10
0.0
 20
0.0
 30
0.0
 70
   129
  0
VERTEX
  5
416
  8
CLUSTERS
 10
732853.58486900013
 20
4560754.6468399977
 30
0.0
  0
VERTEX
  5
417
  8
CLUSTERS
 10
732936.50793699978
 20
4560837.4680899987
 30
0.0
  0
VERTEX
  5
418
  8
CLUSTERS
 10
732956.5823580001
 20
4560855.0185900005
 30
0.0
  0
VERTEX
  5
419
  8
CLUSTERS
 10
733037.03703700006
 20
4560935.3350999989
 30
0.0
  0
VERTEX
  5
41A
  8
CLUSTERS
 10
733137.56613799999
 20
4560944.6059400002
 30
0.0
  0
VERTEX
  5
41B
  8
CLUSTERS
 10
733238.09523800015
 20
4560946.8398599997
 30
0.0
  0
VERTEX
  5
41C
  8
CLUSTERS
 10
733330.0684760001
 20
4560855.0185900005
 30
0.0
  0
VERTEX
  5
41D
  8
CLUSTERS
 10
733309.86276166106
 20
4560724.4935856815
 30
0.0
  0
VERTEX
  5
41E
  8
CLUSTERS
 10
733191.36296699976
 20
4560754.6468399977
 30
0.0
  0
VERTEX
  5
41F
  8
CLUSTERS
 10
733137.56613799999
 20
4560701.0385400001
 30
0.0
  0
VERTEX
  5
420
  8
CLUSTERS
 10
733037.03703700006
 20
4560701.0162699996
 30
0.0
  0
VERTEX
  5
421
  8
CLUSTERS
 10
732936.50793699978
 20
4560671.8381500002
 30
0.0
  0
VERTEX
  5
422
  8
CLUSTERS
 10
732853.58486900013
 20
4560754.6468399977
 30
0.0
  0
SEQEND
  5
423
  8
CLUSTERS
  0
POLYLINE
  5
A9
  8
CLUSTERS
 66
     1
 10
0.0
 20
0.0
 30
0.0
 70
   129
  0
VERTEX
  5
424
  8
CLUSTERS
 10
732131.22483899991
 20
4560855.0185900005
 30
0.0
  0
VERTEX
  5
425
  8
CLUSTERS
 10
732046.14379999973
 20
4560955.3903299998
 30
0.0
  0
VERTEX
  5
426
  8
CLUSTERS
 10
732132.27513199998
 20
4561041.4079900002
 30
0.0
  0
VERTEX
  5
427
  8
CLUSTERS
 10
732218.72197600023
 20
4560955.3903299998
 30
0.0
  0
VERTEX
  5
428
  8
CLUSTERS
 10
732232.80423300015
 20
4560948.5241900003
 30
0.0
  0
VERTEX
  5
429
  8
CLUSTERS
 10
732255.79252100026
 20
4560955.3903299998
 30
0.0
  0
VERTEX
  5
42A
  8
CLUSTERS
 10
732333.33333300008
 20
4561032.3335899999
 30
0.0
  0
VERTEX
  5
42B
  8
CLUSTERS
 10
732410.53605600004
 20
4560955.3903299998
 30
0.0
  0
VERTEX
  5
42C
  8
CLUSTERS
 10
732418.4122599999
 20
4560855.0185900005
 30
0.0
  0
VERTEX
  5
42D
  8
CLUSTERS
 10
732333.33333300008
 20
4560770.115989998
 30
0.0
  0
VERTEX
  5
42E
  8
CLUSTERS
 10
732232.80423300015
 20
4560761.5949799977
 30
0.0
  0
VERTEX
  5
42F
  8
CLUSTERS
 10
732132.27513199998
 20
4560853.9679699987
 30
0.0
  0
VERTEX
  5
430
  8
CLUSTERS
 10
732131.22483899991
 20
4560855.0185900005
 30
0.0
  0
SEQEND
  5
431
  8
CLUSTERS
  0
POLYLINE
  5
AA
  8
CLUSTERS
 66
     1
 10
0.0
 20
0.0
 30
0.0
 70
   129
  0
VERTEX
  5
432
  8
CLUSTERS
 10
732462.94973500003
 20
4560855.0185900005
 30
0.0
  0
VERTEX
  5
433
  8
CLUSTERS
 10
732455.06401499978
 20
4560955.3903299998
 30
0.0
  0
VERTEX
  5
434
  8
CLUSTERS
 10
732534.39153399994
 20
4561034.4492600001
 30
0.0
  0
VERTEX
  5
435
  8
CLUSTERS
 10
732634.92063499987
 20
4561016.7486899998
 30
0.0
  0
VERTEX
  5
436
  8
CLUSTERS
 10
732696.39853399992
 20
4560955.3903299998
 30
0.0
  0
VERTEX
  5
437
  8
CLUSTERS
 10
732676.89558399993
 20
4560855.0185900005
 30
0.0
  0
VERTEX
  5
438
  8
CLUSTERS
 10
732634.92063499987
 20
4560813.1207399983
 30
0.0
  0
VERTEX
  5
439
  8
CLUSTERS
 10
732534.39153399994
 20
4560783.9304099986
 30
0.0
  0
VERTEX
  5
43A
  8
CLUSTERS
 10
732462.94973500003
 20
4560855.0185900005
 30
0.0
  0
SEQEND
  5
43B
  8
CLUSTERS
  0
POLYLINE
  5
AB
  8
CLUSTERS
 66
     1
 10
0.0
 20
0.0
 30
0.0
 70
   129
  0
VERTEX
  5
43C
  8
CLUSTERS
 10
737119.03506721742
 20
4560964.5167318881
 30
0.0
  0
VERTEX
  5
43D
  8
CLUSTERS
 10
737214.16277021717
 20
4561059.4909518892
 30
0.0
  0
VERTEX
  5
43E
  8
CLUSTERS
 10
737309.2873222176
 20
4560964.5167318881
 30
0.0
  0
VERTEX
  5
43F
  8
CLUSTERS
 10
737214.16277021717
 20
4560869.5370318871
 30
0.0
  0
VERTEX
  5
440
  8
CLUSTERS
 10
737119.03506721742
 20
4560964.5167318881
 30
0.0
  0
SEQEND
  5
441
  8
CLUSTERS
  0
POLYLINE
  5
AC
  8
CLUSTERS
 66
     1
 10
0.0
 20
0.0
 30
0.0
 70
   129
  0
VERTEX
  5
442
  8
CLUSTERS
 10
733660.32115399989
 20
4561055.7620799998
 30
0.0
  0
VERTEX
  5
443
  8
CLUSTERS
 10
733740.7407409997
 20
4561136.0585599989
 30
0.0
  0
VERTEX
  5
444
  8
CLUSTERS
 10
733841.26984099997
 20
4561144.0229999991
 30
0.0
  0
VERTEX
  5
445
  8
CLUSTERS
 10
733929.67123899993
 20
4561055.7620799998
 30
0.0
  0
VERTEX
  5
446
  8
CLUSTERS
 10
733841.26984099997
 20
4560967.4978900002
 30
0.0
  0
VERTEX
  5
447
  8
CLUSTERS
 10
733740.7407409997
 20
4560975.4619300002
 30
0.0
  0
VERTEX
  5
448
  8
CLUSTERS
 10
733660.32115399989
 20
4561055.7620799998
 30
0.0
  0
SEQEND
  5
449
  8
CLUSTERS
  0
POLYLINE
  5
AD
  8
CLUSTERS
 66
     1
 10
0.0
 20
0.0
 30
0.0
 70
   129
  0
VERTEX
  5
44A
  8
CLUSTERS
 10
732843.18059600005
 20
4561156.1338299988
 30
0.0
  0
VERTEX
  5
44B
  8
CLUSTERS
 10
732835.97883600008
 20
4561202.6550500002
 30
0.0
  0
VERTEX
  5
44C
  8
CLUSTERS
 10
732782.22631499998
 20
4561256.5055799987
 30
0.0
  0
VERTEX
  5
44D
  8
CLUSTERS
 10
732835.97883600008
 20
4561310.3006999977
 30
0.0
  0
VERTEX
  5
44E
  8
CLUSTERS
 10
732936.50793699978
 20
4561352.9972899994
 30
0.0
  0
VERTEX
  5
44F
  8
CLUSTERS
 10
732940.70020899992
 20
4561356.87732
 30
0.0
  0
VERTEX
  5
450
  8
CLUSTERS
 10
732936.50793699978
 20
4561363.7130500004
 30
0.0
  0
VERTEX
  5
451
  8
CLUSTERS
 10
732840.09326300025
 20
4561457.2490699999
 30
0.0
  0
VERTEX
  5
452
  8
CLUSTERS
 10
732875.30886031257
 20
4561576.7007140322
 30
0.0
  0
VERTEX
  5
453
  8
CLUSTERS
 10
732936.50793699978
 20
4561558.4493999984
 30
0.0
  0
VERTEX
  5
454
  8
CLUSTERS
 10
733037.03703700006
 20
4561644.7666199999
 30
0.0
  0
VERTEX
  5
455
  8
CLUSTERS
 10
733124.44102999987
 20
4561557.6208199998
 30
0.0
  0
VERTEX
  5
456
  8
CLUSTERS
 10
733137.56613799999
 20
4561551.2012400003
 30
0.0
  0
VERTEX
  5
457
  8
CLUSTERS
 10
733238.09523800015
 20
4561540.1228200002
 30
0.0
  0
VERTEX
  5
458
  8
CLUSTERS
 10
733321.09210699983
 20
4561457.2490699999
 30
0.0
  0
VERTEX
  5
459
  8
CLUSTERS
 10
733238.09523800015
 20
4561374.1095399987
 30
0.0
  0
VERTEX
  5
45A
  8
CLUSTERS
 10
733234.59667500015
 20
4561356.87732
 30
0.0
  0
VERTEX
  5
45B
  8
CLUSTERS
 10
733203.30301100016
 20
4561256.5055799987
 30
0.0
  0
VERTEX
  5
45C
  8
CLUSTERS
 10
733137.56613799999
 20
4561187.39702
 30
0.0
  0
VERTEX
  5
45D
  8
CLUSTERS
 10
733139.26998113282
 20
4561094.8064000551
 30
0.0
  0
VERTEX
  5
45E
  8
CLUSTERS
 10
733037.03703700006
 20
4561074.629519999
 30
0.0
  0
VERTEX
  5
45F
  8
CLUSTERS
 10
732936.50793699978
 20
4561062.9512899993
 30
0.0
  0
VERTEX
  5
460
  8
CLUSTERS
 10
732843.18059600005
 20
4561156.1338299988
 30
0.0
  0
SEQEND
  5
461
  8
CLUSTERS
  0
POLYLINE
  5
AE
  8
CLUSTERS
 66
     1
 10
0.0
 20
0.0
 30
0.0
 70
   129
  0
VERTEX
  5
462
  8
CLUSTERS
 10
740681.73769100022
 20
4561557.6208199998
 30
0.0
  0
VERTEX
  5
463
  8
CLUSTERS
 10
740777.77777799987
 20
4561651.8277200004
 30
0.0
  0
VERTEX
  5
464
  8
CLUSTERS
 10
740878.30687800003
 20
4561630.31054
 30
0.0
  0
VERTEX
  5
465
  8
CLUSTERS
 10
740950.76446700003
 20
4561557.6208199998
 30
0.0
  0
VERTEX
  5
466
  8
CLUSTERS
 10
740878.30687800003
 20
4561484.6139499983
 30
0.0
  0
VERTEX
  5
467
  8
CLUSTERS
 10
740777.77777799987
 20
4561463.0848399997
 30
0.0
  0
VERTEX
  5
468
  8
CLUSTERS
 10
740681.73769100022
 20
4561557.6208199998
 30
0.0
  0
SEQEND
  5
469
  8
CLUSTERS
  0
POLYLINE
  5
AF
  8
CLUSTERS
 66
     1
 10
0.0
 20
0.0
 30
0.0
 70
   129
  0
VERTEX
  5
46A
  8
CLUSTERS
 10
737480.32079199993
 20
4561959.1078099981
 30
0.0
  0
VERTEX
  5
46B
  8
CLUSTERS
 10
737460.31746000005
 20
4561978.5355399977
 30
0.0
  0
VERTEX
  5
46C
  8
CLUSTERS
 10
737379.29986599996
 20
4562059.4795500003
 30
0.0
  0
VERTEX
  5
46D
  8
CLUSTERS
 10
737406.50467499986
 20
4562159.8513000011
 30
0.0
  0
VERTEX
  5
46E
  8
CLUSTERS
 10
737460.31746000005
 20
4562213.6316400003
 30
0.0
  0
VERTEX
  5
46F
  8
CLUSTERS
 10
737560.84656099998
 20
4562252.8754500002
 30
0.0
  0
VERTEX
  5
470
  8
CLUSTERS
 10
737661.37566100003
 20
4562236.9674899997
 30
0.0
  0
VERTEX
  5
471
  8
CLUSTERS
 10
737738.62386699999
 20
4562159.8513000011
 30
0.0
  0
VERTEX
  5
472
  8
CLUSTERS
 10
737759.89462100004
 20
4562059.4795500003
 30
0.0
  0
VERTEX
  5
473
  8
CLUSTERS
 10
737661.37566100003
 20
4561961.0826700004
 30
0.0
  0
VERTEX
  5
474
  8
CLUSTERS
 10
737641.80699800013
 20
4561959.1078099981
 30
0.0
  0
VERTEX
  5
475
  8
CLUSTERS
 10
737560.84656099998
 20
4561878.7586899977
 30
0.0
  0
VERTEX
  5
476
  8
CLUSTERS
 10
737480.32079199993
 20
4561959.1078099981
 30
0.0
  0
SEQEND
  5
477
  8
CLUSTERS
  0
POLYLINE
  5
B0
  8
CLUSTERS
 66
     1
 10
0.0
 20
0.0
 30
0.0
 70
   129
  0
VERTEX
  5
478
  8
CLUSTERS
 10
734481.46373900003
 20
4562059.4795500003
 30
0.0
  0
VERTEX
  5
479
  8
CLUSTERS
 10
734453.45688199985
 20
4562159.8513000011
 30
0.0
  0
VERTEX
  5
47A
  8
CLUSTERS
 10
734357.01096627954
 20
4562160.601922431
 30
0.0
  0
VERTEX
  5
47B
  8
CLUSTERS
 10
734343.9153440001
 20
4562230.1666200003
 30
0.0
  0
VERTEX
  5
47C
  8
CLUSTERS
 10
734313.81865300005
 20
4562260.2230500001
 30
0.0
  0
VERTEX
  5
47D
  8
CLUSTERS
 10
734343.9153440001
 20
4562290.2735700002
 30
0.0
  0
VERTEX
  5
47E
  8
CLUSTERS
 10
734444.44444399991
 20
4562313.72731
 30
0.0
  0
VERTEX
  5
47F
  8
CLUSTERS
 10
734498.06519200013
 20
4562260.2230500001
 30
0.0
  0
VERTEX
  5
480
  8
CLUSTERS
 10
734544.97354499996
 20
4562251.2214899994
 30
0.0
  0
VERTEX
  5
481
  8
CLUSTERS
 10
734636.48831699975
 20
4562159.8513000011
 30
0.0
  0
VERTEX
  5
482
  8
CLUSTERS
 10
734608.48480099998
 20
4562059.4795500003
 30
0.0
  0
VERTEX
  5
483
  8
CLUSTERS
 10
734544.97354499996
 20
4561996.0742199989
 30
0.0
  0
VERTEX
  5
484
  8
CLUSTERS
 10
734481.46373900003
 20
4562059.4795500003
 30
0.0
  0
SEQEND
  5
485
  8
CLUSTERS
  0
POLYLINE
  5
B1
  8
CLUSTERS
 66
     1
 10
0.0
 20
0.0
 30
0.0
 70
   129
  0
VERTEX
  5
486
  8
CLUSTERS
 10
732076.181247
 20
4562159.8513000011
 30
0.0
  0
VERTEX
  5
487
  8
CLUSTERS
 10
732132.27513199998
 20
4562215.86821
 30
0.0
  0
VERTEX
  5
488
  8
CLUSTERS
 10
732188.49577499996
 20
4562159.8513000011
 30
0.0
  0
VERTEX
  5
489
  8
CLUSTERS
 10
732132.27513199998
 20
4562103.7713400004
 30
0.0
  0
VERTEX
  5
48A
  8
CLUSTERS
 10
732076.181247
 20
4562159.8513000011
 30
0.0
  0
SEQEND
  5
48B
  8
CLUSTERS
  0
POLYLINE
  5
B2
  8
CLUSTERS
 66
     1
 10
0.0
 20
0.0
 30
0.0
 70
   129
  0
VERTEX
  5
48C
  8
CLUSTERS
 10
737461.78415399999
 20
4562460.9665400004
 30
0.0
  0
VERTEX
  5
48D
  8
CLUSTERS
 10
737461.50842900015
 20
4562561.3382900003
 30
0.0
  0
VERTEX
  5
48E
  8
CLUSTERS
 10
737560.84656099998
 20
4562660.4713599999
 30
0.0
  0
VERTEX
  5
48F
  8
CLUSTERS
 10
737660.14384399983
 20
4562561.3382900003
 30
0.0
  0
VERTEX
  5
490
  8
CLUSTERS
 10
737659.86835999996
 20
4562460.9665400004
 30
0.0
  0
VERTEX
  5
491
  8
CLUSTERS
 10
737560.84656099998
 20
4562362.0743199997
 30
0.0
  0
VERTEX
  5
492
  8
CLUSTERS
 10
737461.78415399999
 20
4562460.9665400004
 30
0.0
  0
SEQEND
  5
493
  8
CLUSTERS
  0
POLYLINE
  5
B3
  8
CLUSTERS
 66
     1
 10
0.0
 20
0.0
 30
0.0
 70
   129
  0
VERTEX
  5
494
  8
CLUSTERS
 10
737764.69456600014
 20
4562460.9665400004
 30
0.0
  0
VERTEX
  5
495
  8
CLUSTERS
 10
737862.43386199989
 20
4562558.4863800025
 30
0.0
  0
VERTEX
  5
496
  8
CLUSTERS
 10
737960.10341900005
 20
4562460.9665400004
 30
0.0
  0
VERTEX
  5
497
  8
CLUSTERS
 10
737862.43386199989
 20
4562363.3927199999
 30
0.0
  0
VERTEX
  5
498
  8
CLUSTERS
 10
737764.69456600014
 20
4562460.9665400004
 30
0.0
  0
SEQEND
  5
499
  8
CLUSTERS
  0
POLYLINE
  5
B4
  8
CLUSTERS
 66
     1
 10
0.0
 20
0.0
 30
0.0
 70
   129
  0
VERTEX
  5
49A
  8
CLUSTERS
 10
738771.034338
 20
4562460.9665400004
 30
0.0
  0
VERTEX
  5
49B
  8
CLUSTERS
 10
738767.19576699997
 20
4562495.7716600001
 30
0.0
  0
VERTEX
  5
49C
  8
CLUSTERS
 10
738703.37623799988
 20
4562561.3382900003
 30
0.0
  0
VERTEX
  5
49D
  8
CLUSTERS
 10
738695.42779099999
 20
4562661.7100399993
 30
0.0
  0
VERTEX
  5
49E
  8
CLUSTERS
 10
738666.66666699992
 20
4562674.006529999
 30
0.0
  0
VERTEX
  5
49F
  8
CLUSTERS
 10
738578.77894400014
 20
4562762.0817799978
 30
0.0
  0
VERTEX
  5
4A0
  8
CLUSTERS
 10
738666.66666699992
 20
4562850.1589699993
 30
0.0
  0
VERTEX
  5
4A1
  8
CLUSTERS
 10
738677.288283
 20
4562862.4535299996
 30
0.0
  0
VERTEX
  5
4A2
  8
CLUSTERS
 10
738767.19576699997
 20
4562951.8475199984
 30
0.0
  0
VERTEX
  5
4A3
  8
CLUSTERS
 10
738867.72486800002
 20
4562953.4278300004
 30
0.0
  0
VERTEX
  5
4A4
  8
CLUSTERS
 10
738893.43822899996
 20
4562962.8252800005
 30
0.0
  0
VERTEX
  5
4A5
  8
CLUSTERS
 10
738968.25396799995
 20
4563036.9212800004
 30
0.0
  0
VERTEX
  5
4A6
  8
CLUSTERS
 10
739042.44811600004
 20
4562962.8252800005
 30
0.0
  0
VERTEX
  5
4A7
  8
CLUSTERS
 10
738968.25396799995
 20
4562888.2342899991
 30
0.0
  0
VERTEX
  5
4A8
  8
CLUSTERS
 10
738958.79368399992
 20
4562862.4535299996
 30
0.0
  0
VERTEX
  5
4A9
  8
CLUSTERS
 10
738957.87951600016
 20
4562762.0817799978
 30
0.0
  0
VERTEX
  5
4AA
  8
CLUSTERS
 10
738867.72486800002
 20
4562671.7770300014
 30
0.0
  0
VERTEX
  5
4AB
  8
CLUSTERS
 10
738838.80366199964
 20
4562661.7100399993
 30
0.0
  0
VERTEX
  5
4AC
  8
CLUSTERS
 10
738831.49136100023
 20
4562561.3382900003
 30
0.0
  0
VERTEX
  5
4AD
  8
CLUSTERS
 10
738867.72486800002
 20
4562557.2791199982
 30
0.0
  0
VERTEX
  5
4AE
  8
CLUSTERS
 10
738964.14036699967
 20
4562460.9665400004
 30
0.0
  0
VERTEX
  5
4AF
  8
CLUSTERS
 10
738867.72486800002
 20
4562364.5487599988
 30
0.0
  0
VERTEX
  5
4B0
  8
CLUSTERS
 10
738771.034338
 20
4562460.9665400004
 30
0.0
  0
SEQEND
  5
4B1
  8
CLUSTERS
  0
POLYLINE
  5
B5
  8
CLUSTERS
 66
     1
 10
0.0
 20
0.0
 30
0.0
 70
   129
  0
VERTEX
  5
4B2
  8
CLUSTERS
 10
729526.66951799975
 20
4562561.3382900003
 30
0.0
  0
VERTEX
  5
4B3
  8
CLUSTERS
 10
729548.1997199998
 20
4562661.7100399993
 30
0.0
  0
VERTEX
  5
4B4
  8
CLUSTERS
 10
729619.04761899996
 20
4562732.4296699986
 30
0.0
  0
VERTEX
  5
4B5
  8
CLUSTERS
 10
729693.63602600014
 20
4562661.7100399993
 30
0.0
  0
VERTEX
  5
4B6
  8
CLUSTERS
 10
729715.54634999984
 20
4562561.3382900003
 30
0.0
  0
VERTEX
  5
4B7
  8
CLUSTERS
 10
729619.04761899996
 20
4562468.1398599986
 30
0.0
  0
VERTEX
  5
4B8
  8
CLUSTERS
 10
729526.66951799975
 20
4562561.3382900003
 30
0.0
  0
SEQEND
  5
4B9
  8
CLUSTERS
  0
POLYLINE
  5
B6
  8
CLUSTERS
 66
     1
 10
0.0
 20
0.0
 30
0.0
 70
   129
  0
VERTEX
  5
4BA
  8
CLUSTERS
 10
738333.70630317659
 20
4562515.6497998247
 30
0.0
  0
VERTEX
  5
4BB
  8
CLUSTERS
 10
738379.77910917648
 20
4562561.5943498248
 30
0.0
  0
VERTEX
  5
4BC
  8
CLUSTERS
 10
738425.80395217682
 20
4562515.6497998247
 30
0.0
  0
VERTEX
  5
4BD
  8
CLUSTERS
 10
738379.77910917648
 20
4562455.8356498256
 30
0.0
  0
VERTEX
  5
4BE
  8
CLUSTERS
 10
738333.70630317659
 20
4562515.6497998247
 30
0.0
  0
SEQEND
  5
4BF
  8
CLUSTERS
  0
POLYLINE
  5
B7
  8
CLUSTERS
 66
     1
 10
0.0
 20
0.0
 30
0.0
 70
   129
  0
VERTEX
  5
4C0
  8
CLUSTERS
 10
731047.05928799999
 20
4562661.7100399993
 30
0.0
  0
VERTEX
  5
4C1
  8
CLUSTERS
 10
731126.98412699997
 20
4562741.5612900006
 30
0.0
  0
VERTEX
  5
4C2
  8
CLUSTERS
 10
731207.63187299995
 20
4562661.7100399993
 30
0.0
  0
VERTEX
  5
4C3
  8
CLUSTERS
 10
731126.98412699997
 20
4562581.5778599987
 30
0.0
  0
VERTEX
  5
4C4
  8
CLUSTERS
 10
731047.05928799999
 20
4562661.7100399993
 30
0.0
  0
SEQEND
  5
4C5
  8
CLUSTERS
  0
POLYLINE
  5
B8
  8
CLUSTERS
 66
     1
 10
0.0
 20
0.0
 30
0.0
 70
   129
  0
VERTEX
  5
4C6
  8
CLUSTERS
 10
731747.07471299986
 20
4562661.7100399993
 30
0.0
  0
VERTEX
  5
4C7
  8
CLUSTERS
 10
731789.46128599998
 20
4562762.0817799978
 30
0.0
  0
VERTEX
  5
4C8
  8
CLUSTERS
 10
731830.68783100008
 20
4562803.2160599977
 30
0.0
  0
VERTEX
  5
4C9
  8
CLUSTERS
 10
731872.12366599997
 20
4562762.0817799978
 30
0.0
  0
VERTEX
  5
4CA
  8
CLUSTERS
 10
731914.64785100007
 20
4562661.7100399993
 30
0.0
  0
VERTEX
  5
4CB
  8
CLUSTERS
 10
731830.68783100008
 20
4562578.0380499987
 30
0.0
  0
VERTEX
  5
4CC
  8
CLUSTERS
 10
731747.07471299986
 20
4562661.7100399993
 30
0.0
  0
SEQEND
  5
4CD
  8
CLUSTERS
  0
POLYLINE
  5
B9
  8
CLUSTERS
 66
     1
 10
0.0
 20
0.0
 30
0.0
 70
   129
  0
VERTEX
  5
4CE
  8
CLUSTERS
 10
730123.90450941818
 20
4562746.1382119618
 30
0.0
  0
VERTEX
  5
4CF
  8
CLUSTERS
 10
730066.76200041815
 20
4562846.5099619627
 30
0.0
  0
VERTEX
  5
4D0
  8
CLUSTERS
 10
730080.80558141787
 20
4562946.8817119636
 30
0.0
  0
VERTEX
  5
4D1
  8
CLUSTERS
 10
730166.85664441821
 20
4563031.6109219631
 30
0.0
  0
VERTEX
  5
4D2
  8
CLUSTERS
 10
730258.43643741822
 20
4562946.8817119636
 30
0.0
  0
VERTEX
  5
4D3
  8
CLUSTERS
 10
730267.38574441825
 20
4562934.7639219631
 30
0.0
  0
VERTEX
  5
4D4
  8
CLUSTERS
 10
730363.01966041827
 20
4562846.5099619627
 30
0.0
  0
VERTEX
  5
4D5
  8
CLUSTERS
 10
730367.91484541818
 20
4562782.6315019634
 30
0.0
  0
VERTEX
  5
4D6
  8
CLUSTERS
 10
730377.70327941806
 20
4562746.1382119618
 30
0.0
  0
VERTEX
  5
4D7
  8
CLUSTERS
 10
730367.91484541818
 20
4562736.3206419609
 30
0.0
  0
VERTEX
  5
4D8
  8
CLUSTERS
 10
730267.38574441825
 20
4562671.5608019633
 30
0.0
  0
VERTEX
  5
4D9
  8
CLUSTERS
 10
730166.85664441821
 20
4562706.6099419622
 30
0.0
  0
VERTEX
  5
4DA
  8
CLUSTERS
 10
730123.90450941818
 20
4562746.1382119618
 30
0.0
  0
SEQEND
  5
4DB
  8
CLUSTERS
  0
POLYLINE
  5
BA
  8
CLUSTERS
 66
     1
 10
0.0
 20
0.0
 30
0.0
 70
   129
  0
VERTEX
  5
4DC
  8
CLUSTERS
 10
733088.27425380505
 20
4562712.8792633973
 30
0.0
  0
VERTEX
  5
4DD
  8
CLUSTERS
 10
733088.3629038051
 20
4562813.2510133972
 30
0.0
  0
VERTEX
  5
4DE
  8
CLUSTERS
 10
733118.15316780517
 20
4562842.9925133977
 30
0.0
  0
VERTEX
  5
4DF
  8
CLUSTERS
 10
733148.0056498053
 20
4562813.2510133972
 30
0.0
  0
VERTEX
  5
4E0
  8
CLUSTERS
 10
733148.08981380507
 20
4562712.8792633973
 30
0.0
  0
VERTEX
  5
4E1
  8
CLUSTERS
 10
733118.15316780517
 20
4562683.028393399
 30
0.0
  0
VERTEX
  5
4E2
  8
CLUSTERS
 10
733088.27425380505
 20
4562712.8792633973
 30
0.0
  0
SEQEND
  5
4E3
  8
CLUSTERS
  0
POLYLINE
  5
BB
  8
CLUSTERS
 66
     1
 10
0.0
 20
0.0
 30
0.0
 70
   129
  0
VERTEX
  5
4E4
  8
CLUSTERS
 10
733292.27273700002
 20
4562762.0817799978
 30
0.0
  0
VERTEX
  5
4E5
  8
CLUSTERS
 10
733277.24996199983
 20
4562862.4535299996
 30
0.0
  0
VERTEX
  5
4E6
  8
CLUSTERS
 10
733338.62433899986
 20
4562923.6815200001
 30
0.0
  0
VERTEX
  5
4E7
  8
CLUSTERS
 10
733439.1534389999
 20
4562937.6786099989
 30
0.0
  0
VERTEX
  5
4E8
  8
CLUSTERS
 10
733514.53084699984
 20
4562862.4535299996
 30
0.0
  0
VERTEX
  5
4E9
  8
CLUSTERS
 10
733439.1534389999
 20
4562781.3375199996
 30
0.0
  0
VERTEX
  5
4EA
  8
CLUSTERS
 10
733393.52020999999
 20
4562762.0817799978
 30
0.0
  0
VERTEX
  5
4EB
  8
CLUSTERS
 10
733338.62433899986
 20
4562715.8399799997
 30
0.0
  0
VERTEX
  5
4EC
  8
CLUSTERS
 10
733292.27273700002
 20
4562762.0817799978
 30
0.0
  0
SEQEND
  5
4ED
  8
CLUSTERS
  0
POLYLINE
  5
BC
  8
CLUSTERS
 66
     1
 10
0.0
 20
0.0
 30
0.0
 70
   129
  0
VERTEX
  5
4EE
  8
CLUSTERS
 10
737880.93040100008
 20
4562762.0817799978
 30
0.0
  0
VERTEX
  5
4EF
  8
CLUSTERS
 10
737962.96296300006
 20
4562843.9108999986
 30
0.0
  0
VERTEX
  5
4F0
  8
CLUSTERS
 10
738060.27948300005
 20
4562762.0817799978
 30
0.0
  0
VERTEX
  5
4F1
  8
CLUSTERS
 10
737962.96296300006
 20
4562680.1666399976
 30
0.0
  0
VERTEX
  5
4F2
  8
CLUSTERS
 10
737880.93040100008
 20
4562762.0817799978
 30
0.0
  0
SEQEND
  5
4F3
  8
CLUSTERS
  0
POLYLINE
  5
BD
  8
CLUSTERS
 66
     1
 10
0.0
 20
0.0
 30
0.0
 70
   129
  0
VERTEX
  5
4F4
  8
CLUSTERS
 10
735017.44397000014
 20
4562862.4535299996
 30
0.0
  0
VERTEX
  5
4F5
  8
CLUSTERS
 10
734947.08994700003
 20
4562903.7943800017
 30
0.0
  0
VERTEX
  5
4F6
  8
CLUSTERS
 10
734887.98428199976
 20
4562962.8252800005
 30
0.0
  0
VERTEX
  5
4F7
  8
CLUSTERS
 10
734888.01027199987
 20
4563063.1970299995
 30
0.0
  0
VERTEX
  5
4F8
  8
CLUSTERS
 10
734947.08994700003
 20
4563122.1777399993
 30
0.0
  0
VERTEX
  5
4F9
  8
CLUSTERS
 10
735014.05846699979
 20
4563063.1970299995
 30
0.0
  0
VERTEX
  5
4FA
  8
CLUSTERS
 10
735030.85434900003
 20
4562962.8252800005
 30
0.0
  0
VERTEX
  5
4FB
  8
CLUSTERS
 10
735047.61904800008
 20
4562922.6894399989
 30
0.0
  0
VERTEX
  5
4FC
  8
CLUSTERS
 10
735148.14814800001
 20
4562946.4809399992
 30
0.0
  0
VERTEX
  5
4FD
  8
CLUSTERS
 10
735232.30899999978
 20
4562862.4535299996
 30
0.0
  0
VERTEX
  5
4FE
  8
CLUSTERS
 10
735148.14814800001
 20
4562778.4129800014
 30
0.0
  0
VERTEX
  5
4FF
  8
CLUSTERS
 10
735047.61904800008
 20
4562832.3387699984
 30
0.0
  0
VERTEX
  5
500
  8
CLUSTERS
 10
735017.44397000014
 20
4562862.4535299996
 30
0.0
  0
SEQEND
  5
501
  8
CLUSTERS
  0
POLYLINE
  5
BE
  8
CLUSTERS
 66
     1
 10
0.0
 20
0.0
 30
0.0
 70
   129
  0
VERTEX
  5
502
  8
CLUSTERS
 10
737925.63058399991
 20
4563565.0557599999
 30
0.0
  0
VERTEX
  5
503
  8
CLUSTERS
 10
737894.268209
 20
4563665.4275099998
 30
0.0
  0
VERTEX
  5
504
  8
CLUSTERS
 10
737962.96296300006
 20
4563733.9562900001
 30
0.0
  0
VERTEX
  5
505
  8
CLUSTERS
 10
738063.49206299998
 20
4563754.9770599976
 30
0.0
  0
VERTEX
  5
506
  8
CLUSTERS
 10
738153.19511600013
 20
4563665.4275099998
 30
0.0
  0
VERTEX
  5
507
  8
CLUSTERS
 10
738148.07483799988
 20
4563565.0557599999
 30
0.0
  0
VERTEX
  5
508
  8
CLUSTERS
 10
738063.49206299998
 20
4563480.4845799999
 30
0.0
  0
VERTEX
  5
509
  8
CLUSTERS
 10
737962.96296300006
 20
4563527.7267800001
 30
0.0
  0
VERTEX
  5
50A
  8
CLUSTERS
 10
737925.63058399991
 20
4563565.0557599999
 30
0.0
  0
SEQEND
  5
50B
  8
CLUSTERS
  0
POLYLINE
  5
BF
  8
CLUSTERS
 66
     1
 10
0.0
 20
0.0
 30
0.0
 70
   129
  0
VERTEX
  5
50C
  8
CLUSTERS
 10
738667.15546799987
 20
4563565.0557599999
 30
0.0
  0
VERTEX
  5
50D
  8
CLUSTERS
 10
738767.19576699997
 20
4563664.6197699988
 30
0.0
  0
VERTEX
  5
50E
  8
CLUSTERS
 10
738867.72486800002
 20
4563663.5107099991
 30
0.0
  0
VERTEX
  5
50F
  8
CLUSTERS
 10
738966.26631600014
 20
4563565.0557599999
 30
0.0
  0
VERTEX
  5
510
  8
CLUSTERS
 10
738867.72486800002
 20
4563466.2345899986
 30
0.0
  0
VERTEX
  5
511
  8
CLUSTERS
 10
738767.19576699997
 20
4563465.1616299991
 30
0.0
  0
VERTEX
  5
512
  8
CLUSTERS
 10
738667.15546799987
 20
4563565.0557599999
 30
0.0
  0
SEQEND
  5
513
  8
CLUSTERS
  0
POLYLINE
  5
C0
  8
CLUSTERS
 66
     1
 10
0.0
 20
0.0
 30
0.0
 70
   129
  0
VERTEX
  5
514
  8
CLUSTERS
 10
740106.42262099998
 20
4564368.0297399983
 30
0.0
  0
VERTEX
  5
515
  8
CLUSTERS
 10
740081.26680299989
 20
4564468.4014900001
 30
0.0
  0
VERTEX
  5
516
  8
CLUSTERS
 10
740174.60317500005
 20
4564559.86515
 30
0.0
  0
VERTEX
  5
517
  8
CLUSTERS
 10
740280.29943354253
 20
4564548.9688009406
 30
0.0
  0
VERTEX
  5
518
  8
CLUSTERS
 10
740375.66137600015
 20
4564560.4040099978
 30
0.0
  0
VERTEX
  5
519
  8
CLUSTERS
 10
740476.19047599996
 20
4564519.7527099987
 30
0.0
  0
VERTEX
  5
51A
  8
CLUSTERS
 10
740527.34207200003
 20
4564468.4014900001
 30
0.0
  0
VERTEX
  5
51B
  8
CLUSTERS
 10
740476.19047599996
 20
4564416.0964700002
 30
0.0
  0
VERTEX
  5
51C
  8
CLUSTERS
 10
740375.66137600015
 20
4564375.0964299999
 30
0.0
  0
VERTEX
  5
51D
  8
CLUSTERS
 10
740290.85790382174
 20
4564351.9900358068
 30
0.0
  0
VERTEX
  5
51E
  8
CLUSTERS
 10
740242.59364699991
 20
4564368.0297399983
 30
0.0
  0
VERTEX
  5
51F
  8
CLUSTERS
 10
740174.60317500005
 20
4564301.5433999989
 30
0.0
  0
VERTEX
  5
520
  8
CLUSTERS
 10
740106.42262099998
 20
4564368.0297399983
 30
0.0
  0
SEQEND
  5
521
  8
CLUSTERS
  0
POLYLINE
  5
C1
  8
CLUSTERS
 66
     1
 10
0.0
 20
0.0
 30
0.0
 70
   129
  0
VERTEX
  5
522
  8
CLUSTERS
 10
738791.14177301864
 20
4564731.9642928382
 30
0.0
  0
VERTEX
  5
523
  8
CLUSTERS
 10
738861.94802201842
 20
4564802.2271228386
 30
0.0
  0
VERTEX
  5
524
  8
CLUSTERS
 10
738932.32364601851
 20
4564731.9642928382
 30
0.0
  0
VERTEX
  5
525
  8
CLUSTERS
 10
738861.94802201842
 20
4564661.1890228381
 30
0.0
  0
VERTEX
  5
526
  8
CLUSTERS
 10
738791.14177301864
 20
4564731.9642928382
 30
0.0
  0
SEQEND
  5
527
  8
CLUSTERS
  0
POLYLINE
  5
C2
  8
CLUSTERS
 66
     1
 10
0.0
 20
0.0
 30
0.0
 70
   129
  0
VERTEX
  5
528
  8
CLUSTERS
 10
738943.53650058166
 20
4565088.3575048177
 30
0.0
  0
VERTEX
  5
529
  8
CLUSTERS
 10
738921.81203658145
 20
4565097.9285048172
 30
0.0
  0
VERTEX
  5
52A
  8
CLUSTERS
 10
738833.4238195814
 20
4565188.7292548176
 30
0.0
  0
VERTEX
  5
52B
  8
CLUSTERS
 10
738921.81203658145
 20
4565276.8047448182
 30
0.0
  0
VERTEX
  5
52C
  8
CLUSTERS
 10
739022.3411365815
 20
4565287.470184816
 30
0.0
  0
VERTEX
  5
52D
  8
CLUSTERS
 10
739121.24868358183
 20
4565188.7292548176
 30
0.0
  0
VERTEX
  5
52E
  8
CLUSTERS
 10
739095.90370658156
 20
4565088.3575048177
 30
0.0
  0
VERTEX
  5
52F
  8
CLUSTERS
 10
739022.3411365815
 20
4565015.3904348174
 30
0.0
  0
VERTEX
  5
530
  8
CLUSTERS
 10
738943.53650058166
 20
4565088.3575048177
 30
0.0
  0
SEQEND
  5
531
  8
CLUSTERS
  0
POLYLINE
  5
C3
  8
CLUSTERS
 66
     1
 10
0.0
 20
0.0
 30
0.0
 70
   129
  0
VERTEX
  5
532
  8
CLUSTERS
 10
741210.55582300003
 20
4566576.2081800001
 30
0.0
  0
VERTEX
  5
533
  8
CLUSTERS
 10
741179.89417999994
 20
4566655.7118199999
 30
0.0
  0
VERTEX
  5
534
  8
CLUSTERS
 10
741165.71181699983
 20
4566676.57993
 30
0.0
  0
VERTEX
  5
535
  8
CLUSTERS
 10
741179.89417999994
 20
4566692.4796000002
 30
0.0
  0
VERTEX
  5
536
  8
CLUSTERS
 10
741241.81076200004
 20
4566776.9516699994
 30
0.0
  0
VERTEX
  5
537
  8
CLUSTERS
 10
741280.4232800001
 20
4566814.1738600004
 30
0.0
  0
VERTEX
  5
538
  8
CLUSTERS
 10
741380.95238100016
 20
4566870.3778900001
 30
0.0
  0
VERTEX
  5
539
  8
CLUSTERS
 10
741475.23643899988
 20
4566776.9516699994
 30
0.0
  0
VERTEX
  5
53A
  8
CLUSTERS
 10
741480.88716299995
 20
4566676.57993
 30
0.0
  0
VERTEX
  5
53B
  8
CLUSTERS
 10
741465.04683699983
 20
4566576.2081800001
 30
0.0
  0
VERTEX
  5
53C
  8
CLUSTERS
 10
741380.95238100016
 20
4566495.836029999
 30
0.0
  0
VERTEX
  5
53D
  8
CLUSTERS
 10
741280.4232800001
 20
4566514.5046600001
 30
0.0
  0
VERTEX
  5
53E
  8
CLUSTERS
 10
741210.55582300003
 20
4566576.2081800001
 30
0.0
  0
SEQEND
  5
53F
  8
CLUSTERS
  0
POLYLINE
  5
C4
  8
CLUSTERS
 66
     1
 10
0.0
 20
0.0
 30
0.0
 70
   129
  0
VERTEX
  5
540
  8
CLUSTERS
 10
740734.94544264395
 20
4566864.8621177748
 30
0.0
  0
VERTEX
  5
541
  8
CLUSTERS
 10
740808.22192964365
 20
4566909.1958377752
 30
0.0
  0
VERTEX
  5
542
  8
CLUSTERS
 10
740852.72897464375
 20
4566864.8621177748
 30
0.0
  0
VERTEX
  5
543
  8
CLUSTERS
 10
740808.22192964365
 20
4566817.8848977741
 30
0.0
  0
VERTEX
  5
544
  8
CLUSTERS
 10
740734.94544264395
 20
4566864.8621177748
 30
0.0
  0
SEQEND
  5
545
  8
CLUSTERS
  0
POLYLINE
  5
C5
  8
CLUSTERS
 66
     1
 10
0.0
 20
0.0
 30
0.0
 70
   129
  0
VERTEX
  5
546
  8
CLUSTERS
 10
740035.88910559809
 20
4567135.9763444578
 30
0.0
  0
VERTEX
  5
547
  8
CLUSTERS
 10
740118.40344059817
 20
4567215.216394457
 30
0.0
  0
VERTEX
  5
548
  8
CLUSTERS
 10
740197.82191159809
 20
4567135.9763444578
 30
0.0
  0
VERTEX
  5
549
  8
CLUSTERS
 10
740118.40344059817
 20
4567052.4075444583
 30
0.0
  0
VERTEX
  5
54A
  8
CLUSTERS
 10
740035.88910559809
 20
4567135.9763444578
 30
0.0
  0
SEQEND
  5
54B
  8
CLUSTERS
  0
POLYLINE
  5
C6
  8
CLUSTERS
 66
     1
 10
0.0
 20
0.0
 30
0.0
 70
   129
  0
VERTEX
  5
54C
  8
CLUSTERS
 10
740411.63531167526
 20
4567621.0984006952
 30
0.0
  0
VERTEX
  5
54D
  8
CLUSTERS
 10
740435.35167667526
 20
4567654.2154906979
 30
0.0
  0
VERTEX
  5
54E
  8
CLUSTERS
 10
740448.0105776753
 20
4567721.4701406946
 30
0.0
  0
VERTEX
  5
54F
  8
CLUSTERS
 10
740451.18967767502
 20
4567821.8418906974
 30
0.0
  0
VERTEX
  5
550
  8
CLUSTERS
 10
740535.88077767508
 20
4567901.1243706951
 30
0.0
  0
VERTEX
  5
551
  8
CLUSTERS
 10
740615.49373567523
 20
4567821.8418906974
 30
0.0
  0
VERTEX
  5
552
  8
CLUSTERS
 10
740617.48335567501
 20
4567721.4701406946
 30
0.0
  0
VERTEX
  5
553
  8
CLUSTERS
 10
740535.88077767508
 20
4567633.8287406974
 30
0.0
  0
VERTEX
  5
554
  8
CLUSTERS
 10
740468.33792367519
 20
4567621.0984006952
 30
0.0
  0
VERTEX
  5
555
  8
CLUSTERS
 10
740435.35167667526
 20
4567596.9668406947
 30
0.0
  0
VERTEX
  5
556
  8
CLUSTERS
 10
740411.63531167526
 20
4567621.0984006952
 30
0.0
  0
SEQEND
  5
557
  8
CLUSTERS
  0
POLYLINE
  5
C7
  8
CLUSTERS
 66
     1
 10
0.0
 20
0.0
 30
0.0
 70
   129
  0
VERTEX
  5
558
  8
CLUSTERS
 10
741002.99826800008
 20
4568182.1561299991
 30
0.0
  0
VERTEX
  5
559
  8
CLUSTERS
 10
741079.36507899989
 20
4568251.9823000003
 30
0.0
  0
VERTEX
  5
55A
  8
CLUSTERS
 10
741149.34359099995
 20
4568182.1561299991
 30
0.0
  0
VERTEX
  5
55B
  8
CLUSTERS
 10
741079.36507899989
 20
4568104.0432199994
 30
0.0
  0
VERTEX
  5
55C
  8
CLUSTERS
 10
741002.99826800008
 20
4568182.1561299991
 30
0.0
  0
SEQEND
  5
55D
  8
CLUSTERS
  0
POLYLINE
  5
C8
  8
CLUSTERS
 66
     1
 10
0.0
 20
0.0
 30
0.0
 70
   129
  0
VERTEX
  5
55E
  8
CLUSTERS
 10
741597.88420900004
 20
4568483.271379998
 30
0.0
  0
VERTEX
  5
55F
  8
CLUSTERS
 10
741587.20286099997
 20
4568583.6431199983
 30
0.0
  0
VERTEX
  5
560
  8
CLUSTERS
 10
741682.53968300007
 20
4568681.6674499987
 30
0.0
  0
VERTEX
  5
561
  8
CLUSTERS
 10
741763.27098899987
 20
4568684.0148700001
 30
0.0
  0
VERTEX
  5
562
  8
CLUSTERS
 10
741783.06878299988
 20
4568690.6546400003
 30
0.0
  0
VERTEX
  5
563
  8
CLUSTERS
 10
741791.30961299967
 20
4568684.0148700001
 30
0.0
  0
VERTEX
  5
564
  8
CLUSTERS
 10
741883.59788399993
 20
4568593.468609998
 30
0.0
  0
VERTEX
  5
565
  8
CLUSTERS
 10
741891.56852399989
 20
4568583.6431199983
 30
0.0
  0
VERTEX
  5
566
  8
CLUSTERS
 10
741883.59788399993
 20
4568559.0658800006
 30
0.0
  0
VERTEX
  5
567
  8
CLUSTERS
 10
741881.55500100006
 20
4568483.271379998
 30
0.0
  0
VERTEX
  5
568
  8
CLUSTERS
 10
741783.06878299988
 20
4568387.701489998
 30
0.0
  0
VERTEX
  5
569
  8
CLUSTERS
 10
741682.53968300007
 20
4568398.6481900001
 30
0.0
  0
VERTEX
  5
56A
  8
CLUSTERS
 10
741597.88420900004
 20
4568483.271379998
 30
0.0
  0
SEQEND
  5
56B
  8
CLUSTERS
  0
POLYLINE
  5
C9
  8
CLUSTERS
 66
     1
 10
0.0
 20
0.0
 30
0.0
 70
   129
  0
VERTEX
  5
56C
  8
CLUSTERS
 10
743282.58921899996
 20
4568583.6431199983
 30
0.0
  0
VERTEX
  5
56D
  8
CLUSTERS
 10
743190.47619000019
 20
4568593.8606799999
 30
0.0
  0
VERTEX
  5
56E
  8
CLUSTERS
 10
743089.94709000003
 20
4568598.2294799993
 30
0.0
  0
VERTEX
  5
56F
  8
CLUSTERS
 10
742989.41798899963
 20
4568608.98508
 30
0.0
  0
VERTEX
  5
570
  8
CLUSTERS
 10
742897.61667400005
 20
4568684.0148700001
 30
0.0
  0
VERTEX
  5
571
  8
CLUSTERS
 10
742888.88888899994
 20
4568692.21215
 30
0.0
  0
VERTEX
  5
572
  8
CLUSTERS
 10
742813.24674899993
 20
4568784.3866199991
 30
0.0
  0
VERTEX
  5
573
  8
CLUSTERS
 10
742805.27080100006
 20
4568884.7583600003
 30
0.0
  0
VERTEX
  5
574
  8
CLUSTERS
 10
742848.15503699984
 20
4568985.1301099993
 30
0.0
  0
VERTEX
  5
575
  8
CLUSTERS
 10
742888.88888899994
 20
4569030.1581100002
 30
0.0
  0
VERTEX
  5
576
  8
CLUSTERS
 10
742980.67998800008
 20
4569085.5018600002
 30
0.0
  0
VERTEX
  5
577
  8
CLUSTERS
 10
742989.41798899963
 20
4569091.9780299999
 30
0.0
  0
VERTEX
  5
578
  8
CLUSTERS
 10
743089.94709000003
 20
4569112.6286899997
 30
0.0
  0
VERTEX
  5
579
  8
CLUSTERS
 10
743155.18166100001
 20
4569085.5018600002
 30
0.0
  0
VERTEX
  5
57A
  8
CLUSTERS
 10
743190.47619000019
 20
4569079.24682
 30
0.0
  0
VERTEX
  5
57B
  8
CLUSTERS
 10
743291.00529100001
 20
4569080.7387199998
 30
0.0
  0
VERTEX
  5
57C
  8
CLUSTERS
 10
743391.53439199983
 20
4569079.4291300001
 30
0.0
  0
VERTEX
  5
57D
  8
CLUSTERS
 10
743492.06349199987
 20
4569030.2226999998
 30
0.0
  0
VERTEX
  5
57E
  8
CLUSTERS
 10
743536.42920399993
 20
4568985.1301099993
 30
0.0
  0
VERTEX
  5
57F
  8
CLUSTERS
 10
743583.9996039999
 20
4568884.7583600003
 30
0.0
  0
VERTEX
  5
580
  8
CLUSTERS
 10
743583.11934999994
 20
4568784.3866199991
 30
0.0
  0
VERTEX
  5
581
  8
CLUSTERS
 10
743545.74649699975
 20
4568684.0148700001
 30
0.0
  0
VERTEX
  5
582
  8
CLUSTERS
 10
743492.06349199987
 20
4568627.3666699994
 30
0.0
  0
VERTEX
  5
583
  8
CLUSTERS
 10
743391.53439199983
 20
4568583.7594499998
 30
0.0
  0
VERTEX
  5
584
  8
CLUSTERS
 10
743352.60202199966
 20
4568583.6431199983
 30
0.0
  0
VERTEX
  5
585
  8
CLUSTERS
 10
743291.00529100001
 20
4568580.3174299998
 30
0.0
  0
VERTEX
  5
586
  8
CLUSTERS
 10
743282.58921899996
 20
4568583.6431199983
 30
0.0
  0
SEQEND
  5
587
  8
CLUSTERS
  0
POLYLINE
  5
CA
  8
CLUSTERS
 66
     1
 10
0.0
 20
0.0
 30
0.0
 70
   129
  0
VERTEX
  5
588
  8
CLUSTERS
 10
740997.32780199975
 20
4568884.7583600003
 30
0.0
  0
VERTEX
  5
589
  8
CLUSTERS
 10
740986.00561600015
 20
4568985.1301099993
 30
0.0
  0
VERTEX
  5
58A
  8
CLUSTERS
 10
741079.36507899989
 20
4569081.5028999988
 30
0.0
  0
VERTEX
  5
58B
  8
CLUSTERS
 10
741179.89417999994
 20
4569085.4915899998
 30
0.0
  0
VERTEX
  5
58C
  8
CLUSTERS
 10
741280.4232800001
 20
4568998.8849200001
 30
0.0
  0
VERTEX
  5
58D
  8
CLUSTERS
 10
741291.79957499995
 20
4568985.1301099993
 30
0.0
  0
VERTEX
  5
58E
  8
CLUSTERS
 10
741280.4232800001
 20
4568948.4801899996
 30
0.0
  0
VERTEX
  5
58F
  8
CLUSTERS
 10
741278.8880429999
 20
4568884.7583600003
 30
0.0
  0
VERTEX
  5
590
  8
CLUSTERS
 10
741179.89417999994
 20
4568788.7137500001
 30
0.0
  0
VERTEX
  5
591
  8
CLUSTERS
 10
741079.36507899989
 20
4568802.3294299999
 30
0.0
  0
VERTEX
  5
592
  8
CLUSTERS
 10
740997.32780199975
 20
4568884.7583600003
 30
0.0
  0
SEQEND
  5
593
  8
CLUSTERS
  0
POLYLINE
  5
CB
  8
CLUSTERS
 66
     1
 10
0.0
 20
0.0
 30
0.0
 70
   129
  0
VERTEX
  5
594
  8
CLUSTERS
 10
741626.16019522038
 20
4569301.4542012233
 30
0.0
  0
VERTEX
  5
595
  8
CLUSTERS
 10
741737.36515126901
 20
4569431.226837649
 30
0.0
  0
VERTEX
  5
596
  8
CLUSTERS
 10
741845.97894256271
 20
4569334.1611945704
 30
0.0
  0
VERTEX
  5
597
  8
CLUSTERS
 10
741785.17797528196
 20
4569193.9883931689
 30
0.0
  0
VERTEX
  5
598
  8
CLUSTERS
 10
741626.16019522038
 20
4569301.4542012233
 30
0.0
  0
SEQEND
  5
599
  8
CLUSTERS
  0
POLYLINE
  5
CC
  8
CLUSTERS
 66
     1
 10
0.0
 20
0.0
 30
0.0
 70
   129
  0
VERTEX
  5
59A
  8
CLUSTERS
 10
741911.83949999977
 20
4569486.9888499994
 30
0.0
  0
VERTEX
  5
59B
  8
CLUSTERS
 10
741883.59788399993
 20
4569518.8812499987
 30
0.0
  0
VERTEX
  5
59C
  8
CLUSTERS
 10
741783.06878299988
 20
4569563.1265000002
 30
0.0
  0
VERTEX
  5
59D
  8
CLUSTERS
 10
741756.29365999985
 20
4569587.3605899988
 30
0.0
  0
VERTEX
  5
59E
  8
CLUSTERS
 10
741682.53968300007
 20
4569652.3056100002
 30
0.0
  0
VERTEX
  5
59F
  8
CLUSTERS
 10
741651.54666800005
 20
4569687.7323400006
 30
0.0
  0
VERTEX
  5
5A0
  8
CLUSTERS
 10
741623.6697480001
 20
4569788.1040899996
 30
0.0
  0
VERTEX
  5
5A1
  8
CLUSTERS
 10
741682.53968300007
 20
4569852.3798900004
 30
0.0
  0
VERTEX
  5
5A2
  8
CLUSTERS
 10
741764.82061599987
 20
4569888.4758400004
 30
0.0
  0
VERTEX
  5
5A3
  8
CLUSTERS
 10
741693.07305300015
 20
4569988.8475799998
 30
0.0
  0
VERTEX
  5
5A4
  8
CLUSTERS
 10
741682.53968300007
 20
4570049.8399300007
 30
0.0
  0
VERTEX
  5
5A5
  8
CLUSTERS
 10
741666.35680699977
 20
4570089.2193299979
 30
0.0
  0
VERTEX
  5
5A6
  8
CLUSTERS
 10
741682.53968300007
 20
4570106.2934999997
 30
0.0
  0
VERTEX
  5
5A7
  8
CLUSTERS
 10
741783.06878299988
 20
4570179.2185000004
 30
0.0
  0
VERTEX
  5
5A8
  8
CLUSTERS
 10
741829.88648200012
 20
4570189.5910800006
 30
0.0
  0
VERTEX
  5
5A9
  8
CLUSTERS
 10
741883.59788399993
 20
4570241.9575699987
 30
0.0
  0
VERTEX
  5
5AA
  8
CLUSTERS
 10
741984.12698399986
 20
4570287.4087100001
 30
0.0
  0
VERTEX
  5
5AB
  8
CLUSTERS
 10
742084.65608500014
 20
4570289.6742399987
 30
0.0
  0
VERTEX
  5
5AC
  8
CLUSTERS
 10
742185.18518499995
 20
4570286.0719900001
 30
0.0
  0
VERTEX
  5
5AD
  8
CLUSTERS
 10
742282.18370199995
 20
4570189.5910800006
 30
0.0
  0
VERTEX
  5
5AE
  8
CLUSTERS
 10
742285.714286
 20
4570117.5303399991
 30
0.0
  0
VERTEX
  5
5AF
  8
CLUSTERS
 10
742303.64633000002
 20
4570089.2193299979
 30
0.0
  0
VERTEX
  5
5B0
  8
CLUSTERS
 10
742349.45540199999
 20
4569988.8475799998
 30
0.0
  0
VERTEX
  5
5B1
  8
CLUSTERS
 10
742386.24338600005
 20
4569988.0745900003
 30
0.0
  0
VERTEX
  5
5B2
  8
CLUSTERS
 10
742485.81497199985
 20
4569888.4758400004
 30
0.0
  0
VERTEX
  5
5B3
  8
CLUSTERS
 10
742486.05852299999
 20
4569788.1040899996
 30
0.0
  0
VERTEX
  5
5B4
  8
CLUSTERS
 10
742474.09944899997
 20
4569687.7323400006
 30
0.0
  0
VERTEX
  5
5B5
  8
CLUSTERS
 10
742386.24338600005
 20
4569601.7089400003
 30
0.0
  0
VERTEX
  5
5B6
  8
CLUSTERS
 10
742360.19395300013
 20
4569587.3605899988
 30
0.0
  0
VERTEX
  5
5B7
  8
CLUSTERS
 10
742285.714286
 20
4569498.5051000006
 30
0.0
  0
VERTEX
  5
5B8
  8
CLUSTERS
 10
742185.18518499995
 20
4569539.4585499987
 30
0.0
  0
VERTEX
  5
5B9
  8
CLUSTERS
 10
742180.46863300004
 20
4569486.9888499994
 30
0.0
  0
VERTEX
  5
5BA
  8
CLUSTERS
 10
742084.65608500014
 20
4569397.2512800004
 30
0.0
  0
VERTEX
  5
5BB
  8
CLUSTERS
 10
741984.12698399986
 20
4569417.1624100003
 30
0.0
  0
VERTEX
  5
5BC
  8
CLUSTERS
 10
741911.83949999977
 20
4569486.9888499994
 30
0.0
  0
SEQEND
  5
5BD
  8
CLUSTERS
  0
POLYLINE
  5
CD
  8
CLUSTERS
 66
     1
 10
0.0
 20
0.0
 30
0.0
 70
   129
  0
VERTEX
  5
5BE
  8
CLUSTERS
 10
740482.27938859304
 20
4569847.1293373061
 30
0.0
  0
VERTEX
  5
5BF
  8
CLUSTERS
 10
740446.69803859317
 20
4569947.5010773046
 30
0.0
  0
VERTEX
  5
5C0
  8
CLUSTERS
 10
740544.26068159309
 20
4570036.2329273047
 30
0.0
  0
VERTEX
  5
5C1
  8
CLUSTERS
 10
740633.4624445932
 20
4569947.5010773046
 30
0.0
  0
VERTEX
  5
5C2
  8
CLUSTERS
 10
740594.37229159335
 20
4569847.1293373061
 30
0.0
  0
VERTEX
  5
5C3
  8
CLUSTERS
 10
740544.26068159309
 20
4569798.3390573068
 30
0.0
  0
VERTEX
  5
5C4
  8
CLUSTERS
 10
740482.27938859304
 20
4569847.1293373061
 30
0.0
  0
SEQEND
  5
5C5
  8
CLUSTERS
  0
POLYLINE
  5
CE
  8
CLUSTERS
 66
     1
 10
0.0
 20
0.0
 30
0.0
 70
   129
  0
VERTEX
  5
5C6
  8
CLUSTERS
 10
742020.19505099999
 20
4570490.7063199999
 30
0.0
  0
VERTEX
  5
5C7
  8
CLUSTERS
 10
741984.12698399986
 20
4570494.7803799976
 30
0.0
  0
VERTEX
  5
5C8
  8
CLUSTERS
 10
741892.92463499994
 20
4570591.0780699989
 30
0.0
  0
VERTEX
  5
5C9
  8
CLUSTERS
 10
741888.80446699995
 20
4570691.4498099992
 30
0.0
  0
VERTEX
  5
5CA
  8
CLUSTERS
 10
741963.02283799986
 20
4570791.8215600001
 30
0.0
  0
VERTEX
  5
5CB
  8
CLUSTERS
 10
741969.07252000005
 20
4570892.19331
 30
0.0
  0
VERTEX
  5
5CC
  8
CLUSTERS
 10
741984.12698399986
 20
4570951.711120001
 30
0.0
  0
VERTEX
  5
5CD
  8
CLUSTERS
 10
741984.68093999999
 20
4570992.5650599999
 30
0.0
  0
VERTEX
  5
5CE
  8
CLUSTERS
 10
742066.17898899992
 20
4571092.9367999984
 30
0.0
  0
VERTEX
  5
5CF
  8
CLUSTERS
 10
742084.65608500014
 20
4571108.6347899977
 30
0.0
  0
VERTEX
  5
5D0
  8
CLUSTERS
 10
742185.18518499995
 20
4571131.3075099988
 30
0.0
  0
VERTEX
  5
5D1
  8
CLUSTERS
 10
742234.97366100014
 20
4571092.9367999984
 30
0.0
  0
VERTEX
  5
5D2
  8
CLUSTERS
 10
742285.714286
 20
4571055.5139600001
 30
0.0
  0
VERTEX
  5
5D3
  8
CLUSTERS
 10
742339.41465099982
 20
4570992.5650599999
 30
0.0
  0
VERTEX
  5
5D4
  8
CLUSTERS
 10
742350.01286100014
 20
4570892.19331
 30
0.0
  0
VERTEX
  5
5D5
  8
CLUSTERS
 10
742298.93570699985
 20
4570791.8215600001
 30
0.0
  0
VERTEX
  5
5D6
  8
CLUSTERS
 10
742285.714286
 20
4570775.5924199997
 30
0.0
  0
VERTEX
  5
5D7
  8
CLUSTERS
 10
742233.51967300021
 20
4570691.4498099992
 30
0.0
  0
VERTEX
  5
5D8
  8
CLUSTERS
 10
742185.18518499995
 20
4570598.25086
 30
0.0
  0
VERTEX
  5
5D9
  8
CLUSTERS
 10
742184.94441899995
 20
4570591.0780699989
 30
0.0
  0
VERTEX
  5
5DA
  8
CLUSTERS
 10
742122.39301
 20
4570490.7063199999
 30
0.0
  0
VERTEX
  5
5DB
  8
CLUSTERS
 10
742084.65608500014
 20
4570454.3987799995
 30
0.0
  0
VERTEX
  5
5DC
  8
CLUSTERS
 10
742020.19505099999
 20
4570490.7063199999
 30
0.0
  0
SEQEND
  5
5DD
  8
CLUSTERS
  0
POLYLINE
  5
CF
  8
CLUSTERS
 66
     1
 10
0.0
 20
0.0
 30
0.0
 70
   129
  0
VERTEX
  5
5DE
  8
CLUSTERS
 10
741140.72209399985
 20
4571193.3085500002
 30
0.0
  0
VERTEX
  5
5DF
  8
CLUSTERS
 10
741079.36507899989
 20
4571246.5428599995
 30
0.0
  0
VERTEX
  5
5E0
  8
CLUSTERS
 10
741041.40168799995
 20
4571293.6803000011
 30
0.0
  0
VERTEX
  5
5E1
  8
CLUSTERS
 10
741038.08329300012
 20
4571394.0520400004
 30
0.0
  0
VERTEX
  5
5E2
  8
CLUSTERS
 10
741079.36507899989
 20
4571437.1440199995
 30
0.0
  0
VERTEX
  5
5E3
  8
CLUSTERS
 10
741179.89417999994
 20
4571489.1129099997
 30
0.0
  0
VERTEX
  5
5E4
  8
CLUSTERS
 10
741280.4232800001
 20
4571491.0746099995
 30
0.0
  0
VERTEX
  5
5E5
  8
CLUSTERS
 10
741378.01039299974
 20
4571394.0520400004
 30
0.0
  0
VERTEX
  5
5E6
  8
CLUSTERS
 10
741374.90435700002
 20
4571293.6803000011
 30
0.0
  0
VERTEX
  5
5E7
  8
CLUSTERS
 10
741280.4232800001
 20
4571196.9593399987
 30
0.0
  0
VERTEX
  5
5E8
  8
CLUSTERS
 10
741233.51335199992
 20
4571193.3085500002
 30
0.0
  0
VERTEX
  5
5E9
  8
CLUSTERS
 10
741179.89417999994
 20
4571163.4399499986
 30
0.0
  0
VERTEX
  5
5EA
  8
CLUSTERS
 10
741140.72209399985
 20
4571193.3085500002
 30
0.0
  0
SEQEND
  5
5EB
  8
CLUSTERS
  0
POLYLINE
  5
D0
  8
CLUSTERS
 66
     1
 10
0.0
 20
0.0
 30
0.0
 70
     1
  0
VERTEX
  5
5EC
  8
CLUSTERS
 10
728560.13723778178
 20
4549653.0694579966
 30
0.0
  0
VERTEX
  5
5ED
  8
CLUSTERS
 10
728636.59012014954
 20
4549653.0694579966
 30
0.0
  0
VERTEX
  5
5EE
  8
CLUSTERS
 10
728636.59012014954
 20
4549717.1546809152
 30
0.0
  0
VERTEX
  5
5EF
  8
CLUSTERS
 10
728560.13723778178
 20
4549717.1546809152
 30
0.0
  0
SEQEND
  5
5F0
  8
CLUSTERS
  0
POLYLINE
  5
D1
  8
CLUSTERS
 66
     1
 10
0.0
 20
0.0
 30
0.0
 70
     1
  0
VERTEX
  5
5F1
  8
CLUSTERS
 10
728444.28058760369
 20
4562582.6991677918
 30
0.0
  0
VERTEX
  5
5F2
  8
CLUSTERS
 10
728556.90405852778
 20
4562582.6991677918
 30
0.0
  0
VERTEX
  5
5F3
  8
CLUSTERS
 10
728556.90405852778
 20
4562698.7759197569
 30
0.0
  0
VERTEX
  5
5F4
  8
CLUSTERS
 10
728444.28058760369
 20
4562698.7759197569
 30
0.0
  0
SEQEND
  5
5F5
  8
CLUSTERS
  0
POLYLINE
  5
D2
  8
CLUSTERS
 66
     1
 10
0.0
 20
0.0
 30
0.0
 70
     1
  0
VERTEX
  5
5F6
  8
CLUSTERS
 10
731643.49008443439
 20
4562262.608753562
 30
0.0
  0
VERTEX
  5
5F7
  8
CLUSTERS
 10
731742.03563739685
 20
4562262.608753562
 30
0.0
  0
VERTEX
  5
5F8
  8
CLUSTERS
 10
731742.03563739685
 20
4562318.8884369098
 30
0.0
  0
VERTEX
  5
5F9
  8
CLUSTERS
 10
731643.49008443439
 20
4562318.8884369098
 30
0.0
  0
SEQEND
  5
5FA
  8
CLUSTERS
  0
POLYLINE
  5
D3
  8
CLUSTERS
 66
     1
 10
0.0
 20
0.0
 30
0.0
 70
   129
  0
VERTEX
  5
5FB
  8
CLUSTERS
 10
737342.52229199978
 20
4564869.8884799983
 30
0.0
  0
VERTEX
  5
5FC
  8
CLUSTERS
 10
737359.78836000001
 20
4564887.2426800001
 30
0.0
  0
VERTEX
  5
5FD
  8
CLUSTERS
 10
737401.96858200012
 20
4564970.2602199987
 30
0.0
  0
VERTEX
  5
5FE
  8
CLUSTERS
 10
737460.31746000005
 20
4565028.2896499997
 30
0.0
  0
VERTEX
  5
5FF
  8
CLUSTERS
 10
737518.50894999993
 20
4564970.2602199987
 30
0.0
  0
VERTEX
  5
600
  8
CLUSTERS
 10
737546.83386999997
 20
4564869.8884799983
 30
0.0
  0
VERTEX
  5
601
  8
CLUSTERS
 10
737460.31746000005
 20
4564783.1809
 30
0.0
  0
VERTEX
  5
602
  8
CLUSTERS
 10
737359.78836000001
 20
4564852.5216300003
 30
0.0
  0
VERTEX
  5
603
  8
CLUSTERS
 10
737342.52229199978
 20
4564869.8884799983
 30
0.0
  0
SEQEND
  5
604
  8
CLUSTERS
  0
POLYLINE
  5
D4
  8
CLUSTERS
 66
     1
 10
0.0
 20
0.0
 30
0.0
 70
   129
  0
VERTEX
  5
605
  8
CLUSTERS
 10
736674.3454669998
 20
4564568.7732300004
 30
0.0
  0
VERTEX
  5
606
  8
CLUSTERS
 10
736676.99842699966
 20
4564669.1449800003
 30
0.0
  0
VERTEX
  5
607
  8
CLUSTERS
 10
736756.61375699996
 20
4564748.5671499986
 30
0.0
  0
VERTEX
  5
608
  8
CLUSTERS
 10
736857.142857
 20
4564758.3632100001
 30
0.0
  0
VERTEX
  5
609
  8
CLUSTERS
 10
736946.527993
 20
4564669.1449800003
 30
0.0
  0
VERTEX
  5
60A
  8
CLUSTERS
 10
736862.86249300011
 20
4564568.7732300004
 30
0.0
  0
VERTEX
  5
60B
  8
CLUSTERS
 10
736857.142857
 20
4564563.0587899983
 30
0.0
  0
VERTEX
  5
60C
  8
CLUSTERS
 10
736756.61375699996
 20
4564486.5420199996
 30
0.0
  0
VERTEX
  5
60D
  8
CLUSTERS
 10
736674.3454669998
 20
4564568.7732300004
 30
0.0
  0
SEQEND
  5
60E
  8
CLUSTERS
  0
POLYLINE
  5
D5
  8
CLUSTERS
 66
     1
 10
0.0
 20
0.0
 30
0.0
 70
     1
  0
VERTEX
  5
60F
  8
CLUSTERS
 10
742719.54600819363
 20
4567752.3640402816
 30
0.0
  0
VERTEX
  5
610
  8
CLUSTERS
 10
742664.32618012675
 20
4567892.5776202232
 30
0.0
  0
VERTEX
  5
611
  8
CLUSTERS
 10
742823.08340416127
 20
4567897.1747971922
 30
0.0
  0
VERTEX
  5
612
  8
CLUSTERS
 10
742841.49015907885
 20
4567786.8427405078
 30
0.0
  0
SEQEND
  5
613
  8
CLUSTERS
  0
POLYLINE
  5
D6
  8
CLUSTERS
 66
     1
 10
0.0
 20
0.0
 30
0.0
 70
     1
  0
VERTEX
  5
614
  8
CLUSTERS
 10
740014.19408825156
 20
4567523.5476488788
 30
0.0
  0
VERTEX
  5
615
  8
CLUSTERS
 10
739578.79928994842
 20
4567566.0607377766
 30
0.0
  0
VERTEX
  5
616
  8
CLUSTERS
 10
739601.71482863196
 20
4567683.7893991489
 30
0.0
  0
VERTEX
  5
617
  8
CLUSTERS
 10
740001.09947392333
 20
4567628.1953549329
 30
0.0
  0
SEQEND
  5
618
  8
CLUSTERS
  0
POLYLINE
  5
D7
  8
CLUSTERS
 66
     1
 10
0.0
 20
0.0
 30
0.0
 70
     1
  0
VERTEX
  5
619
  8
CLUSTERS
 10
739621.35667734337
 20
4567271.7390843537
 30
0.0
  0
VERTEX
  5
61A
  8
CLUSTERS
 10
739591.89390427666
 20
4567320.79274619
 30
0.0
  0
VERTEX
  5
61B
  8
CLUSTERS
 10
739637.72498164384
 20
4567382.9272998236
 30
0.0
  0
VERTEX
  5
61C
  8
CLUSTERS
 10
739673.7349890935
 20
4567340.4141474068
 30
0.0
  0
VERTEX
  5
61D
  8
CLUSTERS
 10
739686.82960342173
 20
4567265.1986384559
 30
0.0
  0
SEQEND
  5
61E
  8
CLUSTERS
  0
POLYLINE
  5
D8
  8
CLUSTERS
 66
     1
 10
0.0
 20
0.0
 30
0.0
 70
     1
  0
VERTEX
  5
61F
  8
CLUSTERS
 10
739879.97469168447
 20
4567268.4688614057
 30
0.0
  0
VERTEX
  5
620
  8
CLUSTERS
 10
739902.89008480578
 20
4567317.5224597221
 30
0.0
  0
VERTEX
  5
621
  8
CLUSTERS
 10
739945.44747220061
 20
4567343.6844338737
 30
0.0
  0
VERTEX
  5
622
  8
CLUSTERS
 10
739997.82578395074
 20
4567268.4688614057
 30
0.0
  0
VERTEX
  5
623
  8
CLUSTERS
 10
739938.90023781778
 20
4567222.6854860382
 30
0.0
  0
SEQEND
  5
624
  8
CLUSTERS
  0
POLYLINE
  5
D9
  8
CLUSTERS
 66
     1
 10
0.0
 20
0.0
 30
0.0
 70
   129
  0
VERTEX
  5
625
  8
CLUSTERS
 10
740898.98163899989
 20
4564669.1449800003
 30
0.0
  0
VERTEX
  5
626
  8
CLUSTERS
 10
740878.30687800003
 20
4564671.3080899986
 30
0.0
  0
VERTEX
  5
627
  8
CLUSTERS
 10
740777.77777799987
 20
4564691.2219899977
 30
0.0
  0
VERTEX
  5
628
  8
CLUSTERS
 10
740700.42441399989
 20
4564769.5167300003
 30
0.0
  0
VERTEX
  5
629
  8
CLUSTERS
 10
740736.79625800007
 20
4564869.8884799983
 30
0.0
  0
VERTEX
  5
62A
  8
CLUSTERS
 10
740777.77777799987
 20
4564909.4322199998
 30
0.0
  0
VERTEX
  5
62B
  8
CLUSTERS
 10
740878.30687800003
 20
4564938.8748199996
 30
0.0
  0
VERTEX
  5
62C
  8
CLUSTERS
 10
740947.93911100004
 20
4564869.8884799983
 30
0.0
  0
VERTEX
  5
62D
  8
CLUSTERS
 10
740978.83597899985
 20
4564836.8580899984
 30
0.0
  0
VERTEX
  5
62E
  8
CLUSTERS
 10
741045.60981599998
 20
4564769.5167300003
 30
0.0
  0
VERTEX
  5
62F
  8
CLUSTERS
 10
741026.90965399996
 20
4564669.1449800003
 30
0.0
  0
VERTEX
  5
630
  8
CLUSTERS
 10
740978.83597899985
 20
4564620.2450600006
 30
0.0
  0
VERTEX
  5
631
  8
CLUSTERS
 10
740898.98163899989
 20
4564669.1449800003
 30
0.0
  0
SEQEND
  5
632
  8
CLUSTERS
  0
POLYLINE
  5
DA
  8
CLUSTERS
 66
     1
 10
0.0
 20
0.0
 30
0.0
 70
     1
  0
VERTEX
  5
633
  8
CLUSTERS
 10
740197.55886396405
 20
4565077.8011646084
 30
0.0
  0
VERTEX
  5
634
  8
CLUSTERS
 10
740153.96376488346
 20
4565130.5191784287
 30
0.0
  0
VERTEX
  5
635
  8
CLUSTERS
 10
740204.44220106571
 20
4565174.0688806828
 30
0.0
  0
VERTEX
  5
636
  8
CLUSTERS
 10
740264.09861413343
 20
4565096.1378512578
 30
0.0
  0
SEQEND
  5
637
  8
CLUSTERS
  0
POLYLINE
  5
DB
  8
CLUSTERS
 66
     1
 10
0.0
 20
0.0
 30
0.0
 70
     1
  0
VERTEX
  5
638
  8
CLUSTERS
 10
740629.14663303015
 20
4562507.9612002661
 30
0.0
  0
VERTEX
  5
639
  8
CLUSTERS
 10
740619.63881259295
 20
4562631.4330934314
 30
0.0
  0
VERTEX
  5
63A
  8
CLUSTERS
 10
740743.23931377637
 20
4562669.4244647156
 30
0.0
  0
VERTEX
  5
63B
  8
CLUSTERS
 10
740876.34748983453
 20
4562526.9568859106
 30
0.0
  0
SEQEND
  5
63C
  8
CLUSTERS
  0
POLYLINE
  5
DC
  8
CLUSTERS
 66
     1
 10
0.0
 20
0.0
 30
0.0
 70
     1
  0
VERTEX
  5
63D
  8
CLUSTERS
 10
740942.9015050825
 20
4562792.8963578809
 30
0.0
  0
VERTEX
  5
63E
  8
CLUSTERS
 10
740961.9170003942
 20
4562916.3682510443
 30
0.0
  0
VERTEX
  5
63F
  8
CLUSTERS
 10
741028.47101564263
 20
4562963.8574016336
 30
0.0
  0
VERTEX
  5
640
  8
CLUSTERS
 10
741180.59468701237
 20
4562840.3855084702
 30
0.0
  0
VERTEX
  5
641
  8
CLUSTERS
 10
741028.47101564263
 20
4562764.4028294152
 30
0.0
  0
SEQEND
  5
642
  8
CLUSTERS
  0
POLYLINE
  5
DD
  8
CLUSTERS
 66
     1
 10
0.0
 20
0.0
 30
0.0
 70
     1
  0
VERTEX
  5
643
  8
CLUSTERS
 10
737769.62371181755
 20
4562651.8007673351
 30
0.0
  0
VERTEX
  5
644
  8
CLUSTERS
 10
737740.16093875095
 20
4562681.2329644384
 30
0.0
  0
VERTEX
  5
645
  8
CLUSTERS
 10
737749.98186310648
 20
4562720.4758303883
 30
0.0
  0
VERTEX
  5
646
  8
CLUSTERS
 10
737812.18109921226
 20
4562717.2056074366
 30
0.0
  0
VERTEX
  5
647
  8
CLUSTERS
 10
737815.45478918473
 20
4562671.42223207
 30
0.0
  0
SEQEND
  5
648
  8
CLUSTERS
  0
POLYLINE
  5
DE
  8
CLUSTERS
 66
     1
 10
0.0
 20
0.0
 30
0.0
 70
     1
  0
VERTEX
  5
649
  8
CLUSTERS
 10
737294.94536165416
 20
4562377.1005786462
 30
0.0
  0
VERTEX
  5
64A
  8
CLUSTERS
 10
737301.49259603745
 20
4562426.1541769626
 30
0.0
  0
VERTEX
  5
64B
  8
CLUSTERS
 10
737311.31352039275
 20
4562462.1268199654
 30
0.0
  0
VERTEX
  5
64C
  8
CLUSTERS
 10
737366.96552211558
 20
4562465.3971064333
 30
0.0
  0
VERTEX
  5
64D
  8
CLUSTERS
 10
737406.24921953783
 20
4562422.8839540137
 30
0.0
  0
VERTEX
  5
64E
  8
CLUSTERS
 10
737363.69183214323
 20
4562364.0196233289
 30
0.0
  0
SEQEND
  5
64F
  8
CLUSTERS
  0
POLYLINE
  5
DF
  8
CLUSTERS
 66
     1
 10
0.0
 20
0.0
 30
0.0
 70
     1
  0
VERTEX
  5
650
  8
CLUSTERS
 10
737124.71581207542
 20
4561951.9693085374
 30
0.0
  0
VERTEX
  5
651
  8
CLUSTERS
 10
737127.98950204777
 20
4562017.3741486389
 30
0.0
  0
VERTEX
  5
652
  8
CLUSTERS
 10
737150.9050407313
 20
4562046.8062822213
 30
0.0
  0
VERTEX
  5
653
  8
CLUSTERS
 10
737226.19874560344
 20
4562027.1848810073
 30
0.0
  0
VERTEX
  5
654
  8
CLUSTERS
 10
737193.46242812602
 20
4561974.8609962221
 30
0.0
  0
SEQEND
  5
655
  8
CLUSTERS
  0
POLYLINE
  5
E0
  8
CLUSTERS
 66
     1
 10
0.0
 20
0.0
 30
0.0
 70
     1
  0
VERTEX
  5
656
  8
CLUSTERS
 10
733282.56784385303
 20
4561223.5200165939
 30
0.0
  0
VERTEX
  5
657
  8
CLUSTERS
 10
733287.15683229535
 20
4561278.5301400656
 30
0.0
  0
VERTEX
  5
658
  8
CLUSTERS
 10
733378.93572777533
 20
4561257.9013437657
 30
0.0
  0
VERTEX
  5
659
  8
CLUSTERS
 10
733365.16890800954
 20
4561216.6437511602
 30
0.0
  0
SEQEND
  5
65A
  8
CLUSTERS
  0
POLYLINE
  5
E1
  8
CLUSTERS
 66
     1
 10
0.0
 20
0.0
 30
0.0
 70
     1
  0
VERTEX
  5
65B
  8
CLUSTERS
 10
735764.99574174453
 20
4560878.3264992964
 30
0.0
  0
VERTEX
  5
65C
  8
CLUSTERS
 10
735717.45707624615
 20
4560916.3178705834
 30
0.0
  0
VERTEX
  5
65D
  8
CLUSTERS
 10
735745.98024643259
 20
4560982.8027068162
 30
0.0
  0
VERTEX
  5
65E
  8
CLUSTERS
 10
735831.54975699238
 20
4560954.3092418704
 30
0.0
  0
SEQEND
  5
65F
  8
CLUSTERS
  0
POLYLINE
  5
E2
  8
CLUSTERS
 66
     1
 10
0.0
 20
0.0
 30
0.0
 70
     1
  0
VERTEX
  5
660
  8
CLUSTERS
 10
736478.07499640936
 20
4560450.9237628784
 30
0.0
  0
VERTEX
  5
661
  8
CLUSTERS
 10
736506.59816659603
 20
4560583.8934988622
 30
0.0
  0
VERTEX
  5
662
  8
CLUSTERS
 10
736630.19866777898
 20
4560536.4043482719
 30
0.0
  0
VERTEX
  5
663
  8
CLUSTERS
 10
736592.16782271746
 20
4560422.4302979289
 30
0.0
  0
SEQEND
  5
664
  8
CLUSTERS
  0
POLYLINE
  5
E3
  8
CLUSTERS
 66
     1
 10
0.0
 20
0.0
 30
0.0
 70
     1
  0
VERTEX
  5
665
  8
CLUSTERS
 10
737409.83208325435
 20
4561134.7681284444
 30
0.0
  0
VERTEX
  5
666
  8
CLUSTERS
 10
737504.90926868899
 20
4561096.7767571593
 30
0.0
  0
VERTEX
  5
667
  8
CLUSTERS
 10
737466.87842362735
 20
4561020.7940781023
 30
0.0
  0
VERTEX
  5
668
  8
CLUSTERS
 10
737381.30891306815
 20
4561058.7854493903
 30
0.0
  0
SEQEND
  5
669
  8
CLUSTERS
  0
POLYLINE
  5
E4
  8
CLUSTERS
 66
     1
 10
0.0
 20
0.0
 30
0.0
 70
     1
  0
VERTEX
  5
66A
  8
CLUSTERS
 10
736459.05964665953
 20
4559368.1702528736
 30
0.0
  0
VERTEX
  5
66B
  8
CLUSTERS
 10
736459.05964665953
 20
4559463.1486175722
 30
0.0
  0
VERTEX
  5
66C
  8
CLUSTERS
 10
736535.1213367827
 20
4559482.1443032147
 30
0.0
  0
VERTEX
  5
66D
  8
CLUSTERS
 10
736554.1368320944
 20
4559358.6724100513
 30
0.0
  0
SEQEND
  5
66E
  8
CLUSTERS
  0
POLYLINE
  5
E5
  8
CLUSTERS
 66
     1
 10
0.0
 20
0.0
 30
0.0
 70
     1
  0
VERTEX
  5
66F
  8
CLUSTERS
 10
732979.22473242076
 20
4560531.5494153611
 30
0.0
  0
VERTEX
  5
670
  8
CLUSTERS
 10
732972.67735247535
 20
4560453.0636199396
 30
0.0
  0
VERTEX
  5
671
  8
CLUSTERS
 10
733129.81228772644
 20
4560407.280244573
 30
0.0
  0
VERTEX
  5
672
  8
CLUSTERS
 10
733165.82244073832
 20
4560443.252887574
 30
0.0
  0
VERTEX
  5
673
  8
CLUSTERS
 10
733156.00151638268
 20
4560505.3875047266
 30
0.0
  0
VERTEX
  5
674
  8
CLUSTERS
 10
733038.15027855407
 20
4560544.6303706756
 30
0.0
  0
SEQEND
  5
675
  8
CLUSTERS
  0
POLYLINE
  5
E6
  8
CLUSTERS
 66
     1
 10
0.0
 20
0.0
 30
0.0
 70
     1
  0
VERTEX
  5
676
  8
CLUSTERS
 10
732308.12760402216
 20
4560623.1161660962
 30
0.0
  0
VERTEX
  5
677
  8
CLUSTERS
 10
732399.78961319488
 20
4560616.5756566795
 30
0.0
  0
VERTEX
  5
678
  8
CLUSTERS
 10
732406.33699313994
 20
4560665.6292549958
 30
0.0
  0
VERTEX
  5
679
  8
CLUSTERS
 10
732389.96868883935
 20
4560691.7911656313
 30
0.0
  0
VERTEX
  5
67A
  8
CLUSTERS
 10
732321.22221835039
 20
4560698.3316750461
 30
0.0
  0
SEQEND
  5
67B
  8
CLUSTERS
  0
POLYLINE
  5
E7
  8
CLUSTERS
 66
     1
 10
0.0
 20
0.0
 30
0.0
 70
     1
  0
VERTEX
  5
67C
  8
CLUSTERS
 10
731964.39496045397
 20
4559759.7726705587
 30
0.0
  0
VERTEX
  5
67D
  8
CLUSTERS
 10
731970.94219483691
 20
4559808.826268875
 30
0.0
  0
VERTEX
  5
67E
  8
CLUSTERS
 10
732020.04681661481
 20
4559828.4476700919
 30
0.0
  0
VERTEX
  5
67F
  8
CLUSTERS
 10
732052.78327965387
 20
4559789.2048041411
 30
0.0
  0
VERTEX
  5
680
  8
CLUSTERS
 10
732023.32050658716
 20
4559756.5023840899
 30
0.0
  0
SEQEND
  5
681
  8
CLUSTERS
  0
POLYLINE
  5
E8
  8
CLUSTERS
 66
     1
 10
0.0
 20
0.0
 30
0.0
 70
     1
  0
VERTEX
  5
682
  8
CLUSTERS
 10
733215.75429151161
 20
4559089.8088245792
 30
0.0
  0
VERTEX
  5
683
  8
CLUSTERS
 10
733178.38881047268
 20
4559183.1252414584
 30
0.0
  0
VERTEX
  5
684
  8
CLUSTERS
 10
733229.76623773004
 20
4559215.7859301995
 30
0.0
  0
VERTEX
  5
685
  8
CLUSTERS
 10
733281.14366498729
 20
4559187.7910178397
 30
0.0
  0
VERTEX
  5
686
  8
CLUSTERS
 10
733304.49705424579
 20
4559108.4720571404
 30
0.0
  0
SEQEND
  5
687
  8
CLUSTERS
  0
POLYLINE
  5
E9
  8
CLUSTERS
 66
     1
 10
0.0
 20
0.0
 30
0.0
 70
     1
  0
VERTEX
  5
688
  8
CLUSTERS
 10
732001.37819561153
 20
4559047.8163925223
 30
0.0
  0
VERTEX
  5
689
  8
CLUSTERS
 10
732010.71949309052
 20
4559127.1353532206
 30
0.0
  0
VERTEX
  5
68A
  8
CLUSTERS
 10
732155.51047738304
 20
4559094.4746009614
 30
0.0
  0
VERTEX
  5
68B
  8
CLUSTERS
 10
732118.1451419061
 20
4559019.8214801606
 30
0.0
  0
SEQEND
  5
68C
  8
CLUSTERS
  0
POLYLINE
  5
EA
  8
CLUSTERS
 66
     1
 10
0.0
 20
0.0
 30
0.0
 70
     1
  0
VERTEX
  5
68D
  8
CLUSTERS
 10
734555.08825449098
 20
4558293.6125307214
 30
0.0
  0
VERTEX
  5
68E
  8
CLUSTERS
 10
734588.40769344557
 20
4558253.6707129711
 30
0.0
  0
VERTEX
  5
68F
  8
CLUSTERS
 10
734661.71054648305
 20
4558233.6998358574
 30
0.0
  0
VERTEX
  5
690
  8
CLUSTERS
 10
734695.02998543798
 20
4558266.9846522193
 30
0.0
  0
VERTEX
  5
691
  8
CLUSTERS
 10
734661.71054648305
 20
4558326.8973470852
 30
0.0
  0
SEQEND
  5
692
  8
CLUSTERS
  0
POLYLINE
  5
EB
  8
CLUSTERS
 66
     1
 10
0.0
 20
0.0
 30
0.0
 70
     1
  0
VERTEX
  5
693
  8
CLUSTERS
 10
733093.32512795483
 20
4552576.9379836889
 30
0.0
  0
VERTEX
  5
694
  8
CLUSTERS
 10
733064.80195776792
 20
4552709.9077196717
 30
0.0
  0
VERTEX
  5
695
  8
CLUSTERS
 10
733169.38696363964
 20
4552747.8990909597
 30
0.0
  0
VERTEX
  5
696
  8
CLUSTERS
 10
733254.95647419943
 20
4552652.920662743
 30
0.0
  0
VERTEX
  5
697
  8
CLUSTERS
 10
733178.89478407649
 20
4552576.9379836889
 30
0.0
  0
SEQEND
  5
698
  8
CLUSTERS
  0
POLYLINE
  5
EC
  8
CLUSTERS
 66
     1
 10
0.0
 20
0.0
 30
0.0
 70
     1
  0
VERTEX
  5
699
  8
CLUSTERS
 10
734671.60745421657
 20
4552947.3536631763
 30
0.0
  0
VERTEX
  5
69A
  8
CLUSTERS
 10
734662.09977934172
 20
4553023.3363422314
 30
0.0
  0
VERTEX
  5
69B
  8
CLUSTERS
 10
734776.19246008806
 20
4553023.3363422314
 30
0.0
  0
VERTEX
  5
69C
  8
CLUSTERS
 10
734795.20780983788
 20
4552947.3536631763
 30
0.0
  0
SEQEND
  5
69D
  8
CLUSTERS
  0
POLYLINE
  5
ED
  8
CLUSTERS
 66
     1
 10
0.0
 20
0.0
 30
0.0
 70
     1
  0
VERTEX
  5
69E
  8
CLUSTERS
 10
727502.78333469457
 20
4551921.5871465867
 30
0.0
  0
VERTEX
  5
69F
  8
CLUSTERS
 10
727493.27551425761
 20
4552016.5655112844
 30
0.0
  0
VERTEX
  5
6A0
  8
CLUSTERS
 10
727607.36819500395
 20
4552073.552568214
 30
0.0
  0
VERTEX
  5
6A1
  8
CLUSTERS
 10
727673.92235581414
 20
4551988.0720463358
 30
0.0
  0
VERTEX
  5
6A2
  8
CLUSTERS
 10
727588.35284525435
 20
4551893.093618121
 30
0.0
  0
SEQEND
  5
6A3
  8
CLUSTERS
  0
POLYLINE
  5
EE
  8
CLUSTERS
 66
     1
 10
0.0
 20
0.0
 30
0.0
 70
     1
  0
VERTEX
  5
6A4
  8
CLUSTERS
 10
727386.94201732567
 20
4549393.3689234024
 30
0.0
  0
VERTEX
  5
6A5
  8
CLUSTERS
 10
727397.9242355274
 20
4549437.252031507
 30
0.0
  0
VERTEX
  5
6A6
  8
CLUSTERS
 10
727439.41246983851
 20
4549455.536633417
 30
0.0
  0
VERTEX
  5
6A7
  8
CLUSTERS
 10
727477.24011031131
 20
4549438.4710049666
 30
0.0
  0
VERTEX
  5
6A8
  8
CLUSTERS
 10
727451.61493450741
 20
4549399.4637907054
 30
0.0
  0
VERTEX
  5
6A9
  8
CLUSTERS
 10
727413.78743959649
 20
4549390.9309764784
 30
0.0
  0
SEQEND
  5
6AA
  8
CLUSTERS
  0
POLYLINE
  5
EF
  8
CLUSTERS
 66
     1
 10
0.0
 20
0.0
 30
0.0
 70
     1
  0
VERTEX
  5
6AB
  8
CLUSTERS
 10
727235.63203768316
 20
4549468.9453414856
 30
0.0
  0
VERTEX
  5
6AC
  8
CLUSTERS
 10
727220.98908008065
 20
4549487.2299433993
 30
0.0
  0
VERTEX
  5
6AD
  8
CLUSTERS
 10
727231.97129828238
 20
4549511.6094126143
 30
0.0
  0
VERTEX
  5
6AE
  8
CLUSTERS
 10
727258.81657499133
 20
4549518.9232533788
 30
0.0
  0
VERTEX
  5
6AF
  8
CLUSTERS
 10
727286.8822437292
 20
4549498.2007045466
 30
0.0
  0
VERTEX
  5
6B0
  8
CLUSTERS
 10
727274.67977906065
 20
4549467.7263680259
 30
0.0
  0
SEQEND
  5
6B1
  8
CLUSTERS
  0
ENDSEC
  0
EOF
