  0
SECTION
  2
HEADER
  9
$ACADVER
  1
AC1009
  9
$INSBASE
 10
0.0
 20
0.0
 30
0.0
  9
$EXTMIN
 10
167012.3741414407
 20
9936003.9187878761
 30
0.0
  9
$EXTMAX
 10
186964.2788996837
 20
9958187.6184387803
 30
0.0
  9
$LIMMIN
 10
0.0
 20
0.0
  9
$LIMMAX
 10
12.0
 20
9.0
  9
$ORTHOMODE
 70
     0
  9
$REGENMODE
 70
     1
  9
$FILLMODE
 70
     1
  9
$QTEXTMODE
 70
     0
  9
$MIRRTEXT
 70
     1
  9
$DRAGMODE
 70
     2
  9
$LTSCALE
 40
1.0
  9
$OSMODE
 70
   513
  9
$ATTMODE
 70
     1
  9
$TEXTSIZE
 40
100.0
  9
$TRACEWID
 40
0.05
  9
$TEXTSTYLE
  7
STANDARD
  9
$CLAYER
  8
GRID_500X500M
  9
$CELTYPE
  6
BYLAYER
  9
$CECOLOR
 62
   256
  9
$DIMSCALE
 40
1.0
  9
$DIMASZ
 40
0.18
  9
$DIMEXO
 40
0.0625
  9
$DIMDLI
 40
0.38
  9
$DIMRND
 40
0.0
  9
$DIMDLE
 40
0.0
  9
$DIMEXE
 40
0.18
  9
$DIMTP
 40
0.0
  9
$DIMTM
 40
0.0
  9
$DIMTXT
 40
0.18
  9
$DIMCEN
 40
0.09
  9
$DIMTSZ
 40
0.0
  9
$DIMTOL
 70
     0
  9
$DIMLIM
 70
     0
  9
$DIMTIH
 70
     1
  9
$DIMTOH
 70
     1
  9
$DIMSE1
 70
     0
  9
$DIMSE2
 70
     0
  9
$DIMTAD
 70
     0
  9
$DIMZIN
 70
     0
  9
$DIMBLK
  1

  9
$DIMASO
 70
     1
  9
$DIMSHO
 70
     1
  9
$DIMPOST
  1

  9
$DIMAPOST
  1

  9
$DIMALT
 70
     0
  9
$DIMALTD
 70
     2
  9
$DIMALTF
 40
25.399999999999999
  9
$DIMLFAC
 40
1.0
  9
$DIMTOFL
 70
     0
  9
$DIMTVP
 40
0.0
  9
$DIMTIX
 70
     0
  9
$DIMSOXD
 70
     0
  9
$DIMSAH
 70
     0
  9
$DIMBLK1
  1

  9
$DIMBLK2
  1

  9
$DIMSTYLE
  2
STANDARD
  9
$DIMCLRD
 70
     0
  9
$DIMCLRE
 70
     0
  9
$DIMCLRT
 70
     0
  9
$DIMTFAC
 40
1.0
  9
$DIMGAP
 40
0.09
  9
$LUNITS
 70
     2
  9
$LUPREC
 70
     4
  9
$SKETCHINC
 40
0.1
  9
$FILLETRAD
 40
0.5
  9
$AUNITS
 70
     0
  9
$AUPREC
 70
     0
  9
$MENU
  1
.
  9
$ELEVATION
 40
0.0
  9
$PELEVATION
 40
0.0
  9
$THICKNESS
 40
0.0
  9
$LIMCHECK
 70
     0
  9
$BLIPMODE
 70
     0
  9
$CHAMFERA
 40
0.5
  9
$CHAMFERB
 40
0.5
  9
$SKPOLY
 70
     0
  9
$TDCREATE
 40
2452819.7035659491
  9
$TDUPDATE
 40
2454130.8501214231
  9
$TDINDWG
 40
14.560704444400001
  9
$TDUSRTIMER
 40
14.5607043287
  9
$USRTIMER
 70
     1
  9
$ANGBASE
 50
0.0
  9
$ANGDIR
 70
     0
  9
$PDMODE
 70
     0
  9
$PDSIZE
 40
0.0
  9
$PLINEWID
 40
0.0
  9
$COORDS
 70
     2
  9
$SPLFRAME
 70
     0
  9
$SPLINETYPE
 70
     6
  9
$SPLINESEGS
 70
     8
  9
$ATTDIA
 70
     0
  9
$ATTREQ
 70
     1
  9
$HANDLING
 70
 22529
  9
$HANDSEED
  5
2092
  9
$SURFTAB1
 70
     6
  9
$SURFTAB2
 70
     6
  9
$SURFTYPE
 70
     6
  9
$SURFU
 70
     6
  9
$SURFV
 70
     6
  9
$UCSNAME
  2

  9
$UCSORG
 10
0.0
 20
0.0
 30
0.0
  9
$UCSXDIR
 10
1.0
 20
0.0
 30
0.0
  9
$UCSYDIR
 10
0.0
 20
1.0
 30
0.0
  9
$PUCSNAME
  2

  9
$PUCSORG
 10
0.0
 20
0.0
 30
0.0
  9
$PUCSXDIR
 10
1.0
 20
0.0
 30
0.0
  9
$PUCSYDIR
 10
0.0
 20
1.0
 30
0.0
  9
$USERI1
 70
     0
  9
$USERI2
 70
     0
  9
$USERI3
 70
     0
  9
$USERI4
 70
     0
  9
$USERI5
 70
     0
  9
$USERR1
 40
0.0
  9
$USERR2
 40
0.0
  9
$USERR3
 40
0.0
  9
$USERR4
 40
0.0
  9
$USERR5
 40
0.0
  9
$WORLDVIEW
 70
     1
  9
$SHADEDGE
 70
     3
  9
$SHADEDIF
 70
    70
  9
$TILEMODE
 70
     1
  9
$MAXACTVP
 70
    64
  9
$PLIMCHECK
 70
     0
  9
$PEXTMIN
 10
0.0
 20
0.0
 30
0.0
  9
$PEXTMAX
 10
0.0
 20
0.0
 30
0.0
  9
$PLIMMIN
 10
0.0
 20
0.0
  9
$PLIMMAX
 10
12.0
 20
9.0
  9
$UNITMODE
 70
     0
  9
$VISRETAIN
 70
     1
  9
$PLINEGEN
 70
     0
  9
$PSLTSCALE
 70
     1
  0
ENDSEC
  0
SECTION
  2
TABLES
  0
TABLE
  2
VPORT
 70
     2
  0
VPORT
  2
*ACTIVE
 70
     0
 10
0.0
 20
0.0
 11
1.0
 21
1.0
 12
182310.44642271189
 22
9948756.7975028995
 13
0.0
 23
0.0
 14
500.0
 24
500.0
 15
0.5
 25
0.5
 16
0.0
 26
0.0
 36
1.0
 17
0.0
 27
0.0
 37
0.0
 40
26359.65942786391
 41
1.8877192982456139
 42
50.0
 43
0.0
 44
0.0
 50
0.0
 51
0.0
 71
     0
 72
   100
 73
     1
 74
     2
 75
     0
 76
     0
 77
     0
 78
     0
  0
ENDTAB
  0
TABLE
  2
LTYPE
 70
     1
  0
LTYPE
  2
CONTINUOUS
 70
     0
  3
Solid line
 72
    65
 73
     0
 40
0.0
  0
ENDTAB
  0
TABLE
  2
LAYER
 70
     3
  0
LAYER
  2
0
 70
     0
 62
     7
  6
CONTINUOUS
  0
LAYER
  2
GRID_500X500M
 70
     0
 62
     5
  6
CONTINUOUS
  0
LAYER
  2
SURVEY_LIMIT
 70
     0
 62
     7
  6
CONTINUOUS
  0
ENDTAB
  0
TABLE
  2
STYLE
 70
     1
  0
STYLE
  2
STANDARD
 70
     0
 40
0.0
 41
1.0
 50
0.0
 71
     0
 42
100.0
  3
txt
  4

  0
ENDTAB
  0
TABLE
  2
VIEW
 70
     0
  0
ENDTAB
  0
TABLE
  2
UCS
 70
     0
  0
ENDTAB
  0
TABLE
  2
APPID
 70
     3
  0
APPID
  2
ACAD
 70
     0
  0
APPID
  2
ADE
 70
     0
  0
APPID
  2
DCO15
 70
     0
  0
ENDTAB
  0
TABLE
  2
DIMSTYLE
 70
     1
  0
DIMSTYLE
  2
STANDARD
 70
     0
  3

  4

  5

  6

  7

 40
1.0
 41
0.18
 42
0.0625
 43
0.38
 44
0.18
 45
0.0
 46
0.0
 47
0.0
 48
0.0
140
0.18
141
0.09
142
0.0
143
25.399999999999999
144
1.0
145
0.0
146
1.0
147
0.09
 71
     0
 72
     0
 73
     1
 74
     1
 75
     0
 76
     0
 77
     0
 78
     0
170
     0
171
     2
172
     0
173
     0
174
     0
175
     0
176
     0
177
     0
178
     0
  0
ENDTAB
  0
ENDSEC
  0
SECTION
  2
BLOCKS
  0
BLOCK
  8
0
  2
$MODEL_SPACE
 70
     0
 10
0.0
 20
0.0
 30
0.0
  3
$MODEL_SPACE
  1

  0
ENDBLK
  5
D21
  8
0
  0
BLOCK
 67
     1
  8
0
  2
$PAPER_SPACE
 70
     0
 10
0.0
 20
0.0
 30
0.0
  3
$PAPER_SPACE
  1

  0
ENDBLK
  5
D1D
 67
     1
  8
0
  0
ENDSEC
  0
SECTION
  2
ENTITIES
  0
POLYLINE
  5
D30
  8
SURVEY_LIMIT
  6
BYBLOCK
 66
     1
 10
0.0
 20
0.0
 30
0.0
 70
     1
 40
2.0
 41
2.0
  0
VERTEX
  5
172E
  8
SURVEY_LIMIT
  6
BYBLOCK
 10
169215.6900397912
 20
9952900.9645593204
 30
0.0
  0
VERTEX
  5
172F
  8
SURVEY_LIMIT
  6
BYBLOCK
 10
169215.6900397912
 20
9952911.4262591247
 30
0.0
  0
VERTEX
  5
1730
  8
SURVEY_LIMIT
  6
BYBLOCK
 10
169212.18437475339
 20
9952930.5980069954
 30
0.0
  0
VERTEX
  5
1731
  8
SURVEY_LIMIT
  6
BYBLOCK
 10
169210.44602845231
 20
9952961.3724388182
 30
0.0
  0
VERTEX
  5
1732
  8
SURVEY_LIMIT
  6
BYBLOCK
 10
169206.38988708699
 20
9952994.4931197632
 30
0.0
  0
VERTEX
  5
1733
  8
SURVEY_LIMIT
  6
BYBLOCK
 10
169209.28713092199
 20
9953014.2273246087
 30
0.0
  0
VERTEX
  5
1734
  8
SURVEY_LIMIT
  6
BYBLOCK
 10
169218.00783485521
 20
9953031.6634909455
 30
0.0
  0
VERTEX
  5
1735
  8
SURVEY_LIMIT
  6
BYBLOCK
 10
169225.56964125851
 20
9953050.2406414356
 30
0.0
  0
VERTEX
  5
1736
  8
SURVEY_LIMIT
  6
BYBLOCK
 10
169231.36412892491
 20
9953065.3466288634
 30
0.0
  0
VERTEX
  5
1737
  8
SURVEY_LIMIT
  6
BYBLOCK
 10
169235.44924272591
 20
9953088.0056100003
 30
0.0
  0
VERTEX
  5
1738
  8
SURVEY_LIMIT
  6
BYBLOCK
 10
169234.8987663984
 20
9953103.4812120069
 30
0.0
  0
VERTEX
  5
1739
  8
SURVEY_LIMIT
  6
BYBLOCK
 10
169234.31931763139
 20
9953127.8757746816
 30
0.0
  0
VERTEX
  5
173A
  8
SURVEY_LIMIT
  6
BYBLOCK
 10
169235.47821516541
 20
9953138.9160016645
 30
0.0
  0
VERTEX
  5
173B
  8
SURVEY_LIMIT
  6
BYBLOCK
 10
169238.3754589966
 20
9953156.9146249779
 30
0.0
  0
VERTEX
  5
173C
  8
SURVEY_LIMIT
  6
BYBLOCK
 10
169241.852151595
 20
9953177.2434272021
 30
0.0
  0
VERTEX
  5
173D
  8
SURVEY_LIMIT
  6
BYBLOCK
 10
169248.834509231
 20
9953200.4809355158
 30
0.0
  0
VERTEX
  5
173E
  8
SURVEY_LIMIT
  6
BYBLOCK
 10
169251.7607255019
 20
9953217.9010316562
 30
0.0
  0
VERTEX
  5
173F
  8
SURVEY_LIMIT
  6
BYBLOCK
 10
169258.1346619351
 20
9953231.849964723
 30
0.0
  0
VERTEX
  5
1740
  8
SURVEY_LIMIT
  6
BYBLOCK
 10
169261.64032697299
 20
9953244.6257732343
 30
0.0
  0
VERTEX
  5
1741
  8
SURVEY_LIMIT
  6
BYBLOCK
 10
169268.0142634025
 20
9953256.2445273958
 30
0.0
  0
VERTEX
  5
1742
  8
SURVEY_LIMIT
  6
BYBLOCK
 10
169275.57606980571
 20
9953269.5988630876
 30
0.0
  0
VERTEX
  5
1743
  8
SURVEY_LIMIT
  6
BYBLOCK
 10
169284.87622250611
 20
9953282.9692689776
 30
0.0
  0
VERTEX
  5
1744
  8
SURVEY_LIMIT
  6
BYBLOCK
 10
169290.699682612
 20
9953292.8363714051
 30
0.0
  0
VERTEX
  5
1745
  8
SURVEY_LIMIT
  6
BYBLOCK
 10
169292.43802890921
 20
9953305.0336527377
 30
0.0
  0
VERTEX
  5
1746
  8
SURVEY_LIMIT
  6
BYBLOCK
 10
169294.75582397351
 20
9953321.8752216958
 30
0.0
  0
VERTEX
  5
1747
  8
SURVEY_LIMIT
  6
BYBLOCK
 10
169299.9998353124
 20
9953341.0469695665
 30
0.0
  0
VERTEX
  5
1748
  8
SURVEY_LIMIT
  6
BYBLOCK
 10
169299.9998353124
 20
9953357.3100113459
 30
0.0
  0
VERTEX
  5
1749
  8
SURVEY_LIMIT
  6
BYBLOCK
 10
169302.31763037661
 20
9953373.5730531272
 30
0.0
  0
VERTEX
  5
174A
  8
SURVEY_LIMIT
  6
BYBLOCK
 10
169305.82329541439
 20
9953390.2539200932
 30
0.0
  0
VERTEX
  5
174B
  8
SURVEY_LIMIT
  6
BYBLOCK
 10
169307.56164171521
 20
9953408.8471407834
 30
0.0
  0
VERTEX
  5
174C
  8
SURVEY_LIMIT
  6
BYBLOCK
 10
169311.6467555165
 20
9953426.2672369219
 30
0.0
  0
VERTEX
  5
174D
  8
SURVEY_LIMIT
  6
BYBLOCK
 10
169312.22620428351
 20
9953448.3476908803
 30
0.0
  0
VERTEX
  5
174E
  8
SURVEY_LIMIT
  6
BYBLOCK
 10
169319.78801068661
 20
9953472.1476561762
 30
0.0
  0
VERTEX
  5
174F
  8
SURVEY_LIMIT
  6
BYBLOCK
 10
169322.68525451791
 20
9953495.9636916649
 30
0.0
  0
VERTEX
  5
1750
  8
SURVEY_LIMIT
  6
BYBLOCK
 10
169325.582498353
 20
9953518.0441456307
 30
0.0
  0
VERTEX
  5
1751
  8
SURVEY_LIMIT
  6
BYBLOCK
 10
169328.5087146236
 20
9953538.3729478531
 30
0.0
  0
VERTEX
  5
1752
  8
SURVEY_LIMIT
  6
BYBLOCK
 10
169333.72375351921
 20
9953561.0319289882
 30
0.0
  0
VERTEX
  5
1753
  8
SURVEY_LIMIT
  6
BYBLOCK
 10
169334.8826510534
 20
9953573.2292103283
 30
0.0
  0
VERTEX
  5
1754
  8
SURVEY_LIMIT
  6
BYBLOCK
 10
169340.12666238839
 20
9953591.2278336417
 30
0.0
  0
VERTEX
  5
1755
  8
SURVEY_LIMIT
  6
BYBLOCK
 10
169342.47342989591
 20
9953604.9999945145
 30
0.0
  0
VERTEX
  5
1756
  8
SURVEY_LIMIT
  6
BYBLOCK
 10
169350.6146850622
 20
9953624.7502695657
 30
0.0
  0
VERTEX
  5
1757
  8
SURVEY_LIMIT
  6
BYBLOCK
 10
169354.1203501001
 20
9953636.9475508984
 30
0.0
  0
VERTEX
  5
1758
  8
SURVEY_LIMIT
  6
BYBLOCK
 10
169358.7559402324
 20
9953646.8307235241
 30
0.0
  0
VERTEX
  5
1759
  8
SURVEY_LIMIT
  6
BYBLOCK
 10
169368.6355416998
 20
9953661.3581837732
 30
0.0
  0
VERTEX
  5
175A
  8
SURVEY_LIMIT
  6
BYBLOCK
 10
169376.7767968699
 20
9953671.2252861969
 30
0.0
  0
VERTEX
  5
175B
  8
SURVEY_LIMIT
  6
BYBLOCK
 10
169386.65639833731
 20
9953685.7527464442
 30
0.0
  0
VERTEX
  5
175C
  8
SURVEY_LIMIT
  6
BYBLOCK
 10
169390.74151214201
 20
9953691.5540884249
 30
0.0
  0
VERTEX
  5
175D
  8
SURVEY_LIMIT
  6
BYBLOCK
 10
169394.2182047402
 20
9953697.9500277787
 30
0.0
  0
VERTEX
  5
175E
  8
SURVEY_LIMIT
  6
BYBLOCK
 10
169397.11544857171
 20
9953705.503021488
 30
0.0
  0
VERTEX
  5
175F
  8
SURVEY_LIMIT
  6
BYBLOCK
 10
169401.2005623765
 20
9953720.0144115388
 30
0.0
  0
VERTEX
  5
1760
  8
SURVEY_LIMIT
  6
BYBLOCK
 10
169405.25670374179
 20
9953736.2774533182
 30
0.0
  0
VERTEX
  5
1761
  8
SURVEY_LIMIT
  6
BYBLOCK
 10
169410.50071507681
 20
9953759.514961632
 30
0.0
  0
VERTEX
  5
1762
  8
SURVEY_LIMIT
  6
BYBLOCK
 10
169415.7157539762
 20
9953772.2907701433
 30
0.0
  0
VERTEX
  5
1763
  8
SURVEY_LIMIT
  6
BYBLOCK
 10
169416.87465151021
 20
9953781.0008182172
 30
0.0
  0
VERTEX
  5
1764
  8
SURVEY_LIMIT
  6
BYBLOCK
 10
169416.87465151021
 20
9953790.8839908391
 30
0.0
  0
VERTEX
  5
1765
  8
SURVEY_LIMIT
  6
BYBLOCK
 10
169417.48307271299
 20
9953808.8826141544
 30
0.0
  0
VERTEX
  5
1766
  8
SURVEY_LIMIT
  6
BYBLOCK
 10
169416.87465151021
 20
9953836.1858829148
 30
0.0
  0
VERTEX
  5
1767
  8
SURVEY_LIMIT
  6
BYBLOCK
 10
169419.22141901401
 20
9953861.1589727681
 30
0.0
  0
VERTEX
  5
1768
  8
SURVEY_LIMIT
  6
BYBLOCK
 10
169423.9149540216
 20
9953880.0896676444
 30
0.0
  0
VERTEX
  5
1769
  8
SURVEY_LIMIT
  6
BYBLOCK
 10
169427.97109538681
 20
9953904.4842303172
 30
0.0
  0
VERTEX
  5
176A
  8
SURVEY_LIMIT
  6
BYBLOCK
 10
169429.7094416878
 20
9953920.7472720966
 30
0.0
  0
VERTEX
  5
176B
  8
SURVEY_LIMIT
  6
BYBLOCK
 10
169437.2712480872
 20
9953930.0519175418
 30
0.0
  0
VERTEX
  5
176C
  8
SURVEY_LIMIT
  6
BYBLOCK
 10
169450.07706582919
 20
9953946.3149593268
 30
0.0
  0
VERTEX
  5
176D
  8
SURVEY_LIMIT
  6
BYBLOCK
 10
169462.27446236089
 20
9953960.8263493702
 30
0.0
  0
VERTEX
  5
176E
  8
SURVEY_LIMIT
  6
BYBLOCK
 10
169470.995166298
 20
9953970.1309948154
 30
0.0
  0
VERTEX
  5
176F
  8
SURVEY_LIMIT
  6
BYBLOCK
 10
169477.398075167
 20
9953979.9980972428
 30
0.0
  0
VERTEX
  5
1770
  8
SURVEY_LIMIT
  6
BYBLOCK
 10
169481.8888031058
 20
9954007.285295805
 30
0.0
  0
VERTEX
  5
1771
  8
SURVEY_LIMIT
  6
BYBLOCK
 10
169492.34785334021
 20
9954038.6543250084
 30
0.0
  0
VERTEX
  5
1772
  8
SURVEY_LIMIT
  6
BYBLOCK
 10
169498.92459684229
 20
9954077.9459625129
 30
0.0
  0
VERTEX
  5
1773
  8
SURVEY_LIMIT
  6
BYBLOCK
 10
169501.82184067371
 20
9954123.2478545848
 30
0.0
  0
VERTEX
  5
1774
  8
SURVEY_LIMIT
  6
BYBLOCK
 10
169500.08349437261
 20
9954165.6571107768
 30
0.0
  0
VERTEX
  5
1775
  8
SURVEY_LIMIT
  6
BYBLOCK
 10
169504.89291913429
 20
9954243.5654374082
 30
0.0
  0
VERTEX
  5
1776
  8
SURVEY_LIMIT
  6
BYBLOCK
 10
169510.5425446108
 20
9954286.24788698
 30
0.0
  0
VERTEX
  5
1777
  8
SURVEY_LIMIT
  6
BYBLOCK
 10
169511.17993825299
 20
9954346.012958508
 30
0.0
  0
VERTEX
  5
1778
  8
SURVEY_LIMIT
  6
BYBLOCK
 10
169500.72088801861
 20
9954381.5602395516
 30
0.0
  0
VERTEX
  5
1779
  8
SURVEY_LIMIT
  6
BYBLOCK
 10
169477.25321297339
 20
9954418.9877339266
 30
0.0
  0
VERTEX
  5
177A
  8
SURVEY_LIMIT
  6
BYBLOCK
 10
169456.47997469819
 20
9954454.1011195946
 30
0.0
  0
VERTEX
  5
177B
  8
SURVEY_LIMIT
  6
BYBLOCK
 10
169433.67866573841
 20
9954487.5432045218
 30
0.0
  0
VERTEX
  5
177C
  8
SURVEY_LIMIT
  6
BYBLOCK
 10
169421.45229676351
 20
9954522.3833967932
 30
0.0
  0
VERTEX
  5
177D
  8
SURVEY_LIMIT
  6
BYBLOCK
 10
169394.1312874257
 20
9954581.6342219356
 30
0.0
  0
VERTEX
  5
177E
  8
SURVEY_LIMIT
  6
BYBLOCK
 10
169384.2516859583
 20
9954615.9119572304
 30
0.0
  0
VERTEX
  5
177F
  8
SURVEY_LIMIT
  6
BYBLOCK
 10
169370.98230920351
 20
9954657.5498438515
 30
0.0
  0
VERTEX
  5
1780
  8
SURVEY_LIMIT
  6
BYBLOCK
 10
169380.7749933562
 20
9954671.6594789121
 30
0.0
  0
VERTEX
  5
1781
  8
SURVEY_LIMIT
  6
BYBLOCK
 10
169397.63695246351
 20
9954666.4366641082
 30
0.0
  0
VERTEX
  5
1782
  8
SURVEY_LIMIT
  6
BYBLOCK
 10
169431.91134699801
 20
9954640.8850470819
 30
0.0
  0
VERTEX
  5
1783
  8
SURVEY_LIMIT
  6
BYBLOCK
 10
169484.81501937649
 20
9954599.6328452509
 30
0.0
  0
VERTEX
  5
1784
  8
SURVEY_LIMIT
  6
BYBLOCK
 10
169531.315782886
 20
9954568.8584134225
 30
0.0
  0
VERTEX
  5
1785
  8
SURVEY_LIMIT
  6
BYBLOCK
 10
169561.3891738652
 20
9954552.9971266277
 30
0.0
  0
VERTEX
  5
1786
  8
SURVEY_LIMIT
  6
BYBLOCK
 10
169622.08643215511
 20
9954471.4569349308
 30
0.0
  0
VERTEX
  5
1787
  8
SURVEY_LIMIT
  6
BYBLOCK
 10
169657.66458641741
 20
9954425.4640242793
 30
0.0
  0
VERTEX
  5
1788
  8
SURVEY_LIMIT
  6
BYBLOCK
 10
169673.80223456011
 20
9954390.5916916076
 30
0.0
  0
VERTEX
  5
1789
  8
SURVEY_LIMIT
  6
BYBLOCK
 10
169715.8122701309
 20
9954382.1869773306
 30
0.0
  0
VERTEX
  5
178A
  8
SURVEY_LIMIT
  6
BYBLOCK
 10
169764.5728838295
 20
9954375.4696339834
 30
0.0
  0
VERTEX
  5
178B
  8
SURVEY_LIMIT
  6
BYBLOCK
 10
169820.0261307804
 20
9954372.1109623127
 30
0.0
  0
VERTEX
  5
178C
  8
SURVEY_LIMIT
  6
BYBLOCK
 10
169895.6731672436
 20
9954378.828305658
 30
0.0
  0
VERTEX
  5
178D
  8
SURVEY_LIMIT
  6
BYBLOCK
 10
169947.76561135051
 20
9954387.2330199387
 30
0.0
  0
VERTEX
  5
178E
  8
SURVEY_LIMIT
  6
BYBLOCK
 10
169999.88702789319
 20
9954398.9964058883
 30
0.0
  0
VERTEX
  5
178F
  8
SURVEY_LIMIT
  6
BYBLOCK
 10
170062.06188053641
 20
9954402.3550775591
 30
0.0
  0
VERTEX
  5
1790
  8
SURVEY_LIMIT
  6
BYBLOCK
 10
170114.183297079
 20
9954397.3090349566
 30
0.0
  0
VERTEX
  5
1791
  8
SURVEY_LIMIT
  6
BYBLOCK
 10
170161.2345369159
 20
9954393.9503632821
 30
0.0
  0
VERTEX
  5
1792
  8
SURVEY_LIMIT
  6
BYBLOCK
 10
170208.2857767528
 20
9954393.9503632821
 30
0.0
  0
VERTEX
  5
1793
  8
SURVEY_LIMIT
  6
BYBLOCK
 10
170272.1700032576
 20
9954388.9043206722
 30
0.0
  0
VERTEX
  5
1794
  8
SURVEY_LIMIT
  6
BYBLOCK
 10
170347.81703972071
 20
9954375.4696339834
 30
0.0
  0
VERTEX
  5
1795
  8
SURVEY_LIMIT
  6
BYBLOCK
 10
170404.9506880939
 20
9954365.3936189674
 30
0.0
  0
VERTEX
  5
1796
  8
SURVEY_LIMIT
  6
BYBLOCK
 10
170453.6823293528
 20
9954360.3636465594
 30
0.0
  0
VERTEX
  5
1797
  8
SURVEY_LIMIT
  6
BYBLOCK
 10
170500.7625416294
 20
9954375.4696339834
 30
0.0
  0
VERTEX
  5
1798
  8
SURVEY_LIMIT
  6
BYBLOCK
 10
170567.97859854251
 20
9954414.1023933142
 30
0.0
  0
VERTEX
  5
1799
  8
SURVEY_LIMIT
  6
BYBLOCK
 10
170596.57439516479
 20
9954454.4064533785
 30
0.0
  0
VERTEX
  5
179A
  8
SURVEY_LIMIT
  6
BYBLOCK
 10
170640.2648321575
 20
9954481.2758267559
 30
0.0
  0
VERTEX
  5
179B
  8
SURVEY_LIMIT
  6
BYBLOCK
 10
170671.00458921859
 20
9954528.0722473767
 30
0.0
  0
VERTEX
  5
179C
  8
SURVEY_LIMIT
  6
BYBLOCK
 10
170682.65150942651
 20
9954569.9351167846
 30
0.0
  0
VERTEX
  5
179D
  8
SURVEY_LIMIT
  6
BYBLOCK
 10
170708.26314490291
 20
9954635.0676349029
 30
0.0
  0
VERTEX
  5
179E
  8
SURVEY_LIMIT
  6
BYBLOCK
 10
170733.8747803829
 20
9954700.200153023
 30
0.0
  0
VERTEX
  5
179F
  8
SURVEY_LIMIT
  6
BYBLOCK
 10
170771.1333360672
 20
9954735.0885558967
 30
0.0
  0
VERTEX
  5
17A0
  8
SURVEY_LIMIT
  6
BYBLOCK
 10
170850.28603756419
 20
9954776.9674955029
 30
0.0
  0
VERTEX
  5
17A1
  8
SURVEY_LIMIT
  6
BYBLOCK
 10
170915.44505135331
 20
9954797.9069653042
 30
0.0
  0
VERTEX
  5
17A2
  8
SURVEY_LIMIT
  6
BYBLOCK
 10
170962.0327321775
 20
9954809.5257194582
 30
0.0
  0
VERTEX
  5
17A3
  8
SURVEY_LIMIT
  6
BYBLOCK
 10
171003.92687799409
 20
9954832.795368176
 30
0.0
  0
VERTEX
  5
17A4
  8
SURVEY_LIMIT
  6
BYBLOCK
 10
171038.83866617459
 20
9954779.2976744156
 30
0.0
  0
VERTEX
  5
17A5
  8
SURVEY_LIMIT
  6
BYBLOCK
 10
171050.48558638239
 20
9954683.9210410397
 30
0.0
  0
VERTEX
  5
17A6
  8
SURVEY_LIMIT
  6
BYBLOCK
 10
171111.00901003921
 20
9954590.874586584
 30
0.0
  0
VERTEX
  5
17A7
  8
SURVEY_LIMIT
  6
BYBLOCK
 10
171173.8792011998
 20
9954530.3863560855
 30
0.0
  0
VERTEX
  5
17A8
  8
SURVEY_LIMIT
  6
BYBLOCK
 10
171220.43790958819
 20
9954469.9141957946
 30
0.0
  0
VERTEX
  5
17A9
  8
SURVEY_LIMIT
  6
BYBLOCK
 10
171257.66749283299
 20
9954432.6956140064
 30
0.0
  0
VERTEX
  5
17AA
  8
SURVEY_LIMIT
  6
BYBLOCK
 10
171313.5553263574
 20
9954381.5120289568
 30
0.0
  0
VERTEX
  5
17AB
  8
SURVEY_LIMIT
  6
BYBLOCK
 10
171350.81388204169
 20
9954353.5980926212
 30
0.0
  0
VERTEX
  5
17AC
  8
SURVEY_LIMIT
  6
BYBLOCK
 10
171381.06110765401
 20
9954339.6491595488
 30
0.0
  0
VERTEX
  5
17AD
  8
SURVEY_LIMIT
  6
BYBLOCK
 10
171408.9905381946
 20
9954318.7096897475
 30
0.0
  0
VERTEX
  5
17AE
  8
SURVEY_LIMIT
  6
BYBLOCK
 10
171439.2667362428
 20
9954295.4400410336
 30
0.0
  0
VERTEX
  5
17AF
  8
SURVEY_LIMIT
  6
BYBLOCK
 10
171453.23145151511
 20
9954265.2119959816
 30
0.0
  0
VERTEX
  5
17B0
  8
SURVEY_LIMIT
  6
BYBLOCK
 10
171450.91365645081
 20
9954239.6121683586
 30
0.0
  0
VERTEX
  5
17B1
  8
SURVEY_LIMIT
  6
BYBLOCK
 10
171455.5492465831
 20
9954155.8703593481
 30
0.0
  0
VERTEX
  5
17B2
  8
SURVEY_LIMIT
  6
BYBLOCK
 10
171476.5252919271
 20
9954109.3471321147
 30
0.0
  0
VERTEX
  5
17B3
  8
SURVEY_LIMIT
  6
BYBLOCK
 10
171511.4370801076
 20
9954086.0935536046
 30
0.0
  0
VERTEX
  5
17B4
  8
SURVEY_LIMIT
  6
BYBLOCK
 10
171557.9957884959
 20
9954086.0935536046
 30
0.0
  0
VERTEX
  5
17B5
  8
SURVEY_LIMIT
  6
BYBLOCK
 10
171611.53685451669
 20
9954067.4842627104
 30
0.0
  0
VERTEX
  5
17B6
  8
SURVEY_LIMIT
  6
BYBLOCK
 10
171658.0955629012
 20
9954055.8494383544
 30
0.0
  0
VERTEX
  5
17B7
  8
SURVEY_LIMIT
  6
BYBLOCK
 10
171702.33647622171
 20
9954039.5703263711
 30
0.0
  0
VERTEX
  5
17B8
  8
SURVEY_LIMIT
  6
BYBLOCK
 10
171769.2048638722
 20
9953961.6459295377
 30
0.0
  0
VERTEX
  5
17B9
  8
SURVEY_LIMIT
  6
BYBLOCK
 10
171828.51144512001
 20
9953940.8993021268
 30
0.0
  0
VERTEX
  5
17BA
  8
SURVEY_LIMIT
  6
BYBLOCK
 10
171882.0525111444
 20
9953951.8913185131
 30
0.0
  0
VERTEX
  5
17BB
  8
SURVEY_LIMIT
  6
BYBLOCK
 10
171939.27307683229
 20
9953970.0185034219
 30
0.0
  0
VERTEX
  5
17BC
  8
SURVEY_LIMIT
  6
BYBLOCK
 10
171991.0757965557
 20
9953981.3801343925
 30
0.0
  0
VERTEX
  5
17BD
  8
SURVEY_LIMIT
  6
BYBLOCK
 10
172074.42950161171
 20
9953978.8571130857
 30
0.0
  0
VERTEX
  5
17BE
  8
SURVEY_LIMIT
  6
BYBLOCK
 10
172155.2626045346
 20
9953990.2187440507
 30
0.0
  0
VERTEX
  5
17BF
  8
SURVEY_LIMIT
  6
BYBLOCK
 10
172188.08837715539
 20
9953961.1959639546
 30
0.0
  0
VERTEX
  5
17C0
  8
SURVEY_LIMIT
  6
BYBLOCK
 10
172188.8416605517
 20
9953829.1310653836
 30
0.0
  0
VERTEX
  5
17C1
  8
SURVEY_LIMIT
  6
BYBLOCK
 10
172203.58863165599
 20
9953747.0284167137
 30
0.0
  0
VERTEX
  5
17C2
  8
SURVEY_LIMIT
  6
BYBLOCK
 10
172186.7266725525
 20
9953631.2265599184
 30
0.0
  0
VERTEX
  5
17C3
  8
SURVEY_LIMIT
  6
BYBLOCK
 10
172203.58863165599
 20
9953544.9135190081
 30
0.0
  0
VERTEX
  5
17C4
  8
SURVEY_LIMIT
  6
BYBLOCK
 10
172222.56557875851
 20
9953483.846761331
 30
0.0
  0
VERTEX
  5
17C5
  8
SURVEY_LIMIT
  6
BYBLOCK
 10
172233.082573872
 20
9953401.7441126555
 30
0.0
  0
VERTEX
  5
17C6
  8
SURVEY_LIMIT
  6
BYBLOCK
 10
172264.6915040797
 20
9953359.6401902568
 30
0.0
  0
VERTEX
  5
17C7
  8
SURVEY_LIMIT
  6
BYBLOCK
 10
172279.43847518781
 20
9953298.5734325834
 30
0.0
  0
VERTEX
  5
17C8
  8
SURVEY_LIMIT
  6
BYBLOCK
 10
172261.18583904571
 20
9953199.8702679425
 30
0.0
  0
VERTEX
  5
17C9
  8
SURVEY_LIMIT
  6
BYBLOCK
 10
172282.2488017045
 20
9953111.4520309083
 30
0.0
  0
VERTEX
  5
17CA
  8
SURVEY_LIMIT
  6
BYBLOCK
 10
172313.85773191601
 20
9953054.5956654679
 30
0.0
  0
VERTEX
  5
17CB
  8
SURVEY_LIMIT
  6
BYBLOCK
 10
172337.0646550133
 20
9952999.3623901755
 30
0.0
  0
VERTEX
  5
17CC
  8
SURVEY_LIMIT
  6
BYBLOCK
 10
172365.63147919989
 20
9952946.6199957859
 30
0.0
  0
VERTEX
  5
17CD
  8
SURVEY_LIMIT
  6
BYBLOCK
 10
172383.2467216998
 20
9952898.2647658214
 30
0.0
  0
VERTEX
  5
17CE
  8
SURVEY_LIMIT
  6
BYBLOCK
 10
172407.43870770189
 20
9952863.1031695604
 30
0.0
  0
VERTEX
  5
17CF
  8
SURVEY_LIMIT
  6
BYBLOCK
 10
172422.8230724521
 20
9952814.7479395997
 30
0.0
  0
VERTEX
  5
17D0
  8
SURVEY_LIMIT
  6
BYBLOCK
 10
172433.83259901399
 20
9952766.3927096464
 30
0.0
  0
VERTEX
  5
17D1
  8
SURVEY_LIMIT
  6
BYBLOCK
 10
172440.4383149519
 20
9952735.6343480162
 30
0.0
  0
VERTEX
  5
17D2
  8
SURVEY_LIMIT
  6
BYBLOCK
 10
172449.21696376431
 20
9952682.8919536192
 30
0.0
  0
VERTEX
  5
17D3
  8
SURVEY_LIMIT
  6
BYBLOCK
 10
172449.21696376431
 20
9952645.5287400447
 30
0.0
  0
VERTEX
  5
17D4
  8
SURVEY_LIMIT
  6
BYBLOCK
 10
172460.2264903262
 20
9952619.1575428452
 30
0.0
  0
VERTEX
  5
17D5
  8
SURVEY_LIMIT
  6
BYBLOCK
 10
172477.8127603902
 20
9952601.5767447166
 30
0.0
  0
VERTEX
  5
17D6
  8
SURVEY_LIMIT
  6
BYBLOCK
 10
172508.6104623265
 20
9952594.9718927704
 30
0.0
  0
VERTEX
  5
17D7
  8
SURVEY_LIMIT
  6
BYBLOCK
 10
172535.00435363859
 20
9952594.9718927704
 30
0.0
  0
VERTEX
  5
17D8
  8
SURVEY_LIMIT
  6
BYBLOCK
 10
172564.15062659231
 20
9952582.3246458527
 30
0.0
  0
VERTEX
  5
17D9
  8
SURVEY_LIMIT
  6
BYBLOCK
 10
172604.6251229308
 20
9952564.7117073238
 30
0.0
  0
VERTEX
  5
17DA
  8
SURVEY_LIMIT
  6
BYBLOCK
 10
172657.49982287359
 20
9952572.2647010367
 30
0.0
  0
VERTEX
  5
17DB
  8
SURVEY_LIMIT
  6
BYBLOCK
 10
172714.14093979439
 20
9952572.2647010367
 30
0.0
  0
VERTEX
  5
17DC
  8
SURVEY_LIMIT
  6
BYBLOCK
 10
172813.2266788593
 20
9952563.3939509746
 30
0.0
  0
VERTEX
  5
17DD
  8
SURVEY_LIMIT
  6
BYBLOCK
 10
172898.98509629819
 20
9952566.9615352359
 30
0.0
  0
VERTEX
  5
17DE
  8
SURVEY_LIMIT
  6
BYBLOCK
 10
172971.6479716152
 20
9952595.5182795469
 30
0.0
  0
VERTEX
  5
17DF
  8
SURVEY_LIMIT
  6
BYBLOCK
 10
173026.43485248461
 20
9952668.1234403849
 30
0.0
  0
VERTEX
  5
17E0
  8
SURVEY_LIMIT
  6
BYBLOCK
 10
173076.0356668942
 20
9952681.252793286
 30
0.0
  0
VERTEX
  5
17E1
  8
SURVEY_LIMIT
  6
BYBLOCK
 10
173102.74825502929
 20
9952621.9537575413
 30
0.0
  0
VERTEX
  5
17E2
  8
SURVEY_LIMIT
  6
BYBLOCK
 10
173123.5214933044
 20
9952538.9672479033
 30
0.0
  0
VERTEX
  5
17E3
  8
SURVEY_LIMIT
  6
BYBLOCK
 10
173129.43187072501
 20
9952470.7813918963
 30
0.0
  0
VERTEX
  5
17E4
  8
SURVEY_LIMIT
  6
BYBLOCK
 10
173150.20510900021
 20
9952423.358233504
 30
0.0
  0
VERTEX
  5
17E5
  8
SURVEY_LIMIT
  6
BYBLOCK
 10
173206.5854739807
 20
9952375.9190049097
 30
0.0
  0
VERTEX
  5
17E6
  8
SURVEY_LIMIT
  6
BYBLOCK
 10
173259.98167780761
 20
9952352.2154608127
 30
0.0
  0
VERTEX
  5
17E7
  8
SURVEY_LIMIT
  6
BYBLOCK
 10
173399.94752734891
 20
9952287.5650486723
 30
0.0
  0
VERTEX
  5
17E8
  8
SURVEY_LIMIT
  6
BYBLOCK
 10
173453.45962093401
 20
9952240.0454690829
 30
0.0
  0
VERTEX
  5
17E9
  8
SURVEY_LIMIT
  6
BYBLOCK
 10
173530.75808637959
 20
9952204.4178370405
 30
0.0
  0
VERTEX
  5
17EA
  8
SURVEY_LIMIT
  6
BYBLOCK
 10
173608.0275793894
 20
9952186.5959859155
 30
0.0
  0
VERTEX
  5
17EB
  8
SURVEY_LIMIT
  6
BYBLOCK
 10
173679.35772254321
 20
9952139.0764063299
 30
0.0
  0
VERTEX
  5
17EC
  8
SURVEY_LIMIT
  6
BYBLOCK
 10
173732.86981612421
 20
9952049.9671507198
 30
0.0
  0
VERTEX
  5
17ED
  8
SURVEY_LIMIT
  6
BYBLOCK
 10
173803.8233175799
 20
9951916.5041448008
 30
0.0
  0
VERTEX
  5
17EE
  8
SURVEY_LIMIT
  6
BYBLOCK
 10
173851.39606130871
 20
9951863.0546616353
 30
0.0
  0
VERTEX
  5
17EF
  8
SURVEY_LIMIT
  6
BYBLOCK
 10
173815.70201729229
 20
9951779.8913797997
 30
0.0
  0
VERTEX
  5
17F0
  8
SURVEY_LIMIT
  6
BYBLOCK
 10
173661.1630312762
 20
9951732.3718002066
 30
0.0
  0
VERTEX
  5
17F1
  8
SURVEY_LIMIT
  6
BYBLOCK
 10
173518.47377253321
 20
9951643.2625446003
 30
0.0
  0
VERTEX
  5
17F2
  8
SURVEY_LIMIT
  6
BYBLOCK
 10
173387.6921859383
 20
9951595.7429650109
 30
0.0
  0
VERTEX
  5
17F3
  8
SURVEY_LIMIT
  6
BYBLOCK
 10
173195.74978204811
 20
9951527.0267924238
 30
0.0
  0
VERTEX
  5
17F4
  8
SURVEY_LIMIT
  6
BYBLOCK
 10
173130.47487850481
 20
9951506.2801650185
 30
0.0
  0
VERTEX
  5
17F5
  8
SURVEY_LIMIT
  6
BYBLOCK
 10
173106.7464515157
 20
9951429.2074887566
 30
0.0
  0
VERTEX
  5
17F6
  8
SURVEY_LIMIT
  6
BYBLOCK
 10
173099.01081048319
 20
9951388.8873584867
 30
0.0
  0
VERTEX
  5
17F7
  8
SURVEY_LIMIT
  6
BYBLOCK
 10
173175.6429098509
 20
9951346.6548744924
 30
0.0
  0
VERTEX
  5
17F8
  8
SURVEY_LIMIT
  6
BYBLOCK
 10
173228.4886373505
 20
9951296.4837120045
 30
0.0
  0
VERTEX
  5
17F9
  8
SURVEY_LIMIT
  6
BYBLOCK
 10
173267.34067714211
 20
9951244.6894593779
 30
0.0
  0
VERTEX
  5
17FA
  8
SURVEY_LIMIT
  6
BYBLOCK
 10
173332.6735255642
 20
9951223.6374981795
 30
0.0
  0
VERTEX
  5
17FB
  8
SURVEY_LIMIT
  6
BYBLOCK
 10
173425.38532819971
 20
9951206.7959292196
 30
0.0
  0
VERTEX
  5
17FC
  8
SURVEY_LIMIT
  6
BYBLOCK
 10
173471.74122951541
 20
9951183.6387719028
 30
0.0
  0
VERTEX
  5
17FD
  8
SURVEY_LIMIT
  6
BYBLOCK
 10
173513.86715484041
 20
9951166.7972029429
 30
0.0
  0
VERTEX
  5
17FE
  8
SURVEY_LIMIT
  6
BYBLOCK
 10
173553.90706460169
 20
9951147.8504378591
 30
0.0
  0
VERTEX
  5
17FF
  8
SURVEY_LIMIT
  6
BYBLOCK
 10
173579.20000325891
 20
9951124.6932805441
 30
0.0
  0
VERTEX
  5
1800
  8
SURVEY_LIMIT
  6
BYBLOCK
 10
173629.7569081336
 20
9951097.3096607868
 30
0.0
  0
VERTEX
  5
1801
  8
SURVEY_LIMIT
  6
BYBLOCK
 10
173701.40574810651
 20
9951072.0473073479
 30
0.0
  0
VERTEX
  5
1802
  8
SURVEY_LIMIT
  6
BYBLOCK
 10
173751.96265298119
 20
9951063.6265228707
 30
0.0
  0
VERTEX
  5
1803
  8
SURVEY_LIMIT
  6
BYBLOCK
 10
173798.31855430079
 20
9951057.3109345101
 30
0.0
  0
VERTEX
  5
1804
  8
SURVEY_LIMIT
  6
BYBLOCK
 10
173857.33541116491
 20
9951044.6797577869
 30
0.0
  0
VERTEX
  5
1805
  8
SURVEY_LIMIT
  6
BYBLOCK
 10
173888.9153689369
 20
9951036.2589733116
 30
0.0
  0
VERTEX
  5
1806
  8
SURVEY_LIMIT
  6
BYBLOCK
 10
173912.0933195948
 20
9951010.9966198727
 30
0.0
  0
VERTEX
  5
1807
  8
SURVEY_LIMIT
  6
BYBLOCK
 10
173954.2482173554
 20
9950998.3654431552
 30
0.0
  0
VERTEX
  5
1808
  8
SURVEY_LIMIT
  6
BYBLOCK
 10
174004.80512223
 20
9950987.8394625541
 30
0.0
  0
VERTEX
  5
1809
  8
SURVEY_LIMIT
  6
BYBLOCK
 10
174044.8450319953
 20
9950977.3134819549
 30
0.0
  0
VERTEX
  5
180A
  8
SURVEY_LIMIT
  6
BYBLOCK
 10
174107.251664143
 20
9950990.0410798732
 30
0.0
  0
VERTEX
  5
180B
  8
SURVEY_LIMIT
  6
BYBLOCK
 10
174168.3545365668
 20
9951017.4086294249
 30
0.0
  0
VERTEX
  5
180C
  8
SURVEY_LIMIT
  6
BYBLOCK
 10
174254.75034764779
 20
9951038.460590627
 30
0.0
  0
VERTEX
  5
180D
  8
SURVEY_LIMIT
  6
BYBLOCK
 10
174326.3991876207
 20
9951061.6177479457
 30
0.0
  0
VERTEX
  5
180E
  8
SURVEY_LIMIT
  6
BYBLOCK
 10
174402.24903115249
 20
9951086.8801013846
 30
0.0
  0
VERTEX
  5
180F
  8
SURVEY_LIMIT
  6
BYBLOCK
 10
174480.2138626799
 20
9951099.5112781022
 30
0.0
  0
VERTEX
  5
1810
  8
SURVEY_LIMIT
  6
BYBLOCK
 10
174543.40275066331
 20
9951078.4593169056
 30
0.0
  0
VERTEX
  5
1811
  8
SURVEY_LIMIT
  6
BYBLOCK
 10
174638.22954129789
 20
9951076.3541207835
 30
0.0
  0
VERTEX
  5
1812
  8
SURVEY_LIMIT
  6
BYBLOCK
 10
174709.87838127089
 20
9951084.7749052644
 30
0.0
  0
VERTEX
  5
1813
  8
SURVEY_LIMIT
  6
BYBLOCK
 10
174775.18225725371
 20
9951114.24765094
 30
0.0
  0
VERTEX
  5
1814
  8
SURVEY_LIMIT
  6
BYBLOCK
 10
174802.5901839062
 20
9951156.3515733406
 30
0.0
  0
VERTEX
  5
1815
  8
SURVEY_LIMIT
  6
BYBLOCK
 10
174859.46308033541
 20
9951206.8923504148
 30
0.0
  0
VERTEX
  5
1816
  8
SURVEY_LIMIT
  6
BYBLOCK
 10
174922.68094075841
 20
9951240.5754883327
 30
0.0
  0
VERTEX
  5
1817
  8
SURVEY_LIMIT
  6
BYBLOCK
 10
175030.1397145018
 20
9951272.1534301303
 30
0.0
  0
VERTEX
  5
1818
  8
SURVEY_LIMIT
  6
BYBLOCK
 10
175120.73652913779
 20
9951272.1534301303
 30
0.0
  0
VERTEX
  5
1819
  8
SURVEY_LIMIT
  6
BYBLOCK
 10
175193.13865250719
 20
9951232.7814416271
 30
0.0
  0
VERTEX
  5
181A
  8
SURVEY_LIMIT
  6
BYBLOCK
 10
175247.89656094089
 20
9951243.3074222244
 30
0.0
  0
VERTEX
  5
181B
  8
SURVEY_LIMIT
  6
BYBLOCK
 10
175292.166446697
 20
9951243.3074222244
 30
0.0
  0
VERTEX
  5
181C
  8
SURVEY_LIMIT
  6
BYBLOCK
 10
175338.52234801641
 20
9951230.6762455124
 30
0.0
  0
VERTEX
  5
181D
  8
SURVEY_LIMIT
  6
BYBLOCK
 10
175370.13127822799
 20
9951222.2554610297
 30
0.0
  0
VERTEX
  5
181E
  8
SURVEY_LIMIT
  6
BYBLOCK
 10
175424.88918665791
 20
9951232.7814416271
 30
0.0
  0
VERTEX
  5
181F
  8
SURVEY_LIMIT
  6
BYBLOCK
 10
175509.19898217911
 20
9951224.3606571481
 30
0.0
  0
VERTEX
  5
1820
  8
SURVEY_LIMIT
  6
BYBLOCK
 10
175561.87087505311
 20
9951209.6242843121
 30
0.0
  0
VERTEX
  5
1821
  8
SURVEY_LIMIT
  6
BYBLOCK
 10
175599.795796819
 20
9951194.8879114725
 30
0.0
  0
VERTEX
  5
1822
  8
SURVEY_LIMIT
  6
BYBLOCK
 10
175627.174751032
 20
9951182.256734753
 30
0.0
  0
VERTEX
  5
1823
  8
SURVEY_LIMIT
  6
BYBLOCK
 10
175679.84664390609
 20
9951167.5203619171
 30
0.0
  0
VERTEX
  5
1824
  8
SURVEY_LIMIT
  6
BYBLOCK
 10
175767.48826983571
 20
9951180.5693638176
 30
0.0
  0
VERTEX
  5
1825
  8
SURVEY_LIMIT
  6
BYBLOCK
 10
175900.6455963701
 20
9951205.5103132706
 30
0.0
  0
VERTEX
  5
1826
  8
SURVEY_LIMIT
  6
BYBLOCK
 10
176011.6100351474
 20
9951236.011551708
 30
0.0
  0
VERTEX
  5
1827
  8
SURVEY_LIMIT
  6
BYBLOCK
 10
176147.54871576279
 20
9951285.8934506085
 30
0.0
  0
VERTEX
  5
1828
  8
SURVEY_LIMIT
  6
BYBLOCK
 10
176227.976204548
 20
9951299.7620326802
 30
0.0
  0
VERTEX
  5
1829
  8
SURVEY_LIMIT
  6
BYBLOCK
 10
176316.7477555722
 20
9951321.9389078356
 30
0.0
  0
VERTEX
  5
182A
  8
SURVEY_LIMIT
  6
BYBLOCK
 10
176388.8891269973
 20
9951344.1157829892
 30
0.0
  0
VERTEX
  5
182B
  8
SURVEY_LIMIT
  6
BYBLOCK
 10
176458.2491443418
 20
9951335.7914197072
 30
0.0
  0
VERTEX
  5
182C
  8
SURVEY_LIMIT
  6
BYBLOCK
 10
176480.44203209871
 20
9951327.4831266236
 30
0.0
  0
VERTEX
  5
182D
  8
SURVEY_LIMIT
  6
BYBLOCK
 10
176505.3873014971
 20
9951313.6145445537
 30
0.0
  0
VERTEX
  5
182E
  8
SURVEY_LIMIT
  6
BYBLOCK
 10
176552.55443108821
 20
9951308.0703257658
 30
0.0
  0
VERTEX
  5
182F
  8
SURVEY_LIMIT
  6
BYBLOCK
 10
176588.625116799
 20
9951302.5261069722
 30
0.0
  0
VERTEX
  5
1830
  8
SURVEY_LIMIT
  6
BYBLOCK
 10
176652.4224259888
 20
9951302.5261069722
 30
0.0
  0
VERTEX
  5
1831
  8
SURVEY_LIMIT
  6
BYBLOCK
 10
176710.68599945679
 20
9951294.2178138904
 30
0.0
  0
VERTEX
  5
1832
  8
SURVEY_LIMIT
  6
BYBLOCK
 10
176796.67619639981
 20
9951291.4376693945
 30
0.0
  0
VERTEX
  5
1833
  8
SURVEY_LIMIT
  6
BYBLOCK
 10
176899.3255453817
 20
9951294.2178138904
 30
0.0
  0
VERTEX
  5
1834
  8
SURVEY_LIMIT
  6
BYBLOCK
 10
177007.50863008201
 20
9951294.2178138904
 30
0.0
  0
VERTEX
  5
1835
  8
SURVEY_LIMIT
  6
BYBLOCK
 10
177074.08729334921
 20
9951294.2178138904
 30
0.0
  0
VERTEX
  5
1836
  8
SURVEY_LIMIT
  6
BYBLOCK
 10
177112.91036070121
 20
9951291.4376693945
 30
0.0
  0
VERTEX
  5
1837
  8
SURVEY_LIMIT
  6
BYBLOCK
 10
177157.2961362153
 20
9951299.7620326802
 30
0.0
  0
VERTEX
  5
1838
  8
SURVEY_LIMIT
  6
BYBLOCK
 10
177212.7783556022
 20
9951305.3062514644
 30
0.0
  0
VERTEX
  5
1839
  8
SURVEY_LIMIT
  6
BYBLOCK
 10
177279.3570188692
 20
9951338.5715641994
 30
0.0
  0
VERTEX
  5
183A
  8
SURVEY_LIMIT
  6
BYBLOCK
 10
177337.62059234071
 20
9951357.9682948645
 30
0.0
  0
VERTEX
  5
183B
  8
SURVEY_LIMIT
  6
BYBLOCK
 10
177382.00636785099
 20
9951374.6009512246
 30
0.0
  0
VERTEX
  5
183C
  8
SURVEY_LIMIT
  6
BYBLOCK
 10
177418.07705356181
 20
9951388.4534631036
 30
0.0
  0
VERTEX
  5
183D
  8
SURVEY_LIMIT
  6
BYBLOCK
 10
177445.8036770373
 20
9951405.0861194693
 30
0.0
  0
VERTEX
  5
183E
  8
SURVEY_LIMIT
  6
BYBLOCK
 10
177484.65571683261
 20
9951430.0431391206
 30
0.0
  0
VERTEX
  5
183F
  8
SURVEY_LIMIT
  6
BYBLOCK
 10
177515.16369438541
 20
9951460.5283073615
 30
0.0
  0
VERTEX
  5
1840
  8
SURVEY_LIMIT
  6
BYBLOCK
 10
177545.67167194191
 20
9951493.7936200928
 30
0.0
  0
VERTEX
  5
1841
  8
SURVEY_LIMIT
  6
BYBLOCK
 10
177587.30506581071
 20
9951513.1903507523
 30
0.0
  0
VERTEX
  5
1842
  8
SURVEY_LIMIT
  6
BYBLOCK
 10
177612.2503352089
 20
9951538.1473704036
 30
0.0
  0
VERTEX
  5
1843
  8
SURVEY_LIMIT
  6
BYBLOCK
 10
177637.22457704321
 20
9951551.9998822752
 30
0.0
  0
VERTEX
  5
1844
  8
SURVEY_LIMIT
  6
BYBLOCK
 10
177684.39170663431
 20
9951576.9569019284
 30
0.0
  0
VERTEX
  5
1845
  8
SURVEY_LIMIT
  6
BYBLOCK
 10
177723.2147739864
 20
9951629.6189453229
 30
0.0
  0
VERTEX
  5
1846
  8
SURVEY_LIMIT
  6
BYBLOCK
 10
177749.43483066931
 20
9951676.849261323
 30
0.0
  0
VERTEX
  5
1847
  8
SURVEY_LIMIT
  6
BYBLOCK
 10
177802.25158573309
 20
9951703.2365287151
 30
0.0
  0
VERTEX
  5
1848
  8
SURVEY_LIMIT
  6
BYBLOCK
 10
177881.4622321091
 20
9951703.2365287151
 30
0.0
  0
VERTEX
  5
1849
  8
SURVEY_LIMIT
  6
BYBLOCK
 10
177971.3057633526
 20
9951657.4043200631
 30
0.0
  0
VERTEX
  5
184A
  8
SURVEY_LIMIT
  6
BYBLOCK
 10
178062.3951094411
 20
9951690.9428261835
 30
0.0
  0
VERTEX
  5
184B
  8
SURVEY_LIMIT
  6
BYBLOCK
 10
178124.71482427421
 20
9951762.7926876508
 30
0.0
  0
VERTEX
  5
184C
  8
SURVEY_LIMIT
  6
BYBLOCK
 10
178206.2142932787
 20
9951791.5422743578
 30
0.0
  0
VERTEX
  5
184D
  8
SURVEY_LIMIT
  6
BYBLOCK
 10
178273.34343287349
 20
9951796.3311937731
 30
0.0
  0
VERTEX
  5
184E
  8
SURVEY_LIMIT
  6
BYBLOCK
 10
178345.2530247941
 20
9951762.7926876508
 30
0.0
  0
VERTEX
  5
184F
  8
SURVEY_LIMIT
  6
BYBLOCK
 10
178407.5727396271
 20
9951748.4259293955
 30
0.0
  0
VERTEX
  5
1850
  8
SURVEY_LIMIT
  6
BYBLOCK
 10
178465.11200213799
 20
9951758.0037682373
 30
0.0
  0
VERTEX
  5
1851
  8
SURVEY_LIMIT
  6
BYBLOCK
 10
178537.021594055
 20
9951781.9483653251
 30
0.0
  0
VERTEX
  5
1852
  8
SURVEY_LIMIT
  6
BYBLOCK
 10
178588.10000282139
 20
9951824.1165685151
 30
0.0
  0
VERTEX
  5
1853
  8
SURVEY_LIMIT
  6
BYBLOCK
 10
178612.63965808219
 20
9951908.5654663034
 30
0.0
  0
VERTEX
  5
1854
  8
SURVEY_LIMIT
  6
BYBLOCK
 10
178641.3513444587
 20
9951967.9769934397
 30
0.0
  0
VERTEX
  5
1855
  8
SURVEY_LIMIT
  6
BYBLOCK
 10
178657.6917996741
 20
9952041.5302960407
 30
0.0
  0
VERTEX
  5
1856
  8
SURVEY_LIMIT
  6
BYBLOCK
 10
178679.50804573289
 20
9952115.0996688437
 30
0.0
  0
VERTEX
  5
1857
  8
SURVEY_LIMIT
  6
BYBLOCK
 10
178698.600882586
 20
9952169.5937149636
 30
0.0
  0
VERTEX
  5
1858
  8
SURVEY_LIMIT
  6
BYBLOCK
 10
178744.9567839056
 20
9952221.3558271937
 30
0.0
  0
VERTEX
  5
1859
  8
SURVEY_LIMIT
  6
BYBLOCK
 10
178810.4055220783
 20
9952237.6992199719
 30
0.0
  0
VERTEX
  5
185A
  8
SURVEY_LIMIT
  6
BYBLOCK
 10
178870.4074418433
 20
9952267.6701418273
 30
0.0
  0
VERTEX
  5
185B
  8
SURVEY_LIMIT
  6
BYBLOCK
 10
178903.11732471359
 20
9952335.7917170357
 30
0.0
  0
VERTEX
  5
185C
  8
SURVEY_LIMIT
  6
BYBLOCK
 10
178952.1966352314
 20
9952425.7044826169
 30
0.0
  0
VERTEX
  5
185D
  8
SURVEY_LIMIT
  6
BYBLOCK
 10
179001.2759457528
 20
9952515.6172481924
 30
0.0
  0
VERTEX
  5
185E
  8
SURVEY_LIMIT
  6
BYBLOCK
 10
179012.1985550001
 20
9952600.0822161734
 30
0.0
  0
VERTEX
  5
185F
  8
SURVEY_LIMIT
  6
BYBLOCK
 10
179042.18502866471
 20
9952703.6064406317
 30
0.0
  0
VERTEX
  5
1860
  8
SURVEY_LIMIT
  6
BYBLOCK
 10
179066.72468392551
 20
9952790.8033425119
 30
0.0
  0
VERTEX
  5
1861
  8
SURVEY_LIMIT
  6
BYBLOCK
 10
179088.5409299843
 20
9952883.4319717884
 30
0.0
  0
VERTEX
  5
1862
  8
SURVEY_LIMIT
  6
BYBLOCK
 10
179106.9674007557
 20
9952941.798935961
 30
0.0
  0
VERTEX
  5
1863
  8
SURVEY_LIMIT
  6
BYBLOCK
 10
179122.64148988941
 20
9952974.6464235131
 30
0.0
  0
VERTEX
  5
1864
  8
SURVEY_LIMIT
  6
BYBLOCK
 10
179149.23818827039
 20
9953004.3762923833
 30
0.0
  0
VERTEX
  5
1865
  8
SURVEY_LIMIT
  6
BYBLOCK
 10
179208.7475765869
 20
9953049.7424652614
 30
0.0
  0
VERTEX
  5
1866
  8
SURVEY_LIMIT
  6
BYBLOCK
 10
179254.14738744119
 20
9953076.3386452422
 30
0.0
  0
VERTEX
  5
1867
  8
SURVEY_LIMIT
  6
BYBLOCK
 10
179344.36756037921
 20
9953113.2197528407
 30
0.0
  0
VERTEX
  5
1868
  8
SURVEY_LIMIT
  6
BYBLOCK
 10
179395.47494158149
 20
9953168.9190639183
 30
0.0
  0
VERTEX
  5
1869
  8
SURVEY_LIMIT
  6
BYBLOCK
 10
179441.9177602157
 20
9953229.2626626231
 30
0.0
  0
VERTEX
  5
186A
  8
SURVEY_LIMIT
  6
BYBLOCK
 10
179474.42483601341
 20
9953280.3176860753
 30
0.0
  0
VERTEX
  5
186B
  8
SURVEY_LIMIT
  6
BYBLOCK
 10
179493.02514141801
 20
9953331.3727095407
 30
0.0
  0
VERTEX
  5
186C
  8
SURVEY_LIMIT
  6
BYBLOCK
 10
179502.2963216826
 20
9953405.6491711065
 30
0.0
  0
VERTEX
  5
186D
  8
SURVEY_LIMIT
  6
BYBLOCK
 10
179511.59647438291
 20
9953484.5538501032
 30
0.0
  0
VERTEX
  5
186E
  8
SURVEY_LIMIT
  6
BYBLOCK
 10
179479.0893985852
 20
9953540.2531611808
 30
0.0
  0
VERTEX
  5
186F
  8
SURVEY_LIMIT
  6
BYBLOCK
 10
179367.60345591599
 20
9953591.3081846405
 30
0.0
  0
VERTEX
  5
1870
  8
SURVEY_LIMIT
  6
BYBLOCK
 10
179246.8173605426
 20
9953623.8021278027
 30
0.0
  0
VERTEX
  5
1871
  8
SURVEY_LIMIT
  6
BYBLOCK
 10
179153.90275084219
 20
9953656.2800007667
 30
0.0
  0
VERTEX
  5
1872
  8
SURVEY_LIMIT
  6
BYBLOCK
 10
179065.65270370609
 20
9953688.7739439271
 30
0.0
  0
VERTEX
  5
1873
  8
SURVEY_LIMIT
  6
BYBLOCK
 10
178995.97398953879
 20
9953725.9121747147
 30
0.0
  0
VERTEX
  5
1874
  8
SURVEY_LIMIT
  6
BYBLOCK
 10
178963.46691374099
 20
9953753.7618302517
 30
0.0
  0
VERTEX
  5
1875
  8
SURVEY_LIMIT
  6
BYBLOCK
 10
178930.9308655037
 20
9953790.9000610448
 30
0.0
  0
VERTEX
  5
1876
  8
SURVEY_LIMIT
  6
BYBLOCK
 10
178954.1667610369
 20
9953855.8718771655
 30
0.0
  0
VERTEX
  5
1877
  8
SURVEY_LIMIT
  6
BYBLOCK
 10
179005.27414224279
 20
9953893.0101079531
 30
0.0
  0
VERTEX
  5
1878
  8
SURVEY_LIMIT
  6
BYBLOCK
 10
179051.7169608734
 20
9953967.2704993263
 30
0.0
  0
VERTEX
  5
1879
  8
SURVEY_LIMIT
  6
BYBLOCK
 10
179102.82434207571
 20
9954004.408730112
 30
0.0
  0
VERTEX
  5
187A
  8
SURVEY_LIMIT
  6
BYBLOCK
 10
179177.13864637539
 20
9954064.7362586167
 30
0.0
  0
VERTEX
  5
187B
  8
SURVEY_LIMIT
  6
BYBLOCK
 10
179339.73197024679
 20
9954074.0248338636
 30
0.0
  0
VERTEX
  5
187C
  8
SURVEY_LIMIT
  6
BYBLOCK
 10
179460.4890931806
 20
9954097.2302017771
 30
0.0
  0
VERTEX
  5
187D
  8
SURVEY_LIMIT
  6
BYBLOCK
 10
179553.40370288491
 20
9954074.0248338636
 30
0.0
  0
VERTEX
  5
187E
  8
SURVEY_LIMIT
  6
BYBLOCK
 10
179637.0181598849
 20
9954041.5308907013
 30
0.0
  0
VERTEX
  5
187F
  8
SURVEY_LIMIT
  6
BYBLOCK
 10
179743.86851242179
 20
9953967.2704993263
 30
0.0
  0
VERTEX
  5
1880
  8
SURVEY_LIMIT
  6
BYBLOCK
 10
179860.1059349775
 20
9953944.9329221752
 30
0.0
  0
VERTEX
  5
1881
  8
SURVEY_LIMIT
  6
BYBLOCK
 10
179965.24691365281
 20
9953959.9424884059
 30
0.0
  0
VERTEX
  5
1882
  8
SURVEY_LIMIT
  6
BYBLOCK
 10
180081.94789522141
 20
9953982.9871543273
 30
0.0
  0
VERTEX
  5
1883
  8
SURVEY_LIMIT
  6
BYBLOCK
 10
180223.24647692221
 20
9953959.8942778073
 30
0.0
  0
VERTEX
  5
1884
  8
SURVEY_LIMIT
  6
BYBLOCK
 10
180349.1317214407
 20
9953952.1805820987
 30
0.0
  0
VERTEX
  5
1885
  8
SURVEY_LIMIT
  6
BYBLOCK
 10
180485.2732091209
 20
9954006.0961010456
 30
0.0
  0
VERTEX
  5
1886
  8
SURVEY_LIMIT
  6
BYBLOCK
 10
180549.47613244501
 20
9954047.1554604843
 30
0.0
  0
VERTEX
  5
1887
  8
SURVEY_LIMIT
  6
BYBLOCK
 10
180603.4228126033
 20
9954083.0884263217
 30
0.0
  0
VERTEX
  5
1888
  8
SURVEY_LIMIT
  6
BYBLOCK
 10
180680.48949854451
 20
9954111.3237666395
 30
0.0
  0
VERTEX
  5
1889
  8
SURVEY_LIMIT
  6
BYBLOCK
 10
180734.4361787028
 20
9954121.5926240478
 30
0.0
  0
VERTEX
  5
188A
  8
SURVEY_LIMIT
  6
BYBLOCK
 10
180788.38285886121
 20
9954136.987875063
 30
0.0
  0
VERTEX
  5
188B
  8
SURVEY_LIMIT
  6
BYBLOCK
 10
180816.6309862285
 20
9954157.5255898833
 30
0.0
  0
VERTEX
  5
188C
  8
SURVEY_LIMIT
  6
BYBLOCK
 10
180821.78808024869
 20
9954211.425038632
 30
0.0
  0
VERTEX
  5
188D
  8
SURVEY_LIMIT
  6
BYBLOCK
 10
180834.6228704266
 20
9954273.0381830856
 30
0.0
  0
VERTEX
  5
188E
  8
SURVEY_LIMIT
  6
BYBLOCK
 10
180821.78808024869
 20
9954324.3663999271
 30
0.0
  0
VERTEX
  5
188F
  8
SURVEY_LIMIT
  6
BYBLOCK
 10
180819.2095332368
 20
9954362.8705976643
 30
0.0
  0
VERTEX
  5
1890
  8
SURVEY_LIMIT
  6
BYBLOCK
 10
180826.91620183361
 20
9954403.9460272994
 30
0.0
  0
VERTEX
  5
1891
  8
SURVEY_LIMIT
  6
BYBLOCK
 10
180814.0814116559
 20
9954439.8789931331
 30
0.0
  0
VERTEX
  5
1892
  8
SURVEY_LIMIT
  6
BYBLOCK
 10
180793.5109804458
 20
9954493.7784418818
 30
0.0
  0
VERTEX
  5
1893
  8
SURVEY_LIMIT
  6
BYBLOCK
 10
180780.67619026799
 20
9954565.6443735436
 30
0.0
  0
VERTEX
  5
1894
  8
SURVEY_LIMIT
  6
BYBLOCK
 10
180739.59327272701
 20
9954609.2749648858
 30
0.0
  0
VERTEX
  5
1895
  8
SURVEY_LIMIT
  6
BYBLOCK
 10
180729.6557263805
 20
9954688.9188730586
 30
0.0
  0
VERTEX
  5
1896
  8
SURVEY_LIMIT
  6
BYBLOCK
 10
180723.71637652439
 20
9954736.3741718438
 30
0.0
  0
VERTEX
  5
1897
  8
SURVEY_LIMIT
  6
BYBLOCK
 10
180688.1092498264
 20
9954771.9857336916
 30
0.0
  0
VERTEX
  5
1898
  8
SURVEY_LIMIT
  6
BYBLOCK
 10
180676.23055011031
 20
9954813.5111289136
 30
0.0
  0
VERTEX
  5
1899
  8
SURVEY_LIMIT
  6
BYBLOCK
 10
180666.69861790541
 20
9954873.7904468141
 30
0.0
  0
VERTEX
  5
189A
  8
SURVEY_LIMIT
  6
BYBLOCK
 10
180666.69861790541
 20
9954945.142132096
 30
0.0
  0
VERTEX
  5
189B
  8
SURVEY_LIMIT
  6
BYBLOCK
 10
180631.0045738889
 20
9955075.9856955167
 30
0.0
  0
VERTEX
  5
189C
  8
SURVEY_LIMIT
  6
BYBLOCK
 10
180543.7106172218
 20
9955143.3841117527
 30
0.0
  0
VERTEX
  5
189D
  8
SURVEY_LIMIT
  6
BYBLOCK
 10
180444.5089883988
 20
9955246.4583706241
 30
0.0
  0
VERTEX
  5
189E
  8
SURVEY_LIMIT
  6
BYBLOCK
 10
180432.6013162508
 20
9955349.5486996993
 30
0.0
  0
VERTEX
  5
189F
  8
SURVEY_LIMIT
  6
BYBLOCK
 10
180436.57054030141
 20
9955452.6229585782
 30
0.0
  0
VERTEX
  5
18A0
  8
SURVEY_LIMIT
  6
BYBLOCK
 10
180392.9380481838
 20
9955520.0213748123
 30
0.0
  0
VERTEX
  5
18A1
  8
SURVEY_LIMIT
  6
BYBLOCK
 10
180289.76719531399
 20
9955520.0213748123
 30
0.0
  0
VERTEX
  5
18A2
  8
SURVEY_LIMIT
  6
BYBLOCK
 10
180146.9330743812
 20
9955464.5149061251
 30
0.0
  0
VERTEX
  5
18A3
  8
SURVEY_LIMIT
  6
BYBLOCK
 10
180035.82377341011
 20
9955452.6229585782
 30
0.0
  0
VERTEX
  5
18A4
  8
SURVEY_LIMIT
  6
BYBLOCK
 10
179960.4374888911
 20
9955516.0520355608
 30
0.0
  0
VERTEX
  5
18A5
  8
SURVEY_LIMIT
  6
BYBLOCK
 10
179865.2050841226
 20
9955575.5278434958
 30
0.0
  0
VERTEX
  5
18A6
  8
SURVEY_LIMIT
  6
BYBLOCK
 10
179809.6649198567
 20
9955666.7101548295
 30
0.0
  0
VERTEX
  5
18A7
  8
SURVEY_LIMIT
  6
BYBLOCK
 10
179718.4017391353
 20
9955761.8618054055
 30
0.0
  0
VERTEX
  5
18A8
  8
SURVEY_LIMIT
  6
BYBLOCK
 10
179643.01545462001
 20
9955884.7666903231
 30
0.0
  0
VERTEX
  5
18A9
  8
SURVEY_LIMIT
  6
BYBLOCK
 10
179682.70769512281
 20
9955932.3505507186
 30
0.0
  0
VERTEX
  5
18AA
  8
SURVEY_LIMIT
  6
BYBLOCK
 10
179773.94190340111
 20
9955983.8876801524
 30
0.0
  0
VERTEX
  5
18AB
  8
SURVEY_LIMIT
  6
BYBLOCK
 10
179924.74344487491
 20
9956039.3941488359
 30
0.0
  0
VERTEX
  5
18AC
  8
SURVEY_LIMIT
  6
BYBLOCK
 10
180027.8853253088
 20
9956094.9006175231
 30
0.0
  0
VERTEX
  5
18AD
  8
SURVEY_LIMIT
  6
BYBLOCK
 10
180055.66989365959
 20
9956146.4377469644
 30
0.0
  0
VERTEX
  5
18AE
  8
SURVEY_LIMIT
  6
BYBLOCK
 10
180019.94687720761
 20
9956201.9442156516
 30
0.0
  0
VERTEX
  5
18AF
  8
SURVEY_LIMIT
  6
BYBLOCK
 10
179948.5298167392
 20
9956245.5587367937
 30
0.0
  0
VERTEX
  5
18B0
  8
SURVEY_LIMIT
  6
BYBLOCK
 10
179885.0512043722
 20
9956273.3119711317
 30
0.0
  0
VERTEX
  5
18B1
  8
SURVEY_LIMIT
  6
BYBLOCK
 10
179814.93790363139
 20
9956291.8087706324
 30
0.0
  0
VERTEX
  5
18B2
  8
SURVEY_LIMIT
  6
BYBLOCK
 10
179749.05457888171
 20
9956331.2932505272
 30
0.0
  0
VERTEX
  5
18B3
  8
SURVEY_LIMIT
  6
BYBLOCK
 10
179693.05085560301
 20
9956397.1328574214
 30
0.0
  0
VERTEX
  5
18B4
  8
SURVEY_LIMIT
  6
BYBLOCK
 10
179732.5692614764
 20
9956462.9563941117
 30
0.0
  0
VERTEX
  5
18B5
  8
SURVEY_LIMIT
  6
BYBLOCK
 10
179841.2738500647
 20
9956594.6034675017
 30
0.0
  0
VERTEX
  5
18B6
  8
SURVEY_LIMIT
  6
BYBLOCK
 10
179923.61351978031
 20
9956693.3387725446
 30
0.0
  0
VERTEX
  5
18B7
  8
SURVEY_LIMIT
  6
BYBLOCK
 10
180038.9238243101
 20
9956732.8393226359
 30
0.0
  0
VERTEX
  5
18B8
  8
SURVEY_LIMIT
  6
BYBLOCK
 10
180141.0226969606
 20
9956732.8393226359
 30
0.0
  0
VERTEX
  5
18B9
  8
SURVEY_LIMIT
  6
BYBLOCK
 10
180226.6652246452
 20
9956736.1337135118
 30
0.0
  0
VERTEX
  5
18BA
  8
SURVEY_LIMIT
  6
BYBLOCK
 10
180299.15426533279
 20
9956720.3849181123
 30
0.0
  0
VERTEX
  5
18BB
  8
SURVEY_LIMIT
  6
BYBLOCK
 10
180366.2834049277
 20
9956710.8070792761
 30
0.0
  0
VERTEX
  5
18BC
  8
SURVEY_LIMIT
  6
BYBLOCK
 10
180409.4233655892
 20
9956710.8070792761
 30
0.0
  0
VERTEX
  5
18BD
  8
SURVEY_LIMIT
  6
BYBLOCK
 10
180447.7828739321
 20
9956706.0181598589
 30
0.0
  0
VERTEX
  5
18BE
  8
SURVEY_LIMIT
  6
BYBLOCK
 10
180514.91201352701
 20
9956691.6353314072
 30
0.0
  0
VERTEX
  5
18BF
  8
SURVEY_LIMIT
  6
BYBLOCK
 10
180563.9333791695
 20
9956677.4935559444
 30
0.0
  0
VERTEX
  5
18C0
  8
SURVEY_LIMIT
  6
BYBLOCK
 10
180640.6234234123
 20
9956696.6492336188
 30
0.0
  0
VERTEX
  5
18C1
  8
SURVEY_LIMIT
  6
BYBLOCK
 10
180736.52219426251
 20
9956715.8209814876
 30
0.0
  0
VERTEX
  5
18C2
  8
SURVEY_LIMIT
  6
BYBLOCK
 10
180794.0324843339
 20
9956787.6708429549
 30
0.0
  0
VERTEX
  5
18C3
  8
SURVEY_LIMIT
  6
BYBLOCK
 10
180846.7912945225
 20
9956830.7871879097
 30
0.0
  0
VERTEX
  5
18C4
  8
SURVEY_LIMIT
  6
BYBLOCK
 10
180904.30158459381
 20
9956859.5207044166
 30
0.0
  0
VERTEX
  5
18C5
  8
SURVEY_LIMIT
  6
BYBLOCK
 10
180971.43072418839
 20
9956907.4259687923
 30
0.0
  0
VERTEX
  5
18C6
  8
SURVEY_LIMIT
  6
BYBLOCK
 10
181038.53089134759
 20
9956955.3312331736
 30
0.0
  0
VERTEX
  5
18C7
  8
SURVEY_LIMIT
  6
BYBLOCK
 10
181081.6998244485
 20
9956993.6586587075
 30
0.0
  0
VERTEX
  5
18C8
  8
SURVEY_LIMIT
  6
BYBLOCK
 10
181134.4296621978
 20
9957027.1810946297
 30
0.0
  0
VERTEX
  5
18C9
  8
SURVEY_LIMIT
  6
BYBLOCK
 10
181229.19850795341
 20
9957036.2607572861
 30
0.0
  0
VERTEX
  5
18CA
  8
SURVEY_LIMIT
  6
BYBLOCK
 10
181283.5797746889
 20
9957056.6538403127
 30
0.0
  0
VERTEX
  5
18CB
  8
SURVEY_LIMIT
  6
BYBLOCK
 10
181367.45498363301
 20
9957086.0944455899
 30
0.0
  0
VERTEX
  5
18CC
  8
SURVEY_LIMIT
  6
BYBLOCK
 10
181417.2875775508
 20
9957127.7805428077
 30
0.0
  0
VERTEX
  5
18CD
  8
SURVEY_LIMIT
  6
BYBLOCK
 10
181470.0174152999
 20
9957166.107968349
 30
0.0
  0
VERTEX
  5
18CE
  8
SURVEY_LIMIT
  6
BYBLOCK
 10
181537.1465548946
 20
9957161.3190489262
 30
0.0
  0
VERTEX
  5
18CF
  8
SURVEY_LIMIT
  6
BYBLOCK
 10
181589.8763926439
 20
9957166.107968349
 30
0.0
  0
VERTEX
  5
18D0
  8
SURVEY_LIMIT
  6
BYBLOCK
 10
181604.24672205371
 20
9957209.2243133057
 30
0.0
  0
VERTEX
  5
18D1
  8
SURVEY_LIMIT
  6
BYBLOCK
 10
181685.74619105831
 20
9957233.1689103916
 30
0.0
  0
VERTEX
  5
18D2
  8
SURVEY_LIMIT
  6
BYBLOCK
 10
181776.83553714681
 20
9957271.4963359386
 30
0.0
  0
VERTEX
  5
18D3
  8
SURVEY_LIMIT
  6
BYBLOCK
 10
181867.9248832351
 20
9957257.1135074794
 30
0.0
  0
VERTEX
  5
18D4
  8
SURVEY_LIMIT
  6
BYBLOCK
 10
181915.87426866221
 20
9957300.2298524417
 30
0.0
  0
VERTEX
  5
18D5
  8
SURVEY_LIMIT
  6
BYBLOCK
 10
182016.55349183449
 20
9957314.6126808897
 30
0.0
  0
VERTEX
  5
18D6
  8
SURVEY_LIMIT
  6
BYBLOCK
 10
182083.6826314292
 20
9957343.3461973947
 30
0.0
  0
VERTEX
  5
18D7
  8
SURVEY_LIMIT
  6
BYBLOCK
 10
182160.372675672
 20
9957333.7683585621
 30
0.0
  0
VERTEX
  5
18D8
  8
SURVEY_LIMIT
  6
BYBLOCK
 10
182261.05189884821
 20
9957319.4016003106
 30
0.0
  0
VERTEX
  5
18D9
  8
SURVEY_LIMIT
  6
BYBLOCK
 10
182360.1955827921
 20
9957278.5832938645
 30
0.0
  0
VERTEX
  5
18DA
  8
SURVEY_LIMIT
  6
BYBLOCK
 10
182432.71359591559
 20
9957296.7104787715
 30
0.0
  0
VERTEX
  5
18DB
  8
SURVEY_LIMIT
  6
BYBLOCK
 10
182502.9717588498
 20
9957323.8851859383
 30
0.0
  0
VERTEX
  5
18DC
  8
SURVEY_LIMIT
  6
BYBLOCK
 10
182568.71022140601
 20
9957362.3893836699
 30
0.0
  0
VERTEX
  5
18DD
  8
SURVEY_LIMIT
  6
BYBLOCK
 10
182616.3119375704
 20
9957398.6116130929
 30
0.0
  0
VERTEX
  5
18DE
  8
SURVEY_LIMIT
  6
BYBLOCK
 10
182669.91094847021
 20
9957416.7387980036
 30
0.0
  0
VERTEX
  5
18DF
  8
SURVEY_LIMIT
  6
BYBLOCK
 10
182712.99296425641
 20
9957414.4728998877
 30
0.0
  0
VERTEX
  5
18E0
  8
SURVEY_LIMIT
  6
BYBLOCK
 10
182749.23748460039
 20
9957389.5640908349
 30
0.0
  0
VERTEX
  5
18E1
  8
SURVEY_LIMIT
  6
BYBLOCK
 10
182771.92290380591
 20
9957337.4805746228
 30
0.0
  0
VERTEX
  5
18E2
  8
SURVEY_LIMIT
  6
BYBLOCK
 10
182826.30417053759
 20
9957285.380988203
 30
0.0
  0
VERTEX
  5
18E3
  8
SURVEY_LIMIT
  6
BYBLOCK
 10
182885.23411009079
 20
9957267.2698734924
 30
0.0
  0
VERTEX
  5
18E4
  8
SURVEY_LIMIT
  6
BYBLOCK
 10
182941.90419945121
 20
9957228.7656757571
 30
0.0
  0
VERTEX
  5
18E5
  8
SURVEY_LIMIT
  6
BYBLOCK
 10
182998.5742888113
 20
9957221.9679814167
 30
0.0
  0
VERTEX
  5
18E6
  8
SURVEY_LIMIT
  6
BYBLOCK
 10
183059.76407855001
 20
9957258.2062810361
 30
0.0
  0
VERTEX
  5
18E7
  8
SURVEY_LIMIT
  6
BYBLOCK
 10
183132.28209167341
 20
9957303.5081731137
 30
0.0
  0
VERTEX
  5
18E8
  8
SURVEY_LIMIT
  6
BYBLOCK
 10
183252.4018209613
 20
9957339.7464727368
 30
0.0
  0
VERTEX
  5
18E9
  8
SURVEY_LIMIT
  6
BYBLOCK
 10
183334.0171797201
 20
9957344.2621987592
 30
0.0
  0
VERTEX
  5
18EA
  8
SURVEY_LIMIT
  6
BYBLOCK
 10
183395.20696945841
 20
9957353.3257912155
 30
0.0
  0
VERTEX
  5
18EB
  8
SURVEY_LIMIT
  6
BYBLOCK
 10
183433.74031243101
 20
9957371.4529761262
 30
0.0
  0
VERTEX
  5
18EC
  8
SURVEY_LIMIT
  6
BYBLOCK
 10
183477.08308016119
 20
9957422.5401399806
 30
0.0
  0
VERTEX
  5
18ED
  8
SURVEY_LIMIT
  6
BYBLOCK
 10
183463.14733732861
 20
9957455.0340831429
 30
0.0
  0
VERTEX
  5
18EE
  8
SURVEY_LIMIT
  6
BYBLOCK
 10
183495.65441312641
 20
9957533.9387621414
 30
0.0
  0
VERTEX
  5
18EF
  8
SURVEY_LIMIT
  6
BYBLOCK
 10
183593.2046129629
 20
9957571.0769929253
 30
0.0
  0
VERTEX
  5
18F0
  8
SURVEY_LIMIT
  6
BYBLOCK
 10
183686.11922266681
 20
9957654.6259595454
 30
0.0
  0
VERTEX
  5
18F1
  8
SURVEY_LIMIT
  6
BYBLOCK
 10
183765.0691170989
 20
9957714.9534880482
 30
0.0
  0
VERTEX
  5
18F2
  8
SURVEY_LIMIT
  6
BYBLOCK
 10
183816.1764983013
 20
9957789.2299496196
 30
0.0
  0
VERTEX
  5
18F3
  8
SURVEY_LIMIT
  6
BYBLOCK
 10
183881.21962233621
 20
9957849.557478128
 30
0.0
  0
VERTEX
  5
18F4
  8
SURVEY_LIMIT
  6
BYBLOCK
 10
183974.105259601
 20
9957844.9292607009
 30
0.0
  0
VERTEX
  5
18F5
  8
SURVEY_LIMIT
  6
BYBLOCK
 10
184085.59120227001
 20
9957891.3399965353
 30
0.0
  0
VERTEX
  5
18F6
  8
SURVEY_LIMIT
  6
BYBLOCK
 10
184201.74170751119
 20
9957858.8460533675
 30
0.0
  0
VERTEX
  5
18F7
  8
SURVEY_LIMIT
  6
BYBLOCK
 10
184313.2276501804
 20
9957854.2017657459
 30
0.0
  0
VERTEX
  5
18F8
  8
SURVEY_LIMIT
  6
BYBLOCK
 10
184401.4776973128
 20
9957854.2017657459
 30
0.0
  0
VERTEX
  5
18F9
  8
SURVEY_LIMIT
  6
BYBLOCK
 10
184494.392307017
 20
9957854.2017657459
 30
0.0
  0
VERTEX
  5
18FA
  8
SURVEY_LIMIT
  6
BYBLOCK
 10
184625.0000589788
 20
9957865.9330113009
 30
0.0
  0
VERTEX
  5
18FB
  8
SURVEY_LIMIT
  6
BYBLOCK
 10
184670.34192495421
 20
9957856.7890678477
 30
0.0
  0
VERTEX
  5
18FC
  8
SURVEY_LIMIT
  6
BYBLOCK
 10
184688.65250597519
 20
9957836.5727570169
 30
0.0
  0
VERTEX
  5
18FD
  8
SURVEY_LIMIT
  6
BYBLOCK
 10
184703.08078026021
 20
9957813.4638103005
 30
0.0
  0
VERTEX
  5
18FE
  8
SURVEY_LIMIT
  6
BYBLOCK
 10
184732.9513641707
 20
9957799.0327712484
 30
0.0
  0
VERTEX
  5
18FF
  8
SURVEY_LIMIT
  6
BYBLOCK
 10
184763.77803854641
 20
9957786.5140859261
 30
0.0
  0
VERTEX
  5
1900
  8
SURVEY_LIMIT
  6
BYBLOCK
 10
184792.6925319953
 20
9957770.1385527495
 30
0.0
  0
VERTEX
  5
1901
  8
SURVEY_LIMIT
  6
BYBLOCK
 10
184807.14977871999
 20
9957749.938312117
 30
0.0
  0
VERTEX
  5
1902
  8
SURVEY_LIMIT
  6
BYBLOCK
 10
184838.9325435608
 20
9957736.4554148316
 30
0.0
  0
VERTEX
  5
1903
  8
SURVEY_LIMIT
  6
BYBLOCK
 10
184879.4070398956
 20
9957726.8293653969
 30
0.0
  0
VERTEX
  5
1904
  8
SURVEY_LIMIT
  6
BYBLOCK
 10
184920.8376266993
 20
9957727.7935773581
 30
0.0
  0
VERTEX
  5
1905
  8
SURVEY_LIMIT
  6
BYBLOCK
 10
184967.07763826469
 20
9957744.1530403364
 30
0.0
  0
VERTEX
  5
1906
  8
SURVEY_LIMIT
  6
BYBLOCK
 10
185020.06822795791
 20
9957770.1385527495
 30
0.0
  0
VERTEX
  5
1907
  8
SURVEY_LIMIT
  6
BYBLOCK
 10
185060.5137518569
 20
9957797.104347324
 30
0.0
  0
VERTEX
  5
1908
  8
SURVEY_LIMIT
  6
BYBLOCK
 10
185120.2549196817
 20
9957821.1614358071
 30
0.0
  0
VERTEX
  5
1909
  8
SURVEY_LIMIT
  6
BYBLOCK
 10
185163.597687412
 20
9957846.1988064516
 30
0.0
  0
VERTEX
  5
190A
  8
SURVEY_LIMIT
  6
BYBLOCK
 10
185211.5470728389
 20
9957865.5955371112
 30
0.0
  0
VERTEX
  5
190B
  8
SURVEY_LIMIT
  6
BYBLOCK
 10
185256.83099393919
 20
9957882.9192120563
 30
0.0
  0
VERTEX
  5
190C
  8
SURVEY_LIMIT
  6
BYBLOCK
 10
185316.57216176001
 20
9957906.0281587746
 30
0.0
  0
VERTEX
  5
190D
  8
SURVEY_LIMIT
  6
BYBLOCK
 10
185374.37217621499
 20
9957915.6542082112
 30
0.0
  0
VERTEX
  5
190E
  8
SURVEY_LIMIT
  6
BYBLOCK
 10
185433.12828113511
 20
9957928.1728935335
 30
0.0
  0
VERTEX
  5
190F
  8
SURVEY_LIMIT
  6
BYBLOCK
 10
185489.97220512849
 20
9957935.8705190402
 30
0.0
  0
VERTEX
  5
1910
  8
SURVEY_LIMIT
  6
BYBLOCK
 10
185548.75728248421
 20
9957956.0868298691
 30
0.0
  0
VERTEX
  5
1911
  8
SURVEY_LIMIT
  6
BYBLOCK
 10
185603.66005310789
 20
9957994.5910276044
 30
0.0
  0
VERTEX
  5
1912
  8
SURVEY_LIMIT
  6
BYBLOCK
 10
185653.75339896971
 20
9958014.8073384333
 30
0.0
  0
VERTEX
  5
1913
  8
SURVEY_LIMIT
  6
BYBLOCK
 10
185710.59732295931
 20
9958015.7715504002
 30
0.0
  0
VERTEX
  5
1914
  8
SURVEY_LIMIT
  6
BYBLOCK
 10
185784.79573750871
 20
9958012.8789145034
 30
0.0
  0
VERTEX
  5
1915
  8
SURVEY_LIMIT
  6
BYBLOCK
 10
185849.3463300913
 20
9958023.4691759031
 30
0.0
  0
VERTEX
  5
1916
  8
SURVEY_LIMIT
  6
BYBLOCK
 10
185906.19025408471
 20
9958049.4546883162
 30
0.0
  0
VERTEX
  5
1917
  8
SURVEY_LIMIT
  6
BYBLOCK
 10
185959.18084377781
 20
9958083.1538964324
 30
0.0
  0
VERTEX
  5
1918
  8
SURVEY_LIMIT
  6
BYBLOCK
 10
185998.49644258231
 20
9958106.6967385318
 30
0.0
  0
VERTEX
  5
1919
  8
SURVEY_LIMIT
  6
BYBLOCK
 10
186049.5458789095
 20
9958136.5390987992
 30
0.0
  0
VERTEX
  5
191A
  8
SURVEY_LIMIT
  6
BYBLOCK
 10
186095.78589047119
 20
9958154.8269857056
 30
0.0
  0
VERTEX
  5
191B
  8
SURVEY_LIMIT
  6
BYBLOCK
 10
186162.27763642359
 20
9958155.7911976632
 30
0.0
  0
VERTEX
  5
191C
  8
SURVEY_LIMIT
  6
BYBLOCK
 10
186207.56155752391
 20
9958133.6464629099
 30
0.0
  0
VERTEX
  5
191D
  8
SURVEY_LIMIT
  6
BYBLOCK
 10
186247.05099095759
 20
9958115.3585760035
 30
0.0
  0
VERTEX
  5
191E
  8
SURVEY_LIMIT
  6
BYBLOCK
 10
186270.1709967404
 20
9958094.1780532133
 30
0.0
  0
VERTEX
  5
191F
  8
SURVEY_LIMIT
  6
BYBLOCK
 10
186290.3937586917
 20
9958071.0851766914
 30
0.0
  0
VERTEX
  5
1920
  8
SURVEY_LIMIT
  6
BYBLOCK
 10
186337.61883315811
 20
9958079.7470141631
 30
0.0
  0
VERTEX
  5
1921
  8
SURVEY_LIMIT
  6
BYBLOCK
 10
186387.71217901999
 20
9958111.5017281529
 30
0.0
  0
VERTEX
  5
1922
  8
SURVEY_LIMIT
  6
BYBLOCK
 10
186446.46828393999
 20
9958147.1293601952
 30
0.0
  0
VERTEX
  5
1923
  8
SURVEY_LIMIT
  6
BYBLOCK
 10
186502.3561174646
 20
9958176.9717204608
 30
0.0
  0
VERTEX
  5
1924
  8
SURVEY_LIMIT
  6
BYBLOCK
 10
186552.4494633264
 20
9958184.6693459675
 30
0.0
  0
VERTEX
  5
1925
  8
SURVEY_LIMIT
  6
BYBLOCK
 10
186591.96786919981
 20
9958176.9717204608
 30
0.0
  0
VERTEX
  5
1926
  8
SURVEY_LIMIT
  6
BYBLOCK
 10
186627.60396833721
 20
9958165.4172470979
 30
0.0
  0
VERTEX
  5
1927
  8
SURVEY_LIMIT
  6
BYBLOCK
 10
186662.28397701311
 20
9958162.5246112067
 30
0.0
  0
VERTEX
  5
1928
  8
SURVEY_LIMIT
  6
BYBLOCK
 10
186711.4212324096
 20
9958175.0432965364
 30
0.0
  0
VERTEX
  5
1929
  8
SURVEY_LIMIT
  6
BYBLOCK
 10
186753.8079096748
 20
9958186.5977698918
 30
0.0
  0
VERTEX
  5
192A
  8
SURVEY_LIMIT
  6
BYBLOCK
 10
186784.75047380471
 20
9958181.8409908731
 30
0.0
  0
VERTEX
  5
192B
  8
SURVEY_LIMIT
  6
BYBLOCK
 10
186851.93755827841
 20
9958155.6787062697
 30
0.0
  0
VERTEX
  5
192C
  8
SURVEY_LIMIT
  6
BYBLOCK
 10
186893.65786946559
 20
9958126.688066572
 30
0.0
  0
VERTEX
  5
192D
  8
SURVEY_LIMIT
  6
BYBLOCK
 10
186909.96935224161
 20
9958092.2496292833
 30
0.0
  0
VERTEX
  5
192E
  8
SURVEY_LIMIT
  6
BYBLOCK
 10
186915.41617064551
 20
9958065.0749221165
 30
0.0
  0
VERTEX
  5
192F
  8
SURVEY_LIMIT
  6
BYBLOCK
 10
186888.7904998248
 20
9958040.3268150631
 30
0.0
  0
VERTEX
  5
1930
  8
SURVEY_LIMIT
  6
BYBLOCK
 10
186857.2105420529
 20
9958010.9183501843
 30
0.0
  0
VERTEX
  5
1931
  8
SURVEY_LIMIT
  6
BYBLOCK
 10
186799.3815551585
 20
9957945.4644280765
 30
0.0
  0
VERTEX
  5
1932
  8
SURVEY_LIMIT
  6
BYBLOCK
 10
186772.4082150794
 20
9957909.8367960304
 30
0.0
  0
VERTEX
  5
1933
  8
SURVEY_LIMIT
  6
BYBLOCK
 10
186746.3909654654
 20
9957861.7065488659
 30
0.0
  0
VERTEX
  5
1934
  8
SURVEY_LIMIT
  6
BYBLOCK
 10
186737.72820640719
 20
9957834.7568244841
 30
0.0
  0
VERTEX
  5
1935
  8
SURVEY_LIMIT
  6
BYBLOCK
 10
186734.83096257571
 20
9957809.7194538396
 30
0.0
  0
VERTEX
  5
1936
  8
SURVEY_LIMIT
  6
BYBLOCK
 10
186720.40268829081
 20
9957790.4673549756
 30
0.0
  0
VERTEX
  5
1937
  8
SURVEY_LIMIT
  6
BYBLOCK
 10
186697.2537100687
 20
9957761.5892066732
 30
0.0
  0
VERTEX
  5
1938
  8
SURVEY_LIMIT
  6
BYBLOCK
 10
186685.69370717919
 20
9957732.7110583745
 30
0.0
  0
VERTEX
  5
1939
  8
SURVEY_LIMIT
  6
BYBLOCK
 10
186673.17761382079
 20
9957693.2426486779
 30
0.0
  0
VERTEX
  5
193A
  8
SURVEY_LIMIT
  6
BYBLOCK
 10
186671.2654328942
 20
9957641.2555536553
 30
0.0
  0
VERTEX
  5
193B
  8
SURVEY_LIMIT
  6
BYBLOCK
 10
186677.0309481172
 20
9957599.8587200306
 30
0.0
  0
VERTEX
  5
193C
  8
SURVEY_LIMIT
  6
BYBLOCK
 10
186679.87024707341
 20
9957566.3523543049
 30
0.0
  0
VERTEX
  5
193D
  8
SURVEY_LIMIT
  6
BYBLOCK
 10
186686.5918527653
 20
9957511.4726233948
 30
0.0
  0
VERTEX
  5
193E
  8
SURVEY_LIMIT
  6
BYBLOCK
 10
186704.9024337864
 20
9957447.9471252169
 30
0.0
  0
VERTEX
  5
193F
  8
SURVEY_LIMIT
  6
BYBLOCK
 10
186724.16910527251
 20
9957383.4413448684
 30
0.0
  0
VERTEX
  5
1940
  8
SURVEY_LIMIT
  6
BYBLOCK
 10
186751.1424453519
 20
9957310.289797252
 30
0.0
  0
VERTEX
  5
1941
  8
SURVEY_LIMIT
  6
BYBLOCK
 10
186793.5291226171
 20
9957246.7482288741
 30
0.0
  0
VERTEX
  5
1942
  8
SURVEY_LIMIT
  6
BYBLOCK
 10
186828.23810372871
 20
9957200.546405632
 30
0.0
  0
VERTEX
  5
1943
  8
SURVEY_LIMIT
  6
BYBLOCK
 10
186860.02086856961
 20
9957165.8829855528
 30
0.0
  0
VERTEX
  5
1944
  8
SURVEY_LIMIT
  6
BYBLOCK
 10
186876.3902962245
 20
9957141.8258970696
 30
0.0
  0
VERTEX
  5
1945
  8
SURVEY_LIMIT
  6
BYBLOCK
 10
186892.933558505
 20
9957114.9404534902
 30
0.0
  0
VERTEX
  5
1946
  8
SURVEY_LIMIT
  6
BYBLOCK
 10
186916.05356428761
 20
9957085.0980932284
 30
0.0
  0
VERTEX
  5
1947
  8
SURVEY_LIMIT
  6
BYBLOCK
 10
186943.02690436679
 20
9957052.3791672718
 30
0.0
  0
VERTEX
  5
1948
  8
SURVEY_LIMIT
  6
BYBLOCK
 10
186962.29357585291
 20
9957002.3204961792
 30
0.0
  0
VERTEX
  5
1949
  8
SURVEY_LIMIT
  6
BYBLOCK
 10
186963.27863875401
 20
9956969.5855000243
 30
0.0
  0
VERTEX
  5
194A
  8
SURVEY_LIMIT
  6
BYBLOCK
 10
186962.29357585291
 20
9956912.7934153844
 30
0.0
  0
VERTEX
  5
194B
  8
SURVEY_LIMIT
  6
BYBLOCK
 10
186943.9829948321
 20
9956837.6973736454
 30
0.0
  0
VERTEX
  5
194C
  8
SURVEY_LIMIT
  6
BYBLOCK
 10
186923.76023288071
 20
9956782.8337129354
 30
0.0
  0
VERTEX
  5
194D
  8
SURVEY_LIMIT
  6
BYBLOCK
 10
186892.933558505
 20
9956726.0255580992
 30
0.0
  0
VERTEX
  5
194E
  8
SURVEY_LIMIT
  6
BYBLOCK
 10
186864.01906505969
 20
9956695.2350560687
 30
0.0
  0
VERTEX
  5
194F
  8
SURVEY_LIMIT
  6
BYBLOCK
 10
186837.0457249805
 20
9956661.5358479545
 30
0.0
  0
VERTEX
  5
1950
  8
SURVEY_LIMIT
  6
BYBLOCK
 10
186782.7803479991
 20
9956587.5486499704
 30
0.0
  0
VERTEX
  5
1951
  8
SURVEY_LIMIT
  6
BYBLOCK
 10
186699.9191743953
 20
9956508.6118305735
 30
0.0
  0
VERTEX
  5
1952
  8
SURVEY_LIMIT
  6
BYBLOCK
 10
186599.73248267159
 20
9956423.9058096018
 30
0.0
  0
VERTEX
  5
1953
  8
SURVEY_LIMIT
  6
BYBLOCK
 10
186526.5191310271
 20
9956350.738191789
 30
0.0
  0
VERTEX
  5
1954
  8
SURVEY_LIMIT
  6
BYBLOCK
 10
186453.3057793862
 20
9956286.2324114405
 30
0.0
  0
VERTEX
  5
1955
  8
SURVEY_LIMIT
  6
BYBLOCK
 10
186376.2101210056
 20
9956210.1882279385
 30
0.0
  0
VERTEX
  5
1956
  8
SURVEY_LIMIT
  6
BYBLOCK
 10
186340.22635260961
 20
9956174.6730872877
 30
0.0
  0
VERTEX
  5
1957
  8
SURVEY_LIMIT
  6
BYBLOCK
 10
186301.6930096373
 20
9956135.2046775874
 30
0.0
  0
VERTEX
  5
1958
  8
SURVEY_LIMIT
  6
BYBLOCK
 10
186272.77851619199
 20
9956086.1102184616
 30
0.0
  0
VERTEX
  5
1959
  8
SURVEY_LIMIT
  6
BYBLOCK
 10
186229.4357484577
 20
9955996.5831376687
 30
0.0
  0
VERTEX
  5
195A
  8
SURVEY_LIMIT
  6
BYBLOCK
 10
186220.74401696021
 20
9955957.1147279702
 30
0.0
  0
VERTEX
  5
195B
  8
SURVEY_LIMIT
  6
BYBLOCK
 10
186209.1840140706
 20
9955896.4657954797
 30
0.0
  0
VERTEX
  5
195C
  8
SURVEY_LIMIT
  6
BYBLOCK
 10
186176.44515876469
 20
9955815.6005521566
 30
0.0
  0
VERTEX
  5
195D
  8
SURVEY_LIMIT
  6
BYBLOCK
 10
186145.6184843888
 20
9955745.3255702332
 30
0.0
  0
VERTEX
  5
195E
  8
SURVEY_LIMIT
  6
BYBLOCK
 10
186126.35181290281
 20
9955705.8571605384
 30
0.0
  0
VERTEX
  5
195F
  8
SURVEY_LIMIT
  6
BYBLOCK
 10
186100.01586646581
 20
9955664.5728183072
 30
0.0
  0
VERTEX
  5
1960
  8
SURVEY_LIMIT
  6
BYBLOCK
 10
186051.8347015343
 20
9955606.8165217098
 30
0.0
  0
VERTEX
  5
1961
  8
SURVEY_LIMIT
  6
BYBLOCK
 10
186003.6535366028
 20
9955572.1691718269
 30
0.0
  0
VERTEX
  5
1962
  8
SURVEY_LIMIT
  6
BYBLOCK
 10
185929.48409449679
 20
9955522.1105007306
 30
0.0
  0
VERTEX
  5
1963
  8
SURVEY_LIMIT
  6
BYBLOCK
 10
185811.9429122172
 20
9955459.5331443157
 30
0.0
  0
VERTEX
  5
1964
  8
SURVEY_LIMIT
  6
BYBLOCK
 10
185721.3750700168
 20
9955407.5460492931
 30
0.0
  0
VERTEX
  5
1965
  8
SURVEY_LIMIT
  6
BYBLOCK
 10
185672.23781462011
 20
9955393.0989400465
 30
0.0
  0
VERTEX
  5
1966
  8
SURVEY_LIMIT
  6
BYBLOCK
 10
185598.0683725141
 20
9955373.8468411788
 30
0.0
  0
VERTEX
  5
1967
  8
SURVEY_LIMIT
  6
BYBLOCK
 10
185558.95558077469
 20
9955359.7372061126
 30
0.0
  0
VERTEX
  5
1968
  8
SURVEY_LIMIT
  6
BYBLOCK
 10
185505.9649910813
 20
9955339.5208952837
 30
0.0
  0
VERTEX
  5
1969
  8
SURVEY_LIMIT
  6
BYBLOCK
 10
185464.5344042778
 20
9955317.3761605248
 30
0.0
  0
VERTEX
  5
196A
  8
SURVEY_LIMIT
  6
BYBLOCK
 10
185447.1799137218
 20
9955302.9451214746
 30
0.0
  0
VERTEX
  5
196B
  8
SURVEY_LIMIT
  6
BYBLOCK
 10
185419.2504831813
 20
9955273.1027612127
 30
0.0
  0
VERTEX
  5
196C
  8
SURVEY_LIMIT
  6
BYBLOCK
 10
185355.65598106009
 20
9955207.6327689029
 30
0.0
  0
VERTEX
  5
196D
  8
SURVEY_LIMIT
  6
BYBLOCK
 10
185311.32815042511
 20
9955154.6814619191
 30
0.0
  0
VERTEX
  5
196E
  8
SURVEY_LIMIT
  6
BYBLOCK
 10
185262.21986746791
 20
9955088.26332785
 30
0.0
  0
VERTEX
  5
196F
  8
SURVEY_LIMIT
  6
BYBLOCK
 10
185226.5547958909
 20
9955029.5428192858
 30
0.0
  0
VERTEX
  5
1970
  8
SURVEY_LIMIT
  6
BYBLOCK
 10
185217.89203683281
 20
9954988.1459856611
 30
0.0
  0
VERTEX
  5
1971
  8
SURVEY_LIMIT
  6
BYBLOCK
 10
185208.24421487001
 20
9954956.3752014749
 30
0.0
  0
VERTEX
  5
1972
  8
SURVEY_LIMIT
  6
BYBLOCK
 10
185202.4786996429
 20
9954919.7994276676
 30
0.0
  0
VERTEX
  5
1973
  8
SURVEY_LIMIT
  6
BYBLOCK
 10
185200.5375462769
 20
9954877.4383820761
 30
0.0
  0
VERTEX
  5
1974
  8
SURVEY_LIMIT
  6
BYBLOCK
 10
185200.3926840834
 20
9954838.1146041732
 30
0.0
  0
VERTEX
  5
1975
  8
SURVEY_LIMIT
  6
BYBLOCK
 10
185200.3926840834
 20
9954776.5014597178
 30
0.0
  0
VERTEX
  5
1976
  8
SURVEY_LIMIT
  6
BYBLOCK
 10
185182.08210306239
 20
9954709.1191136837
 30
0.0
  0
VERTEX
  5
1977
  8
SURVEY_LIMIT
  6
BYBLOCK
 10
185158.00600681821
 20
9954671.5630577132
 30
0.0
  0
VERTEX
  5
1978
  8
SURVEY_LIMIT
  6
BYBLOCK
 10
185126.22324197361
 20
9954620.5401746556
 30
0.0
  0
VERTEX
  5
1979
  8
SURVEY_LIMIT
  6
BYBLOCK
 10
185085.74874563879
 20
9954553.1578286216
 30
0.0
  0
VERTEX
  5
197A
  8
SURVEY_LIMIT
  6
BYBLOCK
 10
185052.98091789329
 20
9954485.7754825857
 30
0.0
  0
VERTEX
  5
197B
  8
SURVEY_LIMIT
  6
BYBLOCK
 10
185019.2859721221
 20
9954428.0191859826
 30
0.0
  0
VERTEX
  5
197C
  8
SURVEY_LIMIT
  6
BYBLOCK
 10
184985.3302744067
 20
9954350.1912103482
 30
0.0
  0
VERTEX
  5
197D
  8
SURVEY_LIMIT
  6
BYBLOCK
 10
184942.9435971416
 20
9954251.9862218872
 30
0.0
  0
VERTEX
  5
197E
  8
SURVEY_LIMIT
  6
BYBLOCK
 10
184898.61576650661
 20
9954148.0281020459
 30
0.0
  0
VERTEX
  5
197F
  8
SURVEY_LIMIT
  6
BYBLOCK
 10
184887.0557636134
 20
9954117.2215298153
 30
0.0
  0
VERTEX
  5
1980
  8
SURVEY_LIMIT
  6
BYBLOCK
 10
184880.3341579251
 20
9954088.3433815166
 30
0.0
  0
VERTEX
  5
1981
  8
SURVEY_LIMIT
  6
BYBLOCK
 10
184869.7302454969
 20
9954024.8018131368
 30
0.0
  0
VERTEX
  5
1982
  8
SURVEY_LIMIT
  6
BYBLOCK
 10
184860.0824235341
 20
9953955.4910431728
 30
0.0
  0
VERTEX
  5
1983
  8
SURVEY_LIMIT
  6
BYBLOCK
 10
184854.3169083072
 20
9953927.5771068353
 30
0.0
  0
VERTEX
  5
1984
  8
SURVEY_LIMIT
  6
BYBLOCK
 10
184848.43550332999
 20
9953907.4250768032
 30
0.0
  0
VERTEX
  5
1985
  8
SURVEY_LIMIT
  6
BYBLOCK
 10
184844.58216903359
 20
9953878.5469285045
 30
0.0
  0
VERTEX
  5
1986
  8
SURVEY_LIMIT
  6
BYBLOCK
 10
184844.58216903359
 20
9953845.8280025497
 30
0.0
  0
VERTEX
  5
1987
  8
SURVEY_LIMIT
  6
BYBLOCK
 10
184841.6849251985
 20
9953810.2003705036
 30
0.0
  0
VERTEX
  5
1988
  8
SURVEY_LIMIT
  6
BYBLOCK
 10
184838.78768136719
 20
9953776.5172325838
 30
0.0
  0
VERTEX
  5
1989
  8
SURVEY_LIMIT
  6
BYBLOCK
 10
184833.0221661402
 20
9953737.9969646558
 30
0.0
  0
VERTEX
  5
198A
  8
SURVEY_LIMIT
  6
BYBLOCK
 10
184833.97825660551
 20
9953704.3138267379
 30
0.0
  0
VERTEX
  5
198B
  8
SURVEY_LIMIT
  6
BYBLOCK
 10
184836.87550043681
 20
9953668.6861946918
 30
0.0
  0
VERTEX
  5
198C
  8
SURVEY_LIMIT
  6
BYBLOCK
 10
184836.87550043681
 20
9953647.5056719016
 30
0.0
  0
VERTEX
  5
198D
  8
SURVEY_LIMIT
  6
BYBLOCK
 10
184830.1249223091
 20
9953624.4127953779
 30
0.0
  0
VERTEX
  5
198E
  8
SURVEY_LIMIT
  6
BYBLOCK
 10
184824.3304346427
 20
9953589.7493752968
 30
0.0
  0
VERTEX
  5
198F
  8
SURVEY_LIMIT
  6
BYBLOCK
 10
184812.77043175319
 20
9953554.1378134526
 30
0.0
  0
VERTEX
  5
1990
  8
SURVEY_LIMIT
  6
BYBLOCK
 10
184794.45985073209
 20
9953508.8841319755
 30
0.0
  0
VERTEX
  5
1991
  8
SURVEY_LIMIT
  6
BYBLOCK
 10
184780.03157644719
 20
9953475.2009940613
 30
0.0
  0
VERTEX
  5
1992
  8
SURVEY_LIMIT
  6
BYBLOCK
 10
184766.5304201878
 20
9953451.1278353762
 30
0.0
  0
VERTEX
  5
1993
  8
SURVEY_LIMIT
  6
BYBLOCK
 10
184747.2637487053
 20
9953421.2854751125
 30
0.0
  0
VERTEX
  5
1994
  8
SURVEY_LIMIT
  6
BYBLOCK
 10
184737.6159267425
 20
9953410.6952137146
 30
0.0
  0
VERTEX
  5
1995
  8
SURVEY_LIMIT
  6
BYBLOCK
 10
184694.04137950391
 20
9953356.908256365
 30
0.0
  0
VERTEX
  5
1996
  8
SURVEY_LIMIT
  6
BYBLOCK
 10
184665.15585849431
 20
9953323.2251184452
 30
0.0
  0
VERTEX
  5
1997
  8
SURVEY_LIMIT
  6
BYBLOCK
 10
184640.0946993455
 20
9953293.3827581815
 30
0.0
  0
VERTEX
  5
1998
  8
SURVEY_LIMIT
  6
BYBLOCK
 10
184631.43194028721
 20
9953279.8998608924
 30
0.0
  0
VERTEX
  5
1999
  8
SURVEY_LIMIT
  6
BYBLOCK
 10
184621.78411832449
 20
9953262.5761859547
 30
0.0
  0
VERTEX
  5
199A
  8
SURVEY_LIMIT
  6
BYBLOCK
 10
184614.07744973141
 20
9953242.3598751258
 30
0.0
  0
VERTEX
  5
199B
  8
SURVEY_LIMIT
  6
BYBLOCK
 10
184607.3268716
 20
9953228.8769778367
 30
0.0
  0
VERTEX
  5
199C
  8
SURVEY_LIMIT
  6
BYBLOCK
 10
184600.60526591161
 20
9953210.5890909322
 30
0.0
  0
VERTEX
  5
199D
  8
SURVEY_LIMIT
  6
BYBLOCK
 10
184591.91353441399
 20
9953186.5159322526
 30
0.0
  0
VERTEX
  5
199E
  8
SURVEY_LIMIT
  6
BYBLOCK
 10
184588.0602001175
 20
9953169.1922573093
 30
0.0
  0
VERTEX
  5
199F
  8
SURVEY_LIMIT
  6
BYBLOCK
 10
184579.3974410556
 20
9953150.9043704029
 30
0.0
  0
VERTEX
  5
19A0
  8
SURVEY_LIMIT
  6
BYBLOCK
 10
184557.8709193838
 20
9953134.8984518107
 30
0.0
  0
VERTEX
  5
19A1
  8
SURVEY_LIMIT
  6
BYBLOCK
 10
184533.15742949391
 20
9953121.0620101448
 30
0.0
  0
VERTEX
  5
19A2
  8
SURVEY_LIMIT
  6
BYBLOCK
 10
184512.90569510291
 20
9953109.5075367838
 30
0.0
  0
VERTEX
  5
19A3
  8
SURVEY_LIMIT
  6
BYBLOCK
 10
184483.06408363199
 20
9953097.953063421
 30
0.0
  0
VERTEX
  5
19A4
  8
SURVEY_LIMIT
  6
BYBLOCK
 10
184446.44292159
 20
9953075.8243988622
 30
0.0
  0
VERTEX
  5
19A5
  8
SURVEY_LIMIT
  6
BYBLOCK
 10
184412.71900338301
 20
9953048.8586042877
 30
0.0
  0
VERTEX
  5
19A6
  8
SURVEY_LIMIT
  6
BYBLOCK
 10
184395.3934852629
 20
9953035.3917772025
 30
0.0
  0
VERTEX
  5
19A7
  8
SURVEY_LIMIT
  6
BYBLOCK
 10
184366.4789918176
 20
9953011.3186185155
 30
0.0
  0
VERTEX
  5
19A8
  8
SURVEY_LIMIT
  6
BYBLOCK
 10
184355.5274101308
 20
9953000.969410114
 30
0.0
  0
VERTEX
  5
19A9
  8
SURVEY_LIMIT
  6
BYBLOCK
 10
184333.36349481341
 20
9952976.912321629
 30
0.0
  0
VERTEX
  5
19AA
  8
SURVEY_LIMIT
  6
BYBLOCK
 10
184314.09682332721
 20
9952947.0699613634
 30
0.0
  0
VERTEX
  5
19AB
  8
SURVEY_LIMIT
  6
BYBLOCK
 10
184298.68348614121
 20
9952922.9968026821
 30
0.0
  0
VERTEX
  5
19AC
  8
SURVEY_LIMIT
  6
BYBLOCK
 10
184286.16739278639
 20
9952899.8878559656
 30
0.0
  0
VERTEX
  5
19AD
  8
SURVEY_LIMIT
  6
BYBLOCK
 10
184271.7101460619
 20
9952874.8665555157
 30
0.0
  0
VERTEX
  5
19AE
  8
SURVEY_LIMIT
  6
BYBLOCK
 10
184262.09129653871
 20
9952856.5786686074
 30
0.0
  0
VERTEX
  5
19AF
  8
SURVEY_LIMIT
  6
BYBLOCK
 10
184253.39956504101
 20
9952838.2907817047
 30
0.0
  0
VERTEX
  5
19B0
  8
SURVEY_LIMIT
  6
BYBLOCK
 10
184248.5901402793
 20
9952823.8436724581
 30
0.0
  0
VERTEX
  5
19B1
  8
SURVEY_LIMIT
  6
BYBLOCK
 10
184234.13289355481
 20
9952788.2321106121
 30
0.0
  0
VERTEX
  5
19B2
  8
SURVEY_LIMIT
  6
BYBLOCK
 10
184221.61680020011
 20
9952746.8352769893
 30
0.0
  0
VERTEX
  5
19B3
  8
SURVEY_LIMIT
  6
BYBLOCK
 10
184210.05679731071
 20
9952722.7621183079
 30
0.0
  0
VERTEX
  5
19B4
  8
SURVEY_LIMIT
  6
BYBLOCK
 10
184200.09027852479
 20
9952700.9869981315
 30
0.0
  0
VERTEX
  5
19B5
  8
SURVEY_LIMIT
  6
BYBLOCK
 10
184184.41618939111
 20
9952668.1395105831
 30
0.0
  0
VERTEX
  5
19B6
  8
SURVEY_LIMIT
  6
BYBLOCK
 10
184169.2346317097
 20
9952634.2635302749
 30
0.0
  0
VERTEX
  5
19B7
  8
SURVEY_LIMIT
  6
BYBLOCK
 10
184157.58771150559
 20
9952610.5117755812
 30
0.0
  0
VERTEX
  5
19B8
  8
SURVEY_LIMIT
  6
BYBLOCK
 10
184147.99783442161
 20
9952593.8309086114
 30
0.0
  0
VERTEX
  5
19B9
  8
SURVEY_LIMIT
  6
BYBLOCK
 10
184137.3649495542
 20
9952575.6394429095
 30
0.0
  0
VERTEX
  5
19BA
  8
SURVEY_LIMIT
  6
BYBLOCK
 10
184125.71802935001
 20
9952561.9958436284
 30
0.0
  0
VERTEX
  5
19BB
  8
SURVEY_LIMIT
  6
BYBLOCK
 10
184107.52333808321
 20
9952547.8379979674
 30
0.0
  0
VERTEX
  5
19BC
  8
SURVEY_LIMIT
  6
BYBLOCK
 10
184090.3137097171
 20
9952537.2316663675
 30
0.0
  0
VERTEX
  5
19BD
  8
SURVEY_LIMIT
  6
BYBLOCK
 10
184066.5563102923
 20
9952529.6465322562
 30
0.0
  0
VERTEX
  5
19BE
  8
SURVEY_LIMIT
  6
BYBLOCK
 10
184044.7980091123
 20
9952526.1110883933
 30
0.0
  0
VERTEX
  5
19BF
  8
SURVEY_LIMIT
  6
BYBLOCK
 10
184024.0537432729
 20
9952523.0738207083
 30
0.0
  0
VERTEX
  5
19C0
  8
SURVEY_LIMIT
  6
BYBLOCK
 10
184005.8590520061
 20
9952522.0613981429
 30
0.0
  0
VERTEX
  5
19C1
  8
SURVEY_LIMIT
  6
BYBLOCK
 10
183987.63538829959
 20
9952521.563221965
 30
0.0
  0
VERTEX
  5
19C2
  8
SURVEY_LIMIT
  6
BYBLOCK
 10
183976.5099719837
 20
9952520.5507994052
 30
0.0
  0
VERTEX
  5
19C3
  8
SURVEY_LIMIT
  6
BYBLOCK
 10
183966.19578393921
 20
9952516.5975303557
 30
0.0
  0
VERTEX
  5
19C4
  8
SURVEY_LIMIT
  6
BYBLOCK
 10
183958.60500510031
 20
9952513.560262667
 30
0.0
  0
VERTEX
  5
19C5
  8
SURVEY_LIMIT
  6
BYBLOCK
 10
183946.4655534401
 20
9952500.9290859532
 30
0.0
  0
VERTEX
  5
19C6
  8
SURVEY_LIMIT
  6
BYBLOCK
 10
183926.73532294479
 20
9952480.7127751205
 30
0.0
  0
VERTEX
  5
19C7
  8
SURVEY_LIMIT
  6
BYBLOCK
 10
183910.04719847051
 20
9952458.9858655483
 30
0.0
  0
VERTEX
  5
19C8
  8
SURVEY_LIMIT
  6
BYBLOCK
 10
183894.8656407854
 20
9952436.7447095923
 30
0.0
  0
VERTEX
  5
19C9
  8
SURVEY_LIMIT
  6
BYBLOCK
 10
183885.24679126221
 20
9952417.0265749432
 30
0.0
  0
VERTEX
  5
19CA
  8
SURVEY_LIMIT
  6
BYBLOCK
 10
183872.0933042652
 20
9952390.7517989445
 30
0.0
  0
VERTEX
  5
19CB
  8
SURVEY_LIMIT
  6
BYBLOCK
 10
183857.9257819241
 20
9952357.3900650162
 30
0.0
  0
VERTEX
  5
19CC
  8
SURVEY_LIMIT
  6
BYBLOCK
 10
183850.363975521
 20
9952341.2234444283
 30
0.0
  0
VERTEX
  5
19CD
  8
SURVEY_LIMIT
  6
BYBLOCK
 10
183843.2657281346
 20
9952318.4680420961
 30
0.0
  0
VERTEX
  5
19CE
  8
SURVEY_LIMIT
  6
BYBLOCK
 10
183836.68898463249
 20
9952292.6914422791
 30
0.0
  0
VERTEX
  5
19CF
  8
SURVEY_LIMIT
  6
BYBLOCK
 10
183831.03935915959
 20
9952267.5094398353
 30
0.0
  0
VERTEX
  5
19D0
  8
SURVEY_LIMIT
  6
BYBLOCK
 10
183821.9420135282
 20
9952240.2061710786
 30
0.0
  0
VERTEX
  5
19D1
  8
SURVEY_LIMIT
  6
BYBLOCK
 10
183811.30912866071
 20
9952210.8941273931
 30
0.0
  0
VERTEX
  5
19D2
  8
SURVEY_LIMIT
  6
BYBLOCK
 10
183805.7464205026
 20
9952195.7399293669
 30
0.0
  0
VERTEX
  5
19D3
  8
SURVEY_LIMIT
  6
BYBLOCK
 10
183803.2258183693
 20
9952183.6069288272
 30
0.0
  0
VERTEX
  5
19D4
  8
SURVEY_LIMIT
  6
BYBLOCK
 10
183799.1696770041
 20
9952171.9881746732
 30
0.0
  0
VERTEX
  5
19D5
  8
SURVEY_LIMIT
  6
BYBLOCK
 10
183795.6350395304
 20
9952157.3160826303
 30
0.0
  0
VERTEX
  5
19D6
  8
SURVEY_LIMIT
  6
BYBLOCK
 10
183789.55082748079
 20
9952141.6476382278
 30
0.0
  0
VERTEX
  5
19D7
  8
SURVEY_LIMIT
  6
BYBLOCK
 10
183785.00215466321
 20
9952126.4934402052
 30
0.0
  0
VERTEX
  5
19D8
  8
SURVEY_LIMIT
  6
BYBLOCK
 10
183780.9460132978
 20
9952113.3480171058
 30
0.0
  0
VERTEX
  5
19D9
  8
SURVEY_LIMIT
  6
BYBLOCK
 10
183775.90480903161
 20
9952098.1938190814
 30
0.0
  0
VERTEX
  5
19DA
  8
SURVEY_LIMIT
  6
BYBLOCK
 10
183771.84866766629
 20
9952092.1192837134
 30
0.0
  0
VERTEX
  5
19DB
  8
SURVEY_LIMIT
  6
BYBLOCK
 10
183762.22981814289
 20
9952079.4881069958
 30
0.0
  0
VERTEX
  5
19DC
  8
SURVEY_LIMIT
  6
BYBLOCK
 10
183750.6118703745
 20
9952061.2966412865
 30
0.0
  0
VERTEX
  5
19DD
  8
SURVEY_LIMIT
  6
BYBLOCK
 10
183737.45838337389
 20
9952046.1263730656
 30
0.0
  0
VERTEX
  5
19DE
  8
SURVEY_LIMIT
  6
BYBLOCK
 10
183723.81236492461
 20
9952033.4951963443
 30
0.0
  0
VERTEX
  5
19DF
  8
SURVEY_LIMIT
  6
BYBLOCK
 10
183710.65887792781
 20
9952018.3249281254
 30
0.0
  0
VERTEX
  5
19E0
  8
SURVEY_LIMIT
  6
BYBLOCK
 10
183701.3876976631
 20
9952009.2934760675
 30
0.0
  0
VERTEX
  5
19E1
  8
SURVEY_LIMIT
  6
BYBLOCK
 10
183690.26228134701
 20
9951995.1356304064
 30
0.0
  0
VERTEX
  5
19E2
  8
SURVEY_LIMIT
  6
BYBLOCK
 10
183679.1368650308
 20
9951983.5168762468
 30
0.0
  0
VERTEX
  5
19E3
  8
SURVEY_LIMIT
  6
BYBLOCK
 10
183667.51891726229
 20
9951973.9068970177
 30
0.0
  0
VERTEX
  5
19E4
  8
SURVEY_LIMIT
  6
BYBLOCK
 10
183656.3935009464
 20
9951962.786319036
 30
0.0
  0
VERTEX
  5
19E5
  8
SURVEY_LIMIT
  6
BYBLOCK
 10
183649.81675744799
 20
9951949.6408959366
 30
0.0
  0
VERTEX
  5
19E6
  8
SURVEY_LIMIT
  6
BYBLOCK
 10
183641.70447471729
 20
9951937.5078954007
 30
0.0
  0
VERTEX
  5
19E7
  8
SURVEY_LIMIT
  6
BYBLOCK
 10
183637.15580189959
 20
9951921.8555211965
 30
0.0
  0
VERTEX
  5
19E8
  8
SURVEY_LIMIT
  6
BYBLOCK
 10
183635.649235107
 20
9951908.7100980971
 30
0.0
  0
VERTEX
  5
19E9
  8
SURVEY_LIMIT
  6
BYBLOCK
 10
183634.63519976661
 20
9951894.5522524342
 30
0.0
  0
VERTEX
  5
19EA
  8
SURVEY_LIMIT
  6
BYBLOCK
 10
183637.15580189959
 20
9951882.4192518964
 30
0.0
  0
VERTEX
  5
19EB
  8
SURVEY_LIMIT
  6
BYBLOCK
 10
183639.6764040328
 20
9951871.8129203022
 30
0.0
  0
VERTEX
  5
19EC
  8
SURVEY_LIMIT
  6
BYBLOCK
 10
183645.26808463031
 20
9951862.2029410694
 30
0.0
  0
VERTEX
  5
19ED
  8
SURVEY_LIMIT
  6
BYBLOCK
 10
183652.33735958111
 20
9951851.5966094695
 30
0.0
  0
VERTEX
  5
19EE
  8
SURVEY_LIMIT
  6
BYBLOCK
 10
183659.92813842359
 20
9951838.9654327538
 30
0.0
  0
VERTEX
  5
19EF
  8
SURVEY_LIMIT
  6
BYBLOCK
 10
183673.0816254204
 20
9951828.8572773356
 30
0.0
  0
VERTEX
  5
19F0
  8
SURVEY_LIMIT
  6
BYBLOCK
 10
183686.7276438697
 20
9951813.6870091166
 30
0.0
  0
VERTEX
  5
19F1
  8
SURVEY_LIMIT
  6
BYBLOCK
 10
183708.978476502
 20
9951794.4831208456
 30
0.0
  0
VERTEX
  5
19F2
  8
SURVEY_LIMIT
  6
BYBLOCK
 10
183723.14599884301
 20
9951781.3376977444
 30
0.0
  0
VERTEX
  5
19F3
  8
SURVEY_LIMIT
  6
BYBLOCK
 10
183730.8236950002
 20
9951772.8365622666
 30
0.0
  0
VERTEX
  5
19F4
  8
SURVEY_LIMIT
  6
BYBLOCK
 10
183741.94911131629
 20
9951763.2426532358
 30
0.0
  0
VERTEX
  5
19F5
  8
SURVEY_LIMIT
  6
BYBLOCK
 10
183746.00525268161
 20
9951757.6823642422
 30
0.0
  0
VERTEX
  5
19F6
  8
SURVEY_LIMIT
  6
BYBLOCK
 10
183750.5539254992
 20
9951743.0263424031
 30
0.0
  0
VERTEX
  5
19F7
  8
SURVEY_LIMIT
  6
BYBLOCK
 10
183756.11663365719
 20
9951726.3454754408
 30
0.0
  0
VERTEX
  5
19F8
  8
SURVEY_LIMIT
  6
BYBLOCK
 10
183759.6512711308
 20
9951713.6982285194
 30
0.0
  0
VERTEX
  5
19F9
  8
SURVEY_LIMIT
  6
BYBLOCK
 10
183759.6512711308
 20
9951698.0297841188
 30
0.0
  0
VERTEX
  5
19FA
  8
SURVEY_LIMIT
  6
BYBLOCK
 10
183757.62320045009
 20
9951683.8880086541
 30
0.0
  0
VERTEX
  5
19FB
  8
SURVEY_LIMIT
  6
BYBLOCK
 10
183757.13066899759
 20
9951665.1822965667
 30
0.0
  0
VERTEX
  5
19FC
  8
SURVEY_LIMIT
  6
BYBLOCK
 10
183753.0745276323
 20
9951644.9659857377
 30
0.0
  0
VERTEX
  5
19FD
  8
SURVEY_LIMIT
  6
BYBLOCK
 10
183747.5118194744
 20
9951617.6787871756
 30
0.0
  0
VERTEX
  5
19FE
  8
SURVEY_LIMIT
  6
BYBLOCK
 10
183740.4425445236
 20
9951590.8897648007
 30
0.0
  0
VERTEX
  5
19FF
  8
SURVEY_LIMIT
  6
BYBLOCK
 10
183734.35833247381
 20
9951561.5777211133
 30
0.0
  0
VERTEX
  5
1A00
  8
SURVEY_LIMIT
  6
BYBLOCK
 10
183732.24334447811
 20
9951553.6390426122
 30
0.0
  0
VERTEX
  5
1A01
  8
SURVEY_LIMIT
  6
BYBLOCK
 10
183729.7227423414
 20
9951549.0911761858
 30
0.0
  0
VERTEX
  5
1A02
  8
SURVEY_LIMIT
  6
BYBLOCK
 10
183724.6525656356
 20
9951540.9917956963
 30
0.0
  0
VERTEX
  5
1A03
  8
SURVEY_LIMIT
  6
BYBLOCK
 10
183715.555220004
 20
9951526.3357738517
 30
0.0
  0
VERTEX
  5
1A04
  8
SURVEY_LIMIT
  6
BYBLOCK
 10
183703.4157683439
 20
9951506.6337094046
 30
0.0
  0
VERTEX
  5
1A05
  8
SURVEY_LIMIT
  6
BYBLOCK
 10
183691.826793015
 20
9951483.7979560737
 30
0.0
  0
VERTEX
  5
1A06
  8
SURVEY_LIMIT
  6
BYBLOCK
 10
183680.15090037131
 20
9951469.7365316097
 30
0.0
  0
VERTEX
  5
1A07
  8
SURVEY_LIMIT
  6
BYBLOCK
 10
183674.58819221321
 20
9951460.1265523713
 30
0.0
  0
VERTEX
  5
1A08
  8
SURVEY_LIMIT
  6
BYBLOCK
 10
183672.5601215325
 20
9951457.1053548902
 30
0.0
  0
VERTEX
  5
1A09
  8
SURVEY_LIMIT
  6
BYBLOCK
 10
183670.53205084801
 20
9951453.0556646455
 30
0.0
  0
VERTEX
  5
1A0A
  8
SURVEY_LIMIT
  6
BYBLOCK
 10
183661.43470521641
 20
9951431.3287550695
 30
0.0
  0
VERTEX
  5
1A0B
  8
SURVEY_LIMIT
  6
BYBLOCK
 10
183654.85796171421
 20
9951415.660310667
 30
0.0
  0
VERTEX
  5
1A0C
  8
SURVEY_LIMIT
  6
BYBLOCK
 10
183649.6429228186
 20
9951393.4352249131
 30
0.0
  0
VERTEX
  5
1A0D
  8
SURVEY_LIMIT
  6
BYBLOCK
 10
183643.58768320829
 20
9951375.3562506009
 30
0.0
  0
VERTEX
  5
1A0E
  8
SURVEY_LIMIT
  6
BYBLOCK
 10
183633.09966053441
 20
9951350.4474415481
 30
0.0
  0
VERTEX
  5
1A0F
  8
SURVEY_LIMIT
  6
BYBLOCK
 10
183629.0724916085
 20
9951336.3056660872
 30
0.0
  0
VERTEX
  5
1A10
  8
SURVEY_LIMIT
  6
BYBLOCK
 10
183621.48171276599
 20
9951316.0893552564
 30
0.0
  0
VERTEX
  5
1A11
  8
SURVEY_LIMIT
  6
BYBLOCK
 10
183616.78817775831
 20
9951303.4903189354
 30
0.0
  0
VERTEX
  5
1A12
  8
SURVEY_LIMIT
  6
BYBLOCK
 10
183607.6908321229
 20
9951276.1870501786
 30
0.0
  0
VERTEX
  5
1A13
  8
SURVEY_LIMIT
  6
BYBLOCK
 10
183602.64962785679
 20
9951265.0664722007
 30
0.0
  0
VERTEX
  5
1A14
  8
SURVEY_LIMIT
  6
BYBLOCK
 10
183597.0869196986
 20
9951250.4104503561
 30
0.0
  0
VERTEX
  5
1A15
  8
SURVEY_LIMIT
  6
BYBLOCK
 10
183588.9746369682
 20
9951233.2314072102
 30
0.0
  0
VERTEX
  5
1A16
  8
SURVEY_LIMIT
  6
BYBLOCK
 10
183581.38385812551
 20
9951218.5753853675
 30
0.0
  0
VERTEX
  5
1A17
  8
SURVEY_LIMIT
  6
BYBLOCK
 10
183573.7930792867
 20
9951203.4051171485
 30
0.0
  0
VERTEX
  5
1A18
  8
SURVEY_LIMIT
  6
BYBLOCK
 10
183572.286512494
 20
9951199.3714971021
 30
0.0
  0
VERTEX
  5
1A19
  8
SURVEY_LIMIT
  6
BYBLOCK
 10
183568.23037112871
 20
9951182.1763837561
 30
0.0
  0
VERTEX
  5
1A1A
  8
SURVEY_LIMIT
  6
BYBLOCK
 10
183565.7097689955
 20
9951169.3202242404
 30
0.0
  0
VERTEX
  5
1A1B
  8
SURVEY_LIMIT
  6
BYBLOCK
 10
183560.66856472541
 20
9951148.0914908517
 30
0.0
  0
VERTEX
  5
1A1C
  8
SURVEY_LIMIT
  6
BYBLOCK
 10
183556.11989190799
 20
9951132.4230464548
 30
0.0
  0
VERTEX
  5
1A1D
  8
SURVEY_LIMIT
  6
BYBLOCK
 10
183554.09182122719
 20
9951120.2900459133
 30
0.0
  0
VERTEX
  5
1A1E
  8
SURVEY_LIMIT
  6
BYBLOCK
 10
183551.5422466546
 20
9951092.4886009675
 30
0.0
  0
VERTEX
  5
1A1F
  8
SURVEY_LIMIT
  6
BYBLOCK
 10
183550.5571837498
 20
9951069.7492688354
 30
0.0
  0
VERTEX
  5
1A20
  8
SURVEY_LIMIT
  6
BYBLOCK
 10
183550.5571837498
 20
9951043.9726690166
 30
0.0
  0
VERTEX
  5
1A21
  8
SURVEY_LIMIT
  6
BYBLOCK
 10
183550.5571837498
 20
9951031.3254220989
 30
0.0
  0
VERTEX
  5
1A22
  8
SURVEY_LIMIT
  6
BYBLOCK
 10
183548.529113069
 20
9951022.743935626
 30
0.0
  0
VERTEX
  5
1A23
  8
SURVEY_LIMIT
  6
BYBLOCK
 10
183544.9944755919
 20
9951003.5400473587
 30
0.0
  0
VERTEX
  5
1A24
  8
SURVEY_LIMIT
  6
BYBLOCK
 10
183539.92429888621
 20
9950976.2367785946
 30
0.0
  0
VERTEX
  5
1A25
  8
SURVEY_LIMIT
  6
BYBLOCK
 10
183535.3756260685
 20
9950950.4601787813
 30
0.0
  0
VERTEX
  5
1A26
  8
SURVEY_LIMIT
  6
BYBLOCK
 10
183528.27737867829
 20
9950918.625113789
 30
0.0
  0
VERTEX
  5
1A27
  8
SURVEY_LIMIT
  6
BYBLOCK
 10
183526.27828043691
 20
9950907.0063596331
 30
0.0
  0
VERTEX
  5
1A28
  8
SURVEY_LIMIT
  6
BYBLOCK
 10
183523.67076098549
 20
9950894.3912531137
 30
0.0
  0
VERTEX
  5
1A29
  8
SURVEY_LIMIT
  6
BYBLOCK
 10
183522.13522175679
 20
9950885.2955202535
 30
0.0
  0
VERTEX
  5
1A2A
  8
SURVEY_LIMIT
  6
BYBLOCK
 10
183522.65672564501
 20
9950874.6731184628
 30
0.0
  0
VERTEX
  5
1A2B
  8
SURVEY_LIMIT
  6
BYBLOCK
 10
183524.1632924377
 20
9950860.5313430019
 30
0.0
  0
VERTEX
  5
1A2C
  8
SURVEY_LIMIT
  6
BYBLOCK
 10
183525.17732777799
 20
9950847.3859199043
 30
0.0
  0
VERTEX
  5
1A2D
  8
SURVEY_LIMIT
  6
BYBLOCK
 10
183525.17732777799
 20
9950835.2529193629
 30
0.0
  0
VERTEX
  5
1A2E
  8
SURVEY_LIMIT
  6
BYBLOCK
 10
183523.67076098549
 20
9950823.6341652032
 30
0.0
  0
VERTEX
  5
1A2F
  8
SURVEY_LIMIT
  6
BYBLOCK
 10
183521.12118641281
 20
9950808.9781433642
 30
0.0
  0
VERTEX
  5
1A30
  8
SURVEY_LIMIT
  6
BYBLOCK
 10
183520.6286549643
 20
9950798.3557415698
 30
0.0
  0
VERTEX
  5
1A31
  8
SURVEY_LIMIT
  6
BYBLOCK
 10
183517.0940174869
 20
9950788.2475861516
 30
0.0
  0
VERTEX
  5
1A32
  8
SURVEY_LIMIT
  6
BYBLOCK
 10
183510.51727398849
 20
9950774.1058106907
 30
0.0
  0
VERTEX
  5
1A33
  8
SURVEY_LIMIT
  6
BYBLOCK
 10
183501.9124598054
 20
9950753.3752534818
 30
0.0
  0
VERTEX
  5
1A34
  8
SURVEY_LIMIT
  6
BYBLOCK
 10
183494.32168096301
 20
9950735.6819639541
 30
0.0
  0
VERTEX
  5
1A35
  8
SURVEY_LIMIT
  6
BYBLOCK
 10
183486.7309021242
 20
9950714.9674769416
 30
0.0
  0
VERTEX
  5
1A36
  8
SURVEY_LIMIT
  6
BYBLOCK
 10
183479.1401232816
 20
9950699.7972087208
 30
0.0
  0
VERTEX
  5
1A37
  8
SURVEY_LIMIT
  6
BYBLOCK
 10
183477.6335564889
 20
9950693.2405673731
 30
0.0
  0
VERTEX
  5
1A38
  8
SURVEY_LIMIT
  6
BYBLOCK
 10
183477.6335564889
 20
9950684.1287643164
 30
0.0
  0
VERTEX
  5
1A39
  8
SURVEY_LIMIT
  6
BYBLOCK
 10
183477.60458405301
 20
9950670.1637610476
 30
0.0
  0
VERTEX
  5
1A3A
  8
SURVEY_LIMIT
  6
BYBLOCK
 10
183477.11205260071
 20
9950659.5413592514
 30
0.0
  0
VERTEX
  5
1A3B
  8
SURVEY_LIMIT
  6
BYBLOCK
 10
183476.5905487088
 20
9950651.9722953439
 30
0.0
  0
VERTEX
  5
1A3C
  8
SURVEY_LIMIT
  6
BYBLOCK
 10
183468.50723841781
 20
9950632.7684070729
 30
0.0
  0
VERTEX
  5
1A3D
  8
SURVEY_LIMIT
  6
BYBLOCK
 10
183456.8603182137
 20
9950607.4899834357
 30
0.0
  0
VERTEX
  5
1A3E
  8
SURVEY_LIMIT
  6
BYBLOCK
 10
183448.7770079188
 20
9950592.833961593
 30
0.0
  0
VERTEX
  5
1A3F
  8
SURVEY_LIMIT
  6
BYBLOCK
 10
183446.25640578559
 20
9950580.2027848754
 30
0.0
  0
VERTEX
  5
1A40
  8
SURVEY_LIMIT
  6
BYBLOCK
 10
183442.72176831221
 20
9950568.5679605156
 30
0.0
  0
VERTEX
  5
1A41
  8
SURVEY_LIMIT
  6
BYBLOCK
 10
183434.6094855814
 20
9950560.9988966025
 30
0.0
  0
VERTEX
  5
1A42
  8
SURVEY_LIMIT
  6
BYBLOCK
 10
183418.9353964476
 20
9950544.3180296384
 30
0.0
  0
VERTEX
  5
1A43
  8
SURVEY_LIMIT
  6
BYBLOCK
 10
183407.28847623989
 20
9950521.0644511245
 30
0.0
  0
VERTEX
  5
1A44
  8
SURVEY_LIMIT
  6
BYBLOCK
 10
183373.91222729161
 20
9950451.3197857849
 30
0.0
  0
VERTEX
  5
1A45
  8
SURVEY_LIMIT
  6
BYBLOCK
 10
183371.2177905291
 20
9950438.7368196622
 30
0.0
  0
VERTEX
  5
1A46
  8
SURVEY_LIMIT
  6
BYBLOCK
 10
183367.6831530518
 20
9950423.5665514357
 30
0.0
  0
VERTEX
  5
1A47
  8
SURVEY_LIMIT
  6
BYBLOCK
 10
183364.14851557821
 20
9950414.4708185866
 30
0.0
  0
VERTEX
  5
1A48
  8
SURVEY_LIMIT
  6
BYBLOCK
 10
183354.03713460261
 20
9950397.7899516188
 30
0.0
  0
VERTEX
  5
1A49
  8
SURVEY_LIMIT
  6
BYBLOCK
 10
183344.4182850793
 20
9950381.1090846546
 30
0.0
  0
VERTEX
  5
1A4A
  8
SURVEY_LIMIT
  6
BYBLOCK
 10
183333.78540021551
 20
9950364.4282176867
 30
0.0
  0
VERTEX
  5
1A4B
  8
SURVEY_LIMIT
  6
BYBLOCK
 10
183322.167452447
 20
9950351.7970409673
 30
0.0
  0
VERTEX
  5
1A4C
  8
SURVEY_LIMIT
  6
BYBLOCK
 10
183307.478426218
 20
9950338.6516178716
 30
0.0
  0
VERTEX
  5
1A4D
  8
SURVEY_LIMIT
  6
BYBLOCK
 10
183282.1854875609
 20
9950316.9247082956
 30
0.0
  0
VERTEX
  5
1A4E
  8
SURVEY_LIMIT
  6
BYBLOCK
 10
183267.52543376759
 20
9950304.293531578
 30
0.0
  0
VERTEX
  5
1A4F
  8
SURVEY_LIMIT
  6
BYBLOCK
 10
183254.89345065871
 20
9950294.6835523434
 30
0.0
  0
VERTEX
  5
1A50
  8
SURVEY_LIMIT
  6
BYBLOCK
 10
183237.68382229641
 20
9950280.5417768806
 30
0.0
  0
VERTEX
  5
1A51
  8
SURVEY_LIMIT
  6
BYBLOCK
 10
183222.00973316279
 20
9950268.9069525246
 30
0.0
  0
VERTEX
  5
1A52
  8
SURVEY_LIMIT
  6
BYBLOCK
 10
183204.8001047968
 20
9950256.2757758051
 30
0.0
  0
VERTEX
  5
1A53
  8
SURVEY_LIMIT
  6
BYBLOCK
 10
183187.61944887039
 20
9950246.1676203925
 30
0.0
  0
VERTEX
  5
1A54
  8
SURVEY_LIMIT
  6
BYBLOCK
 10
183167.3677144832
 20
9950233.5364436675
 30
0.0
  0
VERTEX
  5
1A55
  8
SURVEY_LIMIT
  6
BYBLOCK
 10
183147.6374839842
 20
9950222.9140418749
 30
0.0
  0
VERTEX
  5
1A56
  8
SURVEY_LIMIT
  6
BYBLOCK
 10
183129.9353241697
 20
9950211.7934638988
 30
0.0
  0
VERTEX
  5
1A57
  8
SURVEY_LIMIT
  6
BYBLOCK
 10
183122.54735239581
 20
9950208.8686876111
 30
0.0
  0
VERTEX
  5
1A58
  8
SURVEY_LIMIT
  6
BYBLOCK
 10
183108.87236150721
 20
9950202.8102224413
 30
0.0
  0
VERTEX
  5
1A59
  8
SURVEY_LIMIT
  6
BYBLOCK
 10
183092.1842370331
 20
9950194.71084195
 30
0.0
  0
VERTEX
  5
1A5A
  8
SURVEY_LIMIT
  6
BYBLOCK
 10
183081.55135216919
 20
9950188.6523767821
 30
0.0
  0
VERTEX
  5
1A5B
  8
SURVEY_LIMIT
  6
BYBLOCK
 10
183072.9755104256
 20
9950182.0796652269
 30
0.0
  0
VERTEX
  5
1A5C
  8
SURVEY_LIMIT
  6
BYBLOCK
 10
183062.8351570107
 20
9950174.4945311155
 30
0.0
  0
VERTEX
  5
1A5D
  8
SURVEY_LIMIT
  6
BYBLOCK
 10
183053.73781137911
 20
9950167.9218195677
 30
0.0
  0
VERTEX
  5
1A5E
  8
SURVEY_LIMIT
  6
BYBLOCK
 10
183046.14703253639
 20
9950161.8633543998
 30
0.0
  0
VERTEX
  5
1A5F
  8
SURVEY_LIMIT
  6
BYBLOCK
 10
183039.57028903801
 20
9950157.8136641532
 30
0.0
  0
VERTEX
  5
1A60
  8
SURVEY_LIMIT
  6
BYBLOCK
 10
183034.0075808801
 20
9950156.8173117936
 30
0.0
  0
VERTEX
  5
1A61
  8
SURVEY_LIMIT
  6
BYBLOCK
 10
183019.3475270904
 20
9950153.7800441049
 30
0.0
  0
VERTEX
  5
1A62
  8
SURVEY_LIMIT
  6
BYBLOCK
 10
183004.1659694089
 20
9950150.2446002457
 30
0.0
  0
VERTEX
  5
1A63
  8
SURVEY_LIMIT
  6
BYBLOCK
 10
182986.9853134825
 20
9950145.1824874356
 30
0.0
  0
VERTEX
  5
1A64
  8
SURVEY_LIMIT
  6
BYBLOCK
 10
182972.29628724969
 20
9950139.6221984476
 30
0.0
  0
VERTEX
  5
1A65
  8
SURVEY_LIMIT
  6
BYBLOCK
 10
182962.1849062776
 20
9950136.0867545847
 30
0.0
  0
VERTEX
  5
1A66
  8
SURVEY_LIMIT
  6
BYBLOCK
 10
182956.62219811961
 20
9950132.0370643362
 30
0.0
  0
VERTEX
  5
1A67
  8
SURVEY_LIMIT
  6
BYBLOCK
 10
182942.4546757786
 20
9950123.9537540451
 30
0.0
  0
VERTEX
  5
1A68
  8
SURVEY_LIMIT
  6
BYBLOCK
 10
182929.3011887781
 20
9950112.3349998854
 30
0.0
  0
VERTEX
  5
1A69
  8
SURVEY_LIMIT
  6
BYBLOCK
 10
182917.16173712161
 20
9950104.2516895961
 30
0.0
  0
VERTEX
  5
1A6A
  8
SURVEY_LIMIT
  6
BYBLOCK
 10
182908.58589537811
 20
9950091.6044426747
 30
0.0
  0
VERTEX
  5
1A6B
  8
SURVEY_LIMIT
  6
BYBLOCK
 10
182899.9810811952
 20
9950075.4378220867
 30
0.0
  0
VERTEX
  5
1A6C
  8
SURVEY_LIMIT
  6
BYBLOCK
 10
182895.92493982959
 20
9950056.2339338213
 30
0.0
  0
VERTEX
  5
1A6D
  8
SURVEY_LIMIT
  6
BYBLOCK
 10
182894.4183730371
 20
9950035.5033766106
 30
0.0
  0
VERTEX
  5
1A6E
  8
SURVEY_LIMIT
  6
BYBLOCK
 10
182892.3903023563
 20
9950014.2746432219
 30
0.0
  0
VERTEX
  5
1A6F
  8
SURVEY_LIMIT
  6
BYBLOCK
 10
182890.85476312399
 20
9949989.5104659591
 30
0.0
  0
VERTEX
  5
1A70
  8
SURVEY_LIMIT
  6
BYBLOCK
 10
182887.84162953871
 20
9949967.2693100069
 30
0.0
  0
VERTEX
  5
1A71
  8
SURVEY_LIMIT
  6
BYBLOCK
 10
182885.69766910371
 20
9949952.1793927811
 30
0.0
  0
VERTEX
  5
1A72
  8
SURVEY_LIMIT
  6
BYBLOCK
 10
182883.1770669668
 20
9949934.4861032572
 30
0.0
  0
VERTEX
  5
1A73
  8
SURVEY_LIMIT
  6
BYBLOCK
 10
182877.1218273601
 20
9949916.7928137295
 30
0.0
  0
VERTEX
  5
1A74
  8
SURVEY_LIMIT
  6
BYBLOCK
 10
182869.0095446296
 20
9949898.1031718403
 30
0.0
  0
VERTEX
  5
1A75
  8
SURVEY_LIMIT
  6
BYBLOCK
 10
182861.9402696788
 20
9949878.3850371931
 30
0.0
  0
VERTEX
  5
1A76
  8
SURVEY_LIMIT
  6
BYBLOCK
 10
182850.8148533589
 20
9949860.1935714856
 30
0.0
  0
VERTEX
  5
1A77
  8
SURVEY_LIMIT
  6
BYBLOCK
 10
182842.7025706321
 20
9949847.0481483843
 30
0.0
  0
VERTEX
  5
1A78
  8
SURVEY_LIMIT
  6
BYBLOCK
 10
182835.1407642288
 20
9949833.9027252868
 30
0.0
  0
VERTEX
  5
1A79
  8
SURVEY_LIMIT
  6
BYBLOCK
 10
182830.0705875195
 20
9949825.3212388121
 30
0.0
  0
VERTEX
  5
1A7A
  8
SURVEY_LIMIT
  6
BYBLOCK
 10
182828.0425168387
 20
9949816.7236821409
 30
0.0
  0
VERTEX
  5
1A7B
  8
SURVEY_LIMIT
  6
BYBLOCK
 10
182825.00041081361
 20
9949798.5322164316
 30
0.0
  0
VERTEX
  5
1A7C
  8
SURVEY_LIMIT
  6
BYBLOCK
 10
182823.49384402111
 20
9949783.3619482107
 30
0.0
  0
VERTEX
  5
1A7D
  8
SURVEY_LIMIT
  6
BYBLOCK
 10
182820.4517379961
 20
9949765.6686586849
 30
0.0
  0
VERTEX
  5
1A7E
  8
SURVEY_LIMIT
  6
BYBLOCK
 10
182816.42456907031
 20
9949751.0126368403
 30
0.0
  0
VERTEX
  5
1A7F
  8
SURVEY_LIMIT
  6
BYBLOCK
 10
182811.8469238168
 20
9949737.8832839392
 30
0.0
  0
VERTEX
  5
1A80
  8
SURVEY_LIMIT
  6
BYBLOCK
 10
182806.28421565879
 20
9949720.688170597
 30
0.0
  0
VERTEX
  5
1A81
  8
SURVEY_LIMIT
  6
BYBLOCK
 10
182801.7355428412
 20
9949703.5091274492
 30
0.0
  0
VERTEX
  5
1A82
  8
SURVEY_LIMIT
  6
BYBLOCK
 10
182798.056043174
 20
9949696.454309918
 30
0.0
  0
VERTEX
  5
1A83
  8
SURVEY_LIMIT
  6
BYBLOCK
 10
182792.49333501601
 20
9949683.3249570187
 30
0.0
  0
VERTEX
  5
1A84
  8
SURVEY_LIMIT
  6
BYBLOCK
 10
182785.9165915176
 20
9949666.1298436746
 30
0.0
  0
VERTEX
  5
1A85
  8
SURVEY_LIMIT
  6
BYBLOCK
 10
182778.8183441273
 20
9949649.9632230867
 30
0.0
  0
VERTEX
  5
1A86
  8
SURVEY_LIMIT
  6
BYBLOCK
 10
182772.76310451701
 20
9949635.3072012477
 30
0.0
  0
VERTEX
  5
1A87
  8
SURVEY_LIMIT
  6
BYBLOCK
 10
182766.1863610186
 20
9949624.6847994532
 30
0.0
  0
VERTEX
  5
1A88
  8
SURVEY_LIMIT
  6
BYBLOCK
 10
182756.07498004279
 20
9949609.5306014288
 30
0.0
  0
VERTEX
  5
1A89
  8
SURVEY_LIMIT
  6
BYBLOCK
 10
182745.96359906721
 20
9949592.8497344647
 30
0.0
  0
VERTEX
  5
1A8A
  8
SURVEY_LIMIT
  6
BYBLOCK
 10
182728.7539707048
 20
9949564.5501133371
 30
0.0
  0
VERTEX
  5
1A8B
  8
SURVEY_LIMIT
  6
BYBLOCK
 10
182701.4329613632
 20
9949524.1174916755
 30
0.0
  0
VERTEX
  5
1A8C
  8
SURVEY_LIMIT
  6
BYBLOCK
 10
182695.75436345479
 20
9949515.7449178007
 30
0.0
  0
VERTEX
  5
1A8D
  8
SURVEY_LIMIT
  6
BYBLOCK
 10
182689.67015140501
 20
9949504.6243398245
 30
0.0
  0
VERTEX
  5
1A8E
  8
SURVEY_LIMIT
  6
BYBLOCK
 10
182680.08027432091
 20
9949490.9807405416
 30
0.0
  0
VERTEX
  5
1A8F
  8
SURVEY_LIMIT
  6
BYBLOCK
 10
182670.4614247976
 20
9949478.3495638222
 30
0.0
  0
VERTEX
  5
1A90
  8
SURVEY_LIMIT
  6
BYBLOCK
 10
182663.8846812993
 20
9949467.7271620259
 30
0.0
  0
VERTEX
  5
1A91
  8
SURVEY_LIMIT
  6
BYBLOCK
 10
182656.2939024567
 20
9949456.1084078699
 30
0.0
  0
VERTEX
  5
1A92
  8
SURVEY_LIMIT
  6
BYBLOCK
 10
182649.22462750599
 20
9949445.4860060737
 30
0.0
  0
VERTEX
  5
1A93
  8
SURVEY_LIMIT
  6
BYBLOCK
 10
182642.1263801156
 20
9949437.9169421606
 30
0.0
  0
VERTEX
  5
1A94
  8
SURVEY_LIMIT
  6
BYBLOCK
 10
182628.4803616665
 20
9949424.2572726794
 30
0.0
  0
VERTEX
  5
1A95
  8
SURVEY_LIMIT
  6
BYBLOCK
 10
182614.31283932549
 20
9949408.090652097
 30
0.0
  0
VERTEX
  5
1A96
  8
SURVEY_LIMIT
  6
BYBLOCK
 10
182602.6659191213
 20
9949395.4594753757
 30
0.0
  0
VERTEX
  5
1A97
  8
SURVEY_LIMIT
  6
BYBLOCK
 10
182586.99182998759
 20
9949381.3016297147
 30
0.0
  0
VERTEX
  5
1A98
  8
SURVEY_LIMIT
  6
BYBLOCK
 10
182571.8102723062
 20
9949365.1350091323
 30
0.0
  0
VERTEX
  5
1A99
  8
SURVEY_LIMIT
  6
BYBLOCK
 10
182554.10811248791
 20
9949345.4168744832
 30
0.0
  0
VERTEX
  5
1A9A
  8
SURVEY_LIMIT
  6
BYBLOCK
 10
182536.40595267341
 20
9949330.2626764607
 30
0.0
  0
VERTEX
  5
1A9B
  8
SURVEY_LIMIT
  6
BYBLOCK
 10
182517.68975751841
 20
9949311.0427179877
 30
0.0
  0
VERTEX
  5
1A9C
  8
SURVEY_LIMIT
  6
BYBLOCK
 10
182503.5222351772
 20
9949296.3866961468
 30
0.0
  0
VERTEX
  5
1A9D
  8
SURVEY_LIMIT
  6
BYBLOCK
 10
182491.38278352079
 20
9949283.2573432475
 30
0.0
  0
VERTEX
  5
1A9E
  8
SURVEY_LIMIT
  6
BYBLOCK
 10
182483.82097711781
 20
9949275.1579627581
 30
0.0
  0
VERTEX
  5
1A9F
  8
SURVEY_LIMIT
  6
BYBLOCK
 10
182474.0572654008
 20
9949263.587419197
 30
0.0
  0
VERTEX
  5
1AA0
  8
SURVEY_LIMIT
  6
BYBLOCK
 10
182462.93184908479
 20
9949250.9562424794
 30
0.0
  0
VERTEX
  5
1AA1
  8
SURVEY_LIMIT
  6
BYBLOCK
 10
182446.73625606281
 20
9949233.2629529517
 30
0.0
  0
VERTEX
  5
1AA2
  8
SURVEY_LIMIT
  6
BYBLOCK
 10
182429.03409624839
 20
9949212.548465943
 30
0.0
  0
VERTEX
  5
1AA3
  8
SURVEY_LIMIT
  6
BYBLOCK
 10
182411.8244678824
 20
9949193.3445776701
 30
0.0
  0
VERTEX
  5
1AA4
  8
SURVEY_LIMIT
  6
BYBLOCK
 10
182397.1644140929
 20
9949176.1494643297
 30
0.0
  0
VERTEX
  5
1AA5
  8
SURVEY_LIMIT
  6
BYBLOCK
 10
182384.0109270922
 20
9949158.970421182
 30
0.0
  0
VERTEX
  5
1AA6
  8
SURVEY_LIMIT
  6
BYBLOCK
 10
182370.85744009161
 20
9949143.8001529556
 30
0.0
  0
VERTEX
  5
1AA7
  8
SURVEY_LIMIT
  6
BYBLOCK
 10
182361.7600944601
 20
9949127.633532377
 30
0.0
  0
VERTEX
  5
1AA8
  8
SURVEY_LIMIT
  6
BYBLOCK
 10
182350.63467814401
 20
9949108.9278202876
 30
0.0
  0
VERTEX
  5
1AA9
  8
SURVEY_LIMIT
  6
BYBLOCK
 10
182333.94655366981
 20
9949082.6530442871
 30
0.0
  0
VERTEX
  5
1AAA
  8
SURVEY_LIMIT
  6
BYBLOCK
 10
182319.25752744079
 20
9949053.3410006054
 30
0.0
  0
VERTEX
  5
1AAB
  8
SURVEY_LIMIT
  6
BYBLOCK
 10
182304.5974736473
 20
9949028.5768233445
 30
0.0
  0
VERTEX
  5
1AAC
  8
SURVEY_LIMIT
  6
BYBLOCK
 10
182294.3412304818
 20
9949008.4087231122
 30
0.0
  0
VERTEX
  5
1AAD
  8
SURVEY_LIMIT
  6
BYBLOCK
 10
182283.2158141656
 20
9948978.0842568632
 30
0.0
  0
VERTEX
  5
1AAE
  8
SURVEY_LIMIT
  6
BYBLOCK
 10
182270.0623271651
 20
9948946.2491918802
 30
0.0
  0
VERTEX
  5
1AAF
  8
SURVEY_LIMIT
  6
BYBLOCK
 10
182258.93691084901
 20
9948916.4229018129
 30
0.0
  0
VERTEX
  5
1AB0
  8
SURVEY_LIMIT
  6
BYBLOCK
 10
182247.81149453291
 20
9948884.5878368244
 30
0.0
  0
VERTEX
  5
1AB1
  8
SURVEY_LIMIT
  6
BYBLOCK
 10
182240.7132471427
 20
9948852.2385254577
 30
0.0
  0
VERTEX
  5
1AB2
  8
SURVEY_LIMIT
  6
BYBLOCK
 10
182234.1365036442
 20
9948825.4495030809
 30
0.0
  0
VERTEX
  5
1AB3
  8
SURVEY_LIMIT
  6
BYBLOCK
 10
182230.10933471841
 20
9948805.2331922464
 30
0.0
  0
VERTEX
  5
1AB4
  8
SURVEY_LIMIT
  6
BYBLOCK
 10
182227.5597601457
 20
9948779.9547686074
 30
0.0
  0
VERTEX
  5
1AB5
  8
SURVEY_LIMIT
  6
BYBLOCK
 10
182225.53168946129
 20
9948758.7260352187
 30
0.0
  0
VERTEX
  5
1AB6
  8
SURVEY_LIMIT
  6
BYBLOCK
 10
182223.96717779341
 20
9948746.6573154759
 30
0.0
  0
VERTEX
  5
1AB7
  8
SURVEY_LIMIT
  6
BYBLOCK
 10
182222.43163856119
 20
9948732.4994698167
 30
0.0
  0
VERTEX
  5
1AB8
  8
SURVEY_LIMIT
  6
BYBLOCK
 10
182220.9250717684
 20
9948718.8558705356
 30
0.0
  0
VERTEX
  5
1AB9
  8
SURVEY_LIMIT
  6
BYBLOCK
 10
182217.88296574351
 20
9948705.7104474418
 30
0.0
  0
VERTEX
  5
1ABA
  8
SURVEY_LIMIT
  6
BYBLOCK
 10
182212.8417614772
 20
9948689.5438268539
 30
0.0
  0
VERTEX
  5
1ABB
  8
SURVEY_LIMIT
  6
BYBLOCK
 10
182203.7154434062
 20
9948672.3647837043
 30
0.0
  0
VERTEX
  5
1ABC
  8
SURVEY_LIMIT
  6
BYBLOCK
 10
182197.138699904
 20
9948658.206938047
 30
0.0
  0
VERTEX
  5
1ABD
  8
SURVEY_LIMIT
  6
BYBLOCK
 10
182187.027318932
 20
9948644.5633387621
 30
0.0
  0
VERTEX
  5
1ABE
  8
SURVEY_LIMIT
  6
BYBLOCK
 10
182169.3251591138
 20
9948623.8327815533
 30
0.0
  0
VERTEX
  5
1ABF
  8
SURVEY_LIMIT
  6
BYBLOCK
 10
182156.69317600501
 20
9948607.1679847874
 30
0.0
  0
VERTEX
  5
1AC0
  8
SURVEY_LIMIT
  6
BYBLOCK
 10
182145.04625580079
 20
9948598.0561817363
 30
0.0
  0
VERTEX
  5
1AC1
  8
SURVEY_LIMIT
  6
BYBLOCK
 10
182120.27482103181
 20
9948582.38773733
 30
0.0
  0
VERTEX
  5
1AC2
  8
SURVEY_LIMIT
  6
BYBLOCK
 10
182097.0099530592
 20
9948568.2459618747
 30
0.0
  0
VERTEX
  5
1AC3
  8
SURVEY_LIMIT
  6
BYBLOCK
 10
182085.36303285501
 20
9948558.1378064547
 30
0.0
  0
VERTEX
  5
1AC4
  8
SURVEY_LIMIT
  6
BYBLOCK
 10
182062.09816487879
 20
9948538.9339181837
 30
0.0
  0
VERTEX
  5
1AC5
  8
SURVEY_LIMIT
  6
BYBLOCK
 10
182034.2846240885
 20
9948514.1697409302
 30
0.0
  0
VERTEX
  5
1AC6
  8
SURVEY_LIMIT
  6
BYBLOCK
 10
182019.59559785941
 20
9948501.5224940106
 30
0.0
  0
VERTEX
  5
1AC7
  8
SURVEY_LIMIT
  6
BYBLOCK
 10
182011.28050806001
 20
9948495.5443798359
 30
0.0
  0
VERTEX
  5
1AC8
  8
SURVEY_LIMIT
  6
BYBLOCK
 10
182008.26737447441
 20
9948490.9965134114
 30
0.0
  0
VERTEX
  5
1AC9
  8
SURVEY_LIMIT
  6
BYBLOCK
 10
182004.21123310921
 20
9948483.4113793019
 30
0.0
  0
VERTEX
  5
1ACA
  8
SURVEY_LIMIT
  6
BYBLOCK
 10
181997.14195815841
 20
9948463.1950684674
 30
0.0
  0
VERTEX
  5
1ACB
  8
SURVEY_LIMIT
  6
BYBLOCK
 10
181991.0577461085
 20
9948432.3724260442
 30
0.0
  0
VERTEX
  5
1ACC
  8
SURVEY_LIMIT
  6
BYBLOCK
 10
181986.50907329461
 20
9948405.5834036618
 30
0.0
  0
VERTEX
  5
1ACD
  8
SURVEY_LIMIT
  6
BYBLOCK
 10
181983.46696726969
 20
9948383.3422477096
 30
0.0
  0
VERTEX
  5
1ACE
  8
SURVEY_LIMIT
  6
BYBLOCK
 10
181982.9744358173
 20
9948375.2589374203
 30
0.0
  0
VERTEX
  5
1ACF
  8
SURVEY_LIMIT
  6
BYBLOCK
 10
181981.4388965852
 20
9948370.7110709883
 30
0.0
  0
VERTEX
  5
1AD0
  8
SURVEY_LIMIT
  6
BYBLOCK
 10
181975.87618842701
 20
9948361.1010917593
 30
0.0
  0
VERTEX
  5
1AD1
  8
SURVEY_LIMIT
  6
BYBLOCK
 10
181968.80691347641
 20
9948341.8972034883
 30
0.0
  0
VERTEX
  5
1AD2
  8
SURVEY_LIMIT
  6
BYBLOCK
 10
181962.7227014302
 20
9948324.7181603443
 30
0.0
  0
VERTEX
  5
1AD3
  8
SURVEY_LIMIT
  6
BYBLOCK
 10
181959.1880639531
 20
9948314.0957585443
 30
0.0
  0
VERTEX
  5
1AD4
  8
SURVEY_LIMIT
  6
BYBLOCK
 10
181957.1599932721
 20
9948306.0124482531
 30
0.0
  0
VERTEX
  5
1AD5
  8
SURVEY_LIMIT
  6
BYBLOCK
 10
181953.13282434631
 20
9948300.9503354467
 30
0.0
  0
VERTEX
  5
1AD6
  8
SURVEY_LIMIT
  6
BYBLOCK
 10
181947.04861229641
 20
9948297.9291379601
 30
0.0
  0
VERTEX
  5
1AD7
  8
SURVEY_LIMIT
  6
BYBLOCK
 10
181942.44199460361
 20
9948294.5222556908
 30
0.0
  0
VERTEX
  5
1AD8
  8
SURVEY_LIMIT
  6
BYBLOCK
 10
181934.88018820039
 20
9948287.9656143393
 30
0.0
  0
VERTEX
  5
1AD9
  8
SURVEY_LIMIT
  6
BYBLOCK
 10
181926.2753740176
 20
9948278.3556351084
 30
0.0
  0
VERTEX
  5
1ADA
  8
SURVEY_LIMIT
  6
BYBLOCK
 10
181920.19116197131
 20
9948268.2474796921
 30
0.0
  0
VERTEX
  5
1ADB
  8
SURVEY_LIMIT
  6
BYBLOCK
 10
181911.0938163361
 20
9948253.0932816677
 30
0.0
  0
VERTEX
  5
1ADC
  8
SURVEY_LIMIT
  6
BYBLOCK
 10
181898.9543646797
 20
9948232.8609006368
 30
0.0
  0
VERTEX
  5
1ADD
  8
SURVEY_LIMIT
  6
BYBLOCK
 10
181883.28027554601
 20
9948210.6358148847
 30
0.0
  0
VERTEX
  5
1ADE
  8
SURVEY_LIMIT
  6
BYBLOCK
 10
181867.0846825242
 20
9948186.8679899871
 30
0.0
  0
VERTEX
  5
1ADF
  8
SURVEY_LIMIT
  6
BYBLOCK
 10
181856.45179766021
 20
9948170.203193225
 30
0.0
  0
VERTEX
  5
1AE0
  8
SURVEY_LIMIT
  6
BYBLOCK
 10
181846.86192057279
 20
9948153.5223262571
 30
0.0
  0
VERTEX
  5
1AE1
  8
SURVEY_LIMIT
  6
BYBLOCK
 10
181834.72246891621
 20
9948133.3060154282
 30
0.0
  0
VERTEX
  5
1AE2
  8
SURVEY_LIMIT
  6
BYBLOCK
 10
181825.10361939279
 20
9948114.1021271627
 30
0.0
  0
VERTEX
  5
1AE3
  8
SURVEY_LIMIT
  6
BYBLOCK
 10
181820.4680292604
 20
9948104.1707439367
 30
0.0
  0
VERTEX
  5
1AE4
  8
SURVEY_LIMIT
  6
BYBLOCK
 10
181816.41188789529
 20
9948092.0377434026
 30
0.0
  0
VERTEX
  5
1AE5
  8
SURVEY_LIMIT
  6
BYBLOCK
 10
181814.9053211025
 20
9948081.4314118065
 30
0.0
  0
VERTEX
  5
1AE6
  8
SURVEY_LIMIT
  6
BYBLOCK
 10
181814.38381721449
 20
9948068.2859887034
 30
0.0
  0
VERTEX
  5
1AE7
  8
SURVEY_LIMIT
  6
BYBLOCK
 10
181815.9193564429
 20
9948056.1529881675
 30
0.0
  0
VERTEX
  5
1AE8
  8
SURVEY_LIMIT
  6
BYBLOCK
 10
181820.96056071299
 20
9948042.0112127047
 30
0.0
  0
VERTEX
  5
1AE9
  8
SURVEY_LIMIT
  6
BYBLOCK
 10
181826.03073741859
 20
9948031.9030572884
 30
0.0
  0
VERTEX
  5
1AEA
  8
SURVEY_LIMIT
  6
BYBLOCK
 10
181835.6495869419
 20
9948021.2806554921
 30
0.0
  0
VERTEX
  5
1AEB
  8
SURVEY_LIMIT
  6
BYBLOCK
 10
181842.71886189279
 20
9948008.1352323927
 30
0.0
  0
VERTEX
  5
1AEC
  8
SURVEY_LIMIT
  6
BYBLOCK
 10
181846.25349937001
 20
9947996.0183020532
 30
0.0
  0
VERTEX
  5
1AED
  8
SURVEY_LIMIT
  6
BYBLOCK
 10
181849.7881368435
 20
9947983.8853015155
 30
0.0
  0
VERTEX
  5
1AEE
  8
SURVEY_LIMIT
  6
BYBLOCK
 10
181852.83024286851
 20
9947968.7150332928
 30
0.0
  0
VERTEX
  5
1AEF
  8
SURVEY_LIMIT
  6
BYBLOCK
 10
181853.35174676031
 20
9947953.5608352721
 30
0.0
  0
VERTEX
  5
1AF0
  8
SURVEY_LIMIT
  6
BYBLOCK
 10
181851.3236760757
 20
9947943.9508560356
 30
0.0
  0
VERTEX
  5
1AF1
  8
SURVEY_LIMIT
  6
BYBLOCK
 10
181846.74603082231
 20
9947939.1137260217
 30
0.0
  0
VERTEX
  5
1AF2
  8
SURVEY_LIMIT
  6
BYBLOCK
 10
181837.6486851871
 20
9947926.9807254802
 30
0.0
  0
VERTEX
  5
1AF3
  8
SURVEY_LIMIT
  6
BYBLOCK
 10
181824.98772963879
 20
9947911.3122810796
 30
0.0
  0
VERTEX
  5
1AF4
  8
SURVEY_LIMIT
  6
BYBLOCK
 10
181806.27153448371
 20
9947890.5977940671
 30
0.0
  0
VERTEX
  5
1AF5
  8
SURVEY_LIMIT
  6
BYBLOCK
 10
181797.1741888485
 20
9947878.979039913
 30
0.0
  0
VERTEX
  5
1AF6
  8
SURVEY_LIMIT
  6
BYBLOCK
 10
181788.56937466559
 20
9947872.4063283596
 30
0.0
  0
VERTEX
  5
1AF7
  8
SURVEY_LIMIT
  6
BYBLOCK
 10
181772.8952855356
 20
9947863.3105955087
 30
0.0
  0
VERTEX
  5
1AF8
  8
SURVEY_LIMIT
  6
BYBLOCK
 10
181749.1089136712
 20
9947847.1279047243
 30
0.0
  0
VERTEX
  5
1AF9
  8
SURVEY_LIMIT
  6
BYBLOCK
 10
181723.81597501389
 20
9947836.0073267445
 30
0.0
  0
VERTEX
  5
1AFA
  8
SURVEY_LIMIT
  6
BYBLOCK
 10
181699.5370716973
 20
9947826.9115938917
 30
0.0
  0
VERTEX
  5
1AFB
  8
SURVEY_LIMIT
  6
BYBLOCK
 10
181675.7796722725
 20
9947815.2928397357
 30
0.0
  0
VERTEX
  5
1AFC
  8
SURVEY_LIMIT
  6
BYBLOCK
 10
181666.0449329986
 20
9947809.4914977588
 30
0.0
  0
VERTEX
  5
1AFD
  8
SURVEY_LIMIT
  6
BYBLOCK
 10
181658.45415415609
 20
9947805.4418075047
 30
0.0
  0
VERTEX
  5
1AFE
  8
SURVEY_LIMIT
  6
BYBLOCK
 10
181649.84933997309
 20
9947796.8442508392
 30
0.0
  0
VERTEX
  5
1AFF
  8
SURVEY_LIMIT
  6
BYBLOCK
 10
181640.75199434161
 20
9947786.736095421
 30
0.0
  0
VERTEX
  5
1B00
  8
SURVEY_LIMIT
  6
BYBLOCK
 10
181635.71079007161
 20
9947773.0924961418
 30
0.0
  0
VERTEX
  5
1B01
  8
SURVEY_LIMIT
  6
BYBLOCK
 10
181626.09194054821
 20
9947746.3034737632
 30
0.0
  0
VERTEX
  5
1B02
  8
SURVEY_LIMIT
  6
BYBLOCK
 10
181620.0077285021
 20
9947720.5268739443
 30
0.0
  0
VERTEX
  5
1B03
  8
SURVEY_LIMIT
  6
BYBLOCK
 10
181615.45905568451
 20
9947696.276943069
 30
0.0
  0
VERTEX
  5
1B04
  8
SURVEY_LIMIT
  6
BYBLOCK
 10
181613.95248889169
 20
9947671.4966956098
 30
0.0
  0
VERTEX
  5
1B05
  8
SURVEY_LIMIT
  6
BYBLOCK
 10
181609.8963475264
 20
9947648.2591872923
 30
0.0
  0
VERTEX
  5
1B06
  8
SURVEY_LIMIT
  6
BYBLOCK
 10
181606.85424150131
 20
9947629.5534752067
 30
0.0
  0
VERTEX
  5
1B07
  8
SURVEY_LIMIT
  6
BYBLOCK
 10
181603.84110791609
 20
9947615.3956295457
 30
0.0
  0
VERTEX
  5
1B08
  8
SURVEY_LIMIT
  6
BYBLOCK
 10
181599.2055177837
 20
9947603.4554714002
 30
0.0
  0
VERTEX
  5
1B09
  8
SURVEY_LIMIT
  6
BYBLOCK
 10
181595.67088031021
 20
9947593.3473159857
 30
0.0
  0
VERTEX
  5
1B0A
  8
SURVEY_LIMIT
  6
BYBLOCK
 10
181594.16431351751
 20
9947586.2764282525
 30
0.0
  0
VERTEX
  5
1B0B
  8
SURVEY_LIMIT
  6
BYBLOCK
 10
181592.1362428329
 20
9947574.6416038983
 30
0.0
  0
VERTEX
  5
1B0C
  8
SURVEY_LIMIT
  6
BYBLOCK
 10
181589.61564069969
 20
9947552.9146943241
 30
0.0
  0
VERTEX
  5
1B0D
  8
SURVEY_LIMIT
  6
BYBLOCK
 10
181586.57353467491
 20
9947534.7232286166
 30
0.0
  0
VERTEX
  5
1B0E
  8
SURVEY_LIMIT
  6
BYBLOCK
 10
181583.53142864991
 20
9947517.5281152725
 30
0.0
  0
VERTEX
  5
1B0F
  8
SURVEY_LIMIT
  6
BYBLOCK
 10
181578.9827558361
 20
9947494.7887831368
 30
0.0
  0
VERTEX
  5
1B10
  8
SURVEY_LIMIT
  6
BYBLOCK
 10
181576.95468515149
 20
9947482.6557826009
 30
0.0
  0
VERTEX
  5
1B11
  8
SURVEY_LIMIT
  6
BYBLOCK
 10
181575.44811835879
 20
9947475.5848948713
 30
0.0
  0
VERTEX
  5
1B12
  8
SURVEY_LIMIT
  6
BYBLOCK
 10
181573.420047678
 20
9947470.5388522595
 30
0.0
  0
VERTEX
  5
1B13
  8
SURVEY_LIMIT
  6
BYBLOCK
 10
181570.3779416529
 20
9947464.9785632733
 30
0.0
  0
VERTEX
  5
1B14
  8
SURVEY_LIMIT
  6
BYBLOCK
 10
181561.59929284081
 20
9947453.0544753261
 30
0.0
  0
VERTEX
  5
1B15
  8
SURVEY_LIMIT
  6
BYBLOCK
 10
181549.9523726328
 20
9947434.8630096167
 30
0.0
  0
VERTEX
  5
1B16
  8
SURVEY_LIMIT
  6
BYBLOCK
 10
181534.77081495131
 20
9947417.6678962745
 30
0.0
  0
VERTEX
  5
1B17
  8
SURVEY_LIMIT
  6
BYBLOCK
 10
181529.20810679341
 20
9947409.0864097998
 30
0.0
  0
VERTEX
  5
1B18
  8
SURVEY_LIMIT
  6
BYBLOCK
 10
181522.1388318426
 20
9947404.5385433733
 30
0.0
  0
VERTEX
  5
1B19
  8
SURVEY_LIMIT
  6
BYBLOCK
 10
181501.3945660032
 20
9947388.3558525927
 30
0.0
  0
VERTEX
  5
1B1A
  8
SURVEY_LIMIT
  6
BYBLOCK
 10
181487.2270436658
 20
9947376.2389222495
 30
0.0
  0
VERTEX
  5
1B1B
  8
SURVEY_LIMIT
  6
BYBLOCK
 10
181480.1577687113
 20
9947371.674985623
 30
0.0
  0
VERTEX
  5
1B1C
  8
SURVEY_LIMIT
  6
BYBLOCK
 10
181463.46964423719
 20
9947367.1271191966
 30
0.0
  0
VERTEX
  5
1B1D
  8
SURVEY_LIMIT
  6
BYBLOCK
 10
181442.20387450981
 20
9947360.570477847
 30
0.0
  0
VERTEX
  5
1B1E
  8
SURVEY_LIMIT
  6
BYBLOCK
 10
181426.0372539236
 20
9947360.570477847
 30
0.0
  0
VERTEX
  5
1B1F
  8
SURVEY_LIMIT
  6
BYBLOCK
 10
181409.34912944961
 20
9947359.0438089035
 30
0.0
  0
VERTEX
  5
1B20
  8
SURVEY_LIMIT
  6
BYBLOCK
 10
181393.64606788001
 20
9947353.9977662954
 30
0.0
  0
VERTEX
  5
1B21
  8
SURVEY_LIMIT
  6
BYBLOCK
 10
181378.4934826344
 20
9947346.4126321878
 30
0.0
  0
VERTEX
  5
1B22
  8
SURVEY_LIMIT
  6
BYBLOCK
 10
181365.83252708981
 20
9947341.3505193759
 30
0.0
  0
VERTEX
  5
1B23
  8
SURVEY_LIMIT
  6
BYBLOCK
 10
181354.2145793213
 20
9947332.7690329067
 30
0.0
  0
VERTEX
  5
1B24
  8
SURVEY_LIMIT
  6
BYBLOCK
 10
181343.494777143
 20
9947321.407401938
 30
0.0
  0
VERTEX
  5
1B25
  8
SURVEY_LIMIT
  6
BYBLOCK
 10
181335.9039983004
 20
9947313.3240916468
 30
0.0
  0
VERTEX
  5
1B26
  8
SURVEY_LIMIT
  6
BYBLOCK
 10
181327.2991841172
 20
9947299.6804923657
 30
0.0
  0
VERTEX
  5
1B27
  8
SURVEY_LIMIT
  6
BYBLOCK
 10
181316.695271693
 20
9947282.9996253997
 30
0.0
  0
VERTEX
  5
1B28
  8
SURVEY_LIMIT
  6
BYBLOCK
 10
181307.0764221698
 20
9947266.3187584355
 30
0.0
  0
VERTEX
  5
1B29
  8
SURVEY_LIMIT
  6
BYBLOCK
 10
181299.485643327
 20
9947251.1645604111
 30
0.0
  0
VERTEX
  5
1B2A
  8
SURVEY_LIMIT
  6
BYBLOCK
 10
181290.38829769549
 20
9947233.4712708872
 30
0.0
  0
VERTEX
  5
1B2B
  8
SURVEY_LIMIT
  6
BYBLOCK
 10
181287.8387231229
 20
9947222.3506929092
 30
0.0
  0
VERTEX
  5
1B2C
  8
SURVEY_LIMIT
  6
BYBLOCK
 10
181285.31812098611
 20
9947201.6362058967
 30
0.0
  0
VERTEX
  5
1B2D
  8
SURVEY_LIMIT
  6
BYBLOCK
 10
181282.276014965
 20
9947176.3577822614
 30
0.0
  0
VERTEX
  5
1B2E
  8
SURVEY_LIMIT
  6
BYBLOCK
 10
181278.24884603531
 20
9947143.5102947075
 30
0.0
  0
VERTEX
  5
1B2F
  8
SURVEY_LIMIT
  6
BYBLOCK
 10
181275.6992714628
 20
9947119.7585400157
 30
0.0
  0
VERTEX
  5
1B30
  8
SURVEY_LIMIT
  6
BYBLOCK
 10
181273.70017322141
 20
9947105.1025181767
 30
0.0
  0
VERTEX
  5
1B31
  8
SURVEY_LIMIT
  6
BYBLOCK
 10
181272.16463398919
 20
9947096.5049614981
 30
0.0
  0
VERTEX
  5
1B32
  8
SURVEY_LIMIT
  6
BYBLOCK
 10
181262.57475690541
 20
9947078.3134957924
 30
0.0
  0
VERTEX
  5
1B33
  8
SURVEY_LIMIT
  6
BYBLOCK
 10
181257.50458019599
 20
9947065.168072693
 30
0.0
  0
VERTEX
  5
1B34
  8
SURVEY_LIMIT
  6
BYBLOCK
 10
181251.3044783957
 20
9947056.1205504406
 30
0.0
  0
VERTEX
  5
1B35
  8
SURVEY_LIMIT
  6
BYBLOCK
 10
181246.755805578
 20
9947046.0123950224
 30
0.0
  0
VERTEX
  5
1B36
  8
SURVEY_LIMIT
  6
BYBLOCK
 10
181243.2211681045
 20
9947035.4060634244
 30
0.0
  0
VERTEX
  5
1B37
  8
SURVEY_LIMIT
  6
BYBLOCK
 10
181240.70056596759
 20
9947028.3191054966
 30
0.0
  0
VERTEX
  5
1B38
  8
SURVEY_LIMIT
  6
BYBLOCK
 10
181242.20713276041
 20
9947015.6879287753
 30
0.0
  0
VERTEX
  5
1B39
  8
SURVEY_LIMIT
  6
BYBLOCK
 10
181243.2211681045
 20
9946991.9361740816
 30
0.0
  0
VERTEX
  5
1B3A
  8
SURVEY_LIMIT
  6
BYBLOCK
 10
181244.23520344481
 20
9946973.7447083741
 30
0.0
  0
VERTEX
  5
1B3B
  8
SURVEY_LIMIT
  6
BYBLOCK
 10
181240.17906207961
 20
9946950.4911298584
 30
0.0
  0
VERTEX
  5
1B3C
  8
SURVEY_LIMIT
  6
BYBLOCK
 10
181237.65845994651
 20
9946932.2996641546
 30
0.0
  0
VERTEX
  5
1B3D
  8
SURVEY_LIMIT
  6
BYBLOCK
 10
181233.10978712881
 20
9946920.1666636132
 30
0.0
  0
VERTEX
  5
1B3E
  8
SURVEY_LIMIT
  6
BYBLOCK
 10
181226.53304363039
 20
9946900.9627753459
 30
0.0
  0
VERTEX
  5
1B3F
  8
SURVEY_LIMIT
  6
BYBLOCK
 10
181218.94226478771
 20
9946884.281908378
 30
0.0
  0
VERTEX
  5
1B40
  8
SURVEY_LIMIT
  6
BYBLOCK
 10
181210.33745060489
 20
9946873.6595065836
 30
0.0
  0
VERTEX
  5
1B41
  8
SURVEY_LIMIT
  6
BYBLOCK
 10
181199.70456574109
 20
9946861.0283298641
 30
0.0
  0
VERTEX
  5
1B42
  8
SURVEY_LIMIT
  6
BYBLOCK
 10
181190.60722010949
 20
9946850.9201744515
 30
0.0
  0
VERTEX
  5
1B43
  8
SURVEY_LIMIT
  6
BYBLOCK
 10
181183.0164412669
 20
9946838.2889977284
 30
0.0
  0
VERTEX
  5
1B44
  8
SURVEY_LIMIT
  6
BYBLOCK
 10
181173.33964686841
 20
9946817.6870021168
 30
0.0
  0
VERTEX
  5
1B45
  8
SURVEY_LIMIT
  6
BYBLOCK
 10
181161.72169909999
 20
9946796.4582687244
 30
0.0
  0
VERTEX
  5
1B46
  8
SURVEY_LIMIT
  6
BYBLOCK
 10
181155.63748705009
 20
9946785.8358669281
 30
0.0
  0
VERTEX
  5
1B47
  8
SURVEY_LIMIT
  6
BYBLOCK
 10
181147.5541767588
 20
9946771.1798450854
 30
0.0
  0
VERTEX
  5
1B48
  8
SURVEY_LIMIT
  6
BYBLOCK
 10
181139.9633979201
 20
9946758.0504921898
 30
0.0
  0
VERTEX
  5
1B49
  8
SURVEY_LIMIT
  6
BYBLOCK
 10
181131.85111518949
 20
9946740.8553788383
 30
0.0
  0
VERTEX
  5
1B4A
  8
SURVEY_LIMIT
  6
BYBLOCK
 10
181125.30334412679
 20
9946727.7099557407
 30
0.0
  0
VERTEX
  5
1B4B
  8
SURVEY_LIMIT
  6
BYBLOCK
 10
181118.72660062829
 20
9946721.1533143874
 30
0.0
  0
VERTEX
  5
1B4C
  8
SURVEY_LIMIT
  6
BYBLOCK
 10
181106.58714896801
 20
9946710.530912593
 30
0.0
  0
VERTEX
  5
1B4D
  8
SURVEY_LIMIT
  6
BYBLOCK
 10
181090.8840873985
 20
9946695.8748907521
 30
0.0
  0
VERTEX
  5
1B4E
  8
SURVEY_LIMIT
  6
BYBLOCK
 10
181080.28017497039
 20
9946688.2897566408
 30
0.0
  0
VERTEX
  5
1B4F
  8
SURVEY_LIMIT
  6
BYBLOCK
 10
181070.05290424451
 20
9946681.95809808
 30
0.0
  0
VERTEX
  5
1B50
  8
SURVEY_LIMIT
  6
BYBLOCK
 10
181053.33580733079
 20
9946670.3232737277
 30
0.0
  0
VERTEX
  5
1B51
  8
SURVEY_LIMIT
  6
BYBLOCK
 10
181039.6897888816
 20
9946660.7293646894
 30
0.0
  0
VERTEX
  5
1B52
  8
SURVEY_LIMIT
  6
BYBLOCK
 10
181024.50823120031
 20
9946650.6212092768
 30
0.0
  0
VERTEX
  5
1B53
  8
SURVEY_LIMIT
  6
BYBLOCK
 10
181005.7920360415
 20
9946637.9900325555
 30
0.0
  0
VERTEX
  5
1B54
  8
SURVEY_LIMIT
  6
BYBLOCK
 10
180990.63945079959
 20
9946626.8694545757
 30
0.0
  0
VERTEX
  5
1B55
  8
SURVEY_LIMIT
  6
BYBLOCK
 10
180982.03463661671
 20
9946620.7949192133
 30
0.0
  0
VERTEX
  5
1B56
  8
SURVEY_LIMIT
  6
BYBLOCK
 10
180974.44385777781
 20
9946614.2222076617
 30
0.0
  0
VERTEX
  5
1B57
  8
SURVEY_LIMIT
  6
BYBLOCK
 10
180964.8250082545
 20
9946605.1264748033
 30
0.0
  0
VERTEX
  5
1B58
  8
SURVEY_LIMIT
  6
BYBLOCK
 10
180952.1930251419
 20
9946594.5201432128
 30
0.0
  0
VERTEX
  5
1B59
  8
SURVEY_LIMIT
  6
BYBLOCK
 10
180937.0114674604
 20
9946580.3622975517
 30
0.0
  0
VERTEX
  5
1B5A
  8
SURVEY_LIMIT
  6
BYBLOCK
 10
180921.3373783305
 20
9946566.7186982725
 30
0.0
  0
VERTEX
  5
1B5B
  8
SURVEY_LIMIT
  6
BYBLOCK
 10
180908.67642278221
 20
9946551.5484300498
 30
0.0
  0
VERTEX
  5
1B5C
  8
SURVEY_LIMIT
  6
BYBLOCK
 10
180894.5089004412
 20
9946537.9048307668
 30
0.0
  0
VERTEX
  5
1B5D
  8
SURVEY_LIMIT
  6
BYBLOCK
 10
180878.8348113074
 20
9946518.2027663179
 30
0.0
  0
VERTEX
  5
1B5E
  8
SURVEY_LIMIT
  6
BYBLOCK
 10
180865.5654345564
 20
9946502.7753749061
 30
0.0
  0
VERTEX
  5
1B5F
  8
SURVEY_LIMIT
  6
BYBLOCK
 10
180858.98869105801
 20
9946493.6796420533
 30
0.0
  0
VERTEX
  5
1B60
  8
SURVEY_LIMIT
  6
BYBLOCK
 10
180851.3979122153
 20
9946481.0484653302
 30
0.0
  0
VERTEX
  5
1B61
  8
SURVEY_LIMIT
  6
BYBLOCK
 10
180846.35670794919
 20
9946471.4384860955
 30
0.0
  0
VERTEX
  5
1B62
  8
SURVEY_LIMIT
  6
BYBLOCK
 10
180836.73785842559
 20
9946457.2806404345
 30
0.0
  0
VERTEX
  5
1B63
  8
SURVEY_LIMIT
  6
BYBLOCK
 10
180827.1190089024
 20
9946442.1264424138
 30
0.0
  0
VERTEX
  5
1B64
  8
SURVEY_LIMIT
  6
BYBLOCK
 10
180821.063769292
 20
9946429.993441876
 30
0.0
  0
VERTEX
  5
1B65
  8
SURVEY_LIMIT
  6
BYBLOCK
 10
180812.9804590008
 20
9946415.3374200333
 30
0.0
  0
VERTEX
  5
1B66
  8
SURVEY_LIMIT
  6
BYBLOCK
 10
180803.36160947749
 20
9946396.631707944
 30
0.0
  0
VERTEX
  5
1B67
  8
SURVEY_LIMIT
  6
BYBLOCK
 10
180793.7427599504
 20
9946374.9047983717
 30
0.0
  0
VERTEX
  5
1B68
  8
SURVEY_LIMIT
  6
BYBLOCK
 10
180790.20812247679
 20
9946367.3196642585
 30
0.0
  0
VERTEX
  5
1B69
  8
SURVEY_LIMIT
  6
BYBLOCK
 10
180787.68752034361
 20
9946359.2363539673
 30
0.0
  0
VERTEX
  5
1B6A
  8
SURVEY_LIMIT
  6
BYBLOCK
 10
180786.5865676848
 20
9946348.3568289857
 30
0.0
  0
VERTEX
  5
1B6B
  8
SURVEY_LIMIT
  6
BYBLOCK
 10
180785.08000089231
 20
9946331.6759620178
 30
0.0
  0
VERTEX
  5
1B6C
  8
SURVEY_LIMIT
  6
BYBLOCK
 10
180783.5734340995
 20
9946311.9578273669
 30
0.0
  0
VERTEX
  5
1B6D
  8
SURVEY_LIMIT
  6
BYBLOCK
 10
180785.08000089231
 20
9946286.6954739261
 30
0.0
  0
VERTEX
  5
1B6E
  8
SURVEY_LIMIT
  6
BYBLOCK
 10
180787.6006030291
 20
9946259.9064515494
 30
0.0
  0
VERTEX
  5
1B6F
  8
SURVEY_LIMIT
  6
BYBLOCK
 10
180793.16331118721
 20
9946231.0925840475
 30
0.0
  0
VERTEX
  5
1B70
  8
SURVEY_LIMIT
  6
BYBLOCK
 10
180797.71198400101
 20
9946204.3035616688
 30
0.0
  0
VERTEX
  5
1B71
  8
SURVEY_LIMIT
  6
BYBLOCK
 10
180802.7821607104
 20
9946182.5766520966
 30
0.0
  0
VERTEX
  5
1B72
  8
SURVEY_LIMIT
  6
BYBLOCK
 10
180804.81023139131
 20
9946172.4684966803
 30
0.0
  0
VERTEX
  5
1B73
  8
SURVEY_LIMIT
  6
BYBLOCK
 10
180806.31679818381
 20
9946158.3106510211
 30
0.0
  0
VERTEX
  5
1B74
  8
SURVEY_LIMIT
  6
BYBLOCK
 10
180804.81023139131
 20
9946150.2273407243
 30
0.0
  0
VERTEX
  5
1B75
  8
SURVEY_LIMIT
  6
BYBLOCK
 10
180801.2755939177
 20
9946127.9861847721
 30
0.0
  0
VERTEX
  5
1B76
  8
SURVEY_LIMIT
  6
BYBLOCK
 10
180799.24752323329
 20
9946110.8071416244
 30
0.0
  0
VERTEX
  5
1B77
  8
SURVEY_LIMIT
  6
BYBLOCK
 10
180795.191381868
 20
9946098.6741410866
 30
0.0
  0
VERTEX
  5
1B78
  8
SURVEY_LIMIT
  6
BYBLOCK
 10
180790.584764175
 20
9946084.0824000444
 30
0.0
  0
VERTEX
  5
1B79
  8
SURVEY_LIMIT
  6
BYBLOCK
 10
180786.03609135741
 20
9946068.4139556438
 30
0.0
  0
VERTEX
  5
1B7A
  8
SURVEY_LIMIT
  6
BYBLOCK
 10
180780.47338319931
 20
9946054.2561099827
 30
0.0
  0
VERTEX
  5
1B7B
  8
SURVEY_LIMIT
  6
BYBLOCK
 10
180776.4172418341
 20
9946038.0894893929
 30
0.0
  0
VERTEX
  5
1B7C
  8
SURVEY_LIMIT
  6
BYBLOCK
 10
180771.34706512839
 20
9946015.8483334407
 30
0.0
  0
VERTEX
  5
1B7D
  8
SURVEY_LIMIT
  6
BYBLOCK
 10
180767.81242765111
 20
9946000.1798890382
 30
0.0
  0
VERTEX
  5
1B7E
  8
SURVEY_LIMIT
  6
BYBLOCK
 10
180765.78435697031
 20
9945989.5735574402
 30
0.0
  0
VERTEX
  5
1B7F
  8
SURVEY_LIMIT
  6
BYBLOCK
 10
180764.7703216298
 20
9945973.3908666577
 30
0.0
  0
VERTEX
  5
1B80
  8
SURVEY_LIMIT
  6
BYBLOCK
 10
180763.26375483719
 20
9945949.6391119622
 30
0.0
  0
VERTEX
  5
1B81
  8
SURVEY_LIMIT
  6
BYBLOCK
 10
180763.26375483719
 20
9945929.4228011277
 30
0.0
  0
VERTEX
  5
1B82
  8
SURVEY_LIMIT
  6
BYBLOCK
 10
180766.2189435437
 20
9945894.4701174647
 30
0.0
  0
VERTEX
  5
1B83
  8
SURVEY_LIMIT
  6
BYBLOCK
 10
180768.0442071594
 20
9945861.6065597124
 30
0.0
  0
VERTEX
  5
1B84
  8
SURVEY_LIMIT
  6
BYBLOCK
 10
180772.59287997699
 20
9945831.4749358594
 30
0.0
  0
VERTEX
  5
1B85
  8
SURVEY_LIMIT
  6
BYBLOCK
 10
180780.8210524618
 20
9945796.7793753855
 30
0.0
  0
VERTEX
  5
1B86
  8
SURVEY_LIMIT
  6
BYBLOCK
 10
180792.6997521742
 20
9945762.999816265
 30
0.0
  0
VERTEX
  5
1B87
  8
SURVEY_LIMIT
  6
BYBLOCK
 10
180810.05424273
 20
9945725.5723218918
 30
0.0
  0
VERTEX
  5
1B88
  8
SURVEY_LIMIT
  6
BYBLOCK
 10
180825.61244210959
 20
9945689.0608288832
 30
0.0
  0
VERTEX
  5
1B89
  8
SURVEY_LIMIT
  6
BYBLOCK
 10
180842.03981463611
 20
9945646.1533965152
 30
0.0
  0
VERTEX
  5
1B8A
  8
SURVEY_LIMIT
  6
BYBLOCK
 10
180844.7921962775
 20
9945607.8099007756
 30
0.0
  0
VERTEX
  5
1B8B
  8
SURVEY_LIMIT
  6
BYBLOCK
 10
180840.21455102399
 20
9945567.634402303
 30
0.0
  0
VERTEX
  5
1B8C
  8
SURVEY_LIMIT
  6
BYBLOCK
 10
180830.1611149236
 20
9945535.6868459191
 30
0.0
  0
VERTEX
  5
1B8D
  8
SURVEY_LIMIT
  6
BYBLOCK
 10
180825.55449723071
 20
9945520.2755247075
 30
0.0
  0
VERTEX
  5
1B8E
  8
SURVEY_LIMIT
  6
BYBLOCK
 10
180825.55449723071
 20
9945496.5398402102
 30
0.0
  0
VERTEX
  5
1B8F
  8
SURVEY_LIMIT
  6
BYBLOCK
 10
180830.13214248791
 20
9945458.1963444725
 30
0.0
  0
VERTEX
  5
1B90
  8
SURVEY_LIMIT
  6
BYBLOCK
 10
180839.25846055881
 20
9945425.332786724
 30
0.0
  0
VERTEX
  5
1B91
  8
SURVEY_LIMIT
  6
BYBLOCK
 10
180845.66136942801
 20
9945395.2011628672
 30
0.0
  0
VERTEX
  5
1B92
  8
SURVEY_LIMIT
  6
BYBLOCK
 10
180850.2390146814
 20
9945365.0856092162
 30
0.0
  0
VERTEX
  5
1B93
  8
SURVEY_LIMIT
  6
BYBLOCK
 10
180840.18557858461
 20
9945344.0818586182
 30
0.0
  0
VERTEX
  5
1B94
  8
SURVEY_LIMIT
  6
BYBLOCK
 10
180818.2534427754
 20
9945313.0342334006
 30
0.0
  0
VERTEX
  5
1B95
  8
SURVEY_LIMIT
  6
BYBLOCK
 10
180794.4960433504
 20
9945290.2145502698
 30
0.0
  0
VERTEX
  5
1B96
  8
SURVEY_LIMIT
  6
BYBLOCK
 10
180768.91338030991
 20
9945270.1268010326
 30
0.0
  0
VERTEX
  5
1B97
  8
SURVEY_LIMIT
  6
BYBLOCK
 10
180747.9083625226
 20
9945256.4349911511
 30
0.0
  0
VERTEX
  5
1B98
  8
SURVEY_LIMIT
  6
BYBLOCK
 10
180731.45201755691
 20
9945248.2231192645
 30
0.0
  0
VERTEX
  5
1B99
  8
SURVEY_LIMIT
  6
BYBLOCK
 10
180718.67517225441
 20
9945244.5751840025
 30
0.0
  0
VERTEX
  5
1B9A
  8
SURVEY_LIMIT
  6
BYBLOCK
 10
180711.34514535961
 20
9945240.011247376
 30
0.0
  0
VERTEX
  5
1B9B
  8
SURVEY_LIMIT
  6
BYBLOCK
 10
180707.69461813191
 20
9945226.3033673
 30
0.0
  0
VERTEX
  5
1B9C
  8
SURVEY_LIMIT
  6
BYBLOCK
 10
180703.11697287459
 20
9945218.0914954115
 30
0.0
  0
VERTEX
  5
1B9D
  8
SURVEY_LIMIT
  6
BYBLOCK
 10
180691.2672456018
 20
9945208.0476207957
 30
0.0
  0
VERTEX
  5
1B9E
  8
SURVEY_LIMIT
  6
BYBLOCK
 10
180671.16037340451
 20
9945187.059940394
 30
0.0
  0
VERTEX
  5
1B9F
  8
SURVEY_LIMIT
  6
BYBLOCK
 10
180661.10693730789
 20
9945166.9721911587
 30
0.0
  0
VERTEX
  5
1BA0
  8
SURVEY_LIMIT
  6
BYBLOCK
 10
180648.3011195696
 20
9945156.9283165429
 30
0.0
  0
VERTEX
  5
1BA1
  8
SURVEY_LIMIT
  6
BYBLOCK
 10
180638.24768346921
 20
9945145.9684405606
 30
0.0
  0
VERTEX
  5
1BA2
  8
SURVEY_LIMIT
  6
BYBLOCK
 10
180633.69901065141
 20
9945131.3606293127
 30
0.0
  0
VERTEX
  5
1BA3
  8
SURVEY_LIMIT
  6
BYBLOCK
 10
180630.9466290136
 20
9945122.2327560633
 30
0.0
  0
VERTEX
  5
1BA4
  8
SURVEY_LIMIT
  6
BYBLOCK
 10
180622.71845652891
 20
9945116.7528180722
 30
0.0
  0
VERTEX
  5
1BA5
  8
SURVEY_LIMIT
  6
BYBLOCK
 10
180617.2426656856
 20
9945109.4569475446
 30
0.0
  0
VERTEX
  5
1BA6
  8
SURVEY_LIMIT
  6
BYBLOCK
 10
180615.41740206981
 20
9945097.5810701996
 30
0.0
  0
VERTEX
  5
1BA7
  8
SURVEY_LIMIT
  6
BYBLOCK
 10
180611.7668748422
 20
9945087.5371955838
 30
0.0
  0
VERTEX
  5
1BA8
  8
SURVEY_LIMIT
  6
BYBLOCK
 10
180598.9610571042
 20
9945086.6211942155
 30
0.0
  0
VERTEX
  5
1BA9
  8
SURVEY_LIMIT
  6
BYBLOCK
 10
180591.66000264511
 20
9945076.5773195997
 30
0.0
  0
VERTEX
  5
1BAA
  8
SURVEY_LIMIT
  6
BYBLOCK
 10
180588.9076210036
 20
9945062.8855097219
 30
0.0
  0
VERTEX
  5
1BAB
  8
SURVEY_LIMIT
  6
BYBLOCK
 10
180593.31143163139
 20
9945049.2901210394
 30
0.0
  0
VERTEX
  5
1BAC
  8
SURVEY_LIMIT
  6
BYBLOCK
 10
180592.38431360191
 20
9945037.4142436925
 30
0.0
  0
VERTEX
  5
1BAD
  8
SURVEY_LIMIT
  6
BYBLOCK
 10
180586.9085227623
 20
9945020.9904999156
 30
0.0
  0
VERTEX
  5
1BAE
  8
SURVEY_LIMIT
  6
BYBLOCK
 10
180583.2579955309
 20
9945003.6346845757
 30
0.0
  0
VERTEX
  5
1BAF
  8
SURVEY_LIMIT
  6
BYBLOCK
 10
180576.8550866617
 20
9944978.0830675531
 30
0.0
  0
VERTEX
  5
1BB0
  8
SURVEY_LIMIT
  6
BYBLOCK
 10
180567.72876859081
 20
9944952.5153803229
 30
0.0
  0
VERTEX
  5
1BB1
  8
SURVEY_LIMIT
  6
BYBLOCK
 10
180561.3258597216
 20
9944932.4276310876
 30
0.0
  0
VERTEX
  5
1BB2
  8
SURVEY_LIMIT
  6
BYBLOCK
 10
180552.19954165071
 20
9944915.0878859442
 30
0.0
  0
VERTEX
  5
1BB3
  8
SURVEY_LIMIT
  6
BYBLOCK
 10
180541.21898752439
 20
9944902.2960072346
 30
0.0
  0
VERTEX
  5
1BB4
  8
SURVEY_LIMIT
  6
BYBLOCK
 10
180531.16555142769
 20
9944893.1681339815
 30
0.0
  0
VERTEX
  5
1BB5
  8
SURVEY_LIMIT
  6
BYBLOCK
 10
180521.1121153273
 20
9944879.4763241056
 30
0.0
  0
VERTEX
  5
1BB6
  8
SURVEY_LIMIT
  6
BYBLOCK
 10
180518.3887061252
 20
9944872.1804535817
 30
0.0
  0
VERTEX
  5
1BB7
  8
SURVEY_LIMIT
  6
BYBLOCK
 10
180520.2139697409
 20
9944863.9525114913
 30
0.0
  0
VERTEX
  5
1BB8
  8
SURVEY_LIMIT
  6
BYBLOCK
 10
180524.79161499441
 20
9944855.7406396084
 30
0.0
  0
VERTEX
  5
1BB9
  8
SURVEY_LIMIT
  6
BYBLOCK
 10
180525.6897605843
 20
9944845.6967649926
 30
0.0
  0
VERTEX
  5
1BBA
  8
SURVEY_LIMIT
  6
BYBLOCK
 10
180519.19993439681
 20
9944831.635340523
 30
0.0
  0
VERTEX
  5
1BBB
  8
SURVEY_LIMIT
  6
BYBLOCK
 10
180513.17366722599
 20
9944820.787955936
 30
0.0
  0
VERTEX
  5
1BBC
  8
SURVEY_LIMIT
  6
BYBLOCK
 10
180504.7426876761
 20
9944801.5197868738
 30
0.0
  0
VERTEX
  5
1BBD
  8
SURVEY_LIMIT
  6
BYBLOCK
 10
180492.66118089479
 20
9944783.4408125598
 30
0.0
  0
VERTEX
  5
1BBE
  8
SURVEY_LIMIT
  6
BYBLOCK
 10
180478.20393417031
 20
9944761.7460433841
 30
0.0
  0
VERTEX
  5
1BBF
  8
SURVEY_LIMIT
  6
BYBLOCK
 10
180475.7992217913
 20
9944744.8723340295
 30
0.0
  0
VERTEX
  5
1BC0
  8
SURVEY_LIMIT
  6
BYBLOCK
 10
180464.93455741921
 20
9944712.346250467
 30
0.0
  0
VERTEX
  5
1BC1
  8
SURVEY_LIMIT
  6
BYBLOCK
 10
180449.2604682855
 20
9944682.2146266121
 30
0.0
  0
VERTEX
  5
1BC2
  8
SURVEY_LIMIT
  6
BYBLOCK
 10
180435.23780813799
 20
9944663.1071595401
 30
0.0
  0
VERTEX
  5
1BC3
  8
SURVEY_LIMIT
  6
BYBLOCK
 10
180427.00963565329
 20
9944647.5833469331
 30
0.0
  0
VERTEX
  5
1BC4
  8
SURVEY_LIMIT
  6
BYBLOCK
 10
180419.70858119431
 20
9944637.5394723155
 30
0.0
  0
VERTEX
  5
1BC5
  8
SURVEY_LIMIT
  6
BYBLOCK
 10
180406.90276345611
 20
9944631.1596031543
 30
0.0
  0
VERTEX
  5
1BC6
  8
SURVEY_LIMIT
  6
BYBLOCK
 10
180392.30065454161
 20
9944626.5956665315
 30
0.0
  0
VERTEX
  5
1BC7
  8
SURVEY_LIMIT
  6
BYBLOCK
 10
180375.8443095721
 20
9944628.4115990624
 30
0.0
  0
VERTEX
  5
1BC8
  8
SURVEY_LIMIT
  6
BYBLOCK
 10
180363.06746427319
 20
9944626.5956665315
 30
0.0
  0
VERTEX
  5
1BC9
  8
SURVEY_LIMIT
  6
BYBLOCK
 10
180354.60751228401
 20
9944614.9287017733
 30
0.0
  0
VERTEX
  5
1BCA
  8
SURVEY_LIMIT
  6
BYBLOCK
 10
180346.3793397992
 20
9944590.2770159133
 30
0.0
  0
VERTEX
  5
1BCB
  8
SURVEY_LIMIT
  6
BYBLOCK
 10
180330.8501128591
 20
9944562.8933961559
 30
0.0
  0
VERTEX
  5
1BCC
  8
SURVEY_LIMIT
  6
BYBLOCK
 10
180316.2190315052
 20
9944534.5937750358
 30
0.0
  0
VERTEX
  5
1BCD
  8
SURVEY_LIMIT
  6
BYBLOCK
 10
180298.86454094941
 20
9944521.8018963207
 30
0.0
  0
VERTEX
  5
1BCE
  8
SURVEY_LIMIT
  6
BYBLOCK
 10
180272.3547598829
 20
9944511.7580217049
 30
0.0
  0
VERTEX
  5
1BCF
  8
SURVEY_LIMIT
  6
BYBLOCK
 10
180245.8739512561
 20
9944507.1940850746
 30
0.0
  0
VERTEX
  5
1BD0
  8
SURVEY_LIMIT
  6
BYBLOCK
 10
180209.31073408941
 20
9944506.2780837137
 30
0.0
  0
VERTEX
  5
1BD1
  8
SURVEY_LIMIT
  6
BYBLOCK
 10
180175.52887100351
 20
9944509.9420891721
 30
0.0
  0
VERTEX
  5
1BD2
  8
SURVEY_LIMIT
  6
BYBLOCK
 10
180128.91221774361
 20
9944513.5900244378
 30
0.0
  0
VERTEX
  5
1BD3
  8
SURVEY_LIMIT
  6
BYBLOCK
 10
180087.80032776279
 20
9944505.3781525437
 30
0.0
  0
VERTEX
  5
1BD4
  8
SURVEY_LIMIT
  6
BYBLOCK
 10
180044.86317416641
 20
9944479.8104653191
 30
0.0
  0
VERTEX
  5
1BD5
  8
SURVEY_LIMIT
  6
BYBLOCK
 10
180013.8047202825
 20
9944437.8190343194
 30
0.0
  0
VERTEX
  5
1BD6
  8
SURVEY_LIMIT
  6
BYBLOCK
 10
179985.4696756042
 20
9944401.2914711069
 30
0.0
  0
VERTEX
  5
1BD7
  8
SURVEY_LIMIT
  6
BYBLOCK
 10
179961.3935793564
 20
9944314.126709627
 30
0.0
  0
VERTEX
  5
1BD8
  8
SURVEY_LIMIT
  6
BYBLOCK
 10
179958.64119771481
 20
9944275.7832138874
 30
0.0
  0
VERTEX
  5
1BD9
  8
SURVEY_LIMIT
  6
BYBLOCK
 10
179948.5877616182
 20
9944214.6039648186
 30
0.0
  0
VERTEX
  5
1BDA
  8
SURVEY_LIMIT
  6
BYBLOCK
 10
179938.56329795701
 20
9944163.4846605603
 30
0.0
  0
VERTEX
  5
1BDB
  8
SURVEY_LIMIT
  6
BYBLOCK
 10
179919.35457134989
 20
9944102.3214816898
 30
0.0
  0
VERTEX
  5
1BDC
  8
SURVEY_LIMIT
  6
BYBLOCK
 10
179915.70404411841
 20
9944071.2738564722
 30
0.0
  0
VERTEX
  5
1BDD
  8
SURVEY_LIMIT
  6
BYBLOCK
 10
179928.5098618604
 20
9944021.9704847448
 30
0.0
  0
VERTEX
  5
1BDE
  8
SURVEY_LIMIT
  6
BYBLOCK
 10
179945.86435241241
 20
9943966.2872438692
 30
0.0
  0
VERTEX
  5
1BDF
  8
SURVEY_LIMIT
  6
BYBLOCK
 10
179955.917788513
 20
9943938.9036241118
 30
0.0
  0
VERTEX
  5
1BE0
  8
SURVEY_LIMIT
  6
BYBLOCK
 10
179968.66566137591
 20
9943889.6806033831
 30
0.0
  0
VERTEX
  5
1BE1
  8
SURVEY_LIMIT
  6
BYBLOCK
 10
179969.59277940169
 20
9943844.0412371233
 30
0.0
  0
VERTEX
  5
1BE2
  8
SURVEY_LIMIT
  6
BYBLOCK
 10
179965.01513414449
 20
9943798.3858006597
 30
0.0
  0
VERTEX
  5
1BE3
  8
SURVEY_LIMIT
  6
BYBLOCK
 10
179940.3306166938
 20
9943770.0861795377
 30
0.0
  0
VERTEX
  5
1BE4
  8
SURVEY_LIMIT
  6
BYBLOCK
 10
179903.7963719703
 20
9943754.5623669308
 30
0.0
  0
VERTEX
  5
1BE5
  8
SURVEY_LIMIT
  6
BYBLOCK
 10
179864.50974560151
 20
9943732.6586851627
 30
0.0
  0
VERTEX
  5
1BE6
  8
SURVEY_LIMIT
  6
BYBLOCK
 10
179834.34943730751
 20
9943712.5709359273
 30
0.0
  0
VERTEX
  5
1BE7
  8
SURVEY_LIMIT
  6
BYBLOCK
 10
179815.16968313599
 20
9943695.2311907895
 30
0.0
  0
VERTEX
  5
1BE8
  8
SURVEY_LIMIT
  6
BYBLOCK
 10
179799.64045619569
 20
9943679.7073781751
 30
0.0
  0
VERTEX
  5
1BE9
  8
SURVEY_LIMIT
  6
BYBLOCK
 10
179782.2859656401
 20
9943645.0118177049
 30
0.0
  0
VERTEX
  5
1BEA
  8
SURVEY_LIMIT
  6
BYBLOCK
 10
179788.65990206969
 20
9943614.8801938482
 30
0.0
  0
VERTEX
  5
1BEB
  8
SURVEY_LIMIT
  6
BYBLOCK
 10
179806.04336506501
 20
9943571.972761482
 30
0.0
  0
VERTEX
  5
1BEC
  8
SURVEY_LIMIT
  6
BYBLOCK
 10
179839.8252281509
 20
9943515.3735192344
 30
0.0
  0
VERTEX
  5
1BED
  8
SURVEY_LIMIT
  6
BYBLOCK
 10
179868.16027282921
 20
9943477.9460248612
 30
0.0
  0
VERTEX
  5
1BEE
  8
SURVEY_LIMIT
  6
BYBLOCK
 10
179875.403382413
 20
9943453.438970793
 30
0.0
  0
VERTEX
  5
1BEF
  8
SURVEY_LIMIT
  6
BYBLOCK
 10
179875.403382413
 20
9943416.0114764217
 30
0.0
  0
VERTEX
  5
1BF0
  8
SURVEY_LIMIT
  6
BYBLOCK
 10
179877.2286460248
 20
9943360.3121653404
 30
0.0
  0
VERTEX
  5
1BF1
  8
SURVEY_LIMIT
  6
BYBLOCK
 10
179881.80629128221
 20
9943301.8969905637
 30
0.0
  0
VERTEX
  5
1BF2
  8
SURVEY_LIMIT
  6
BYBLOCK
 10
179883.631554894
 20
9943227.9419329781
 30
0.0
  0
VERTEX
  5
1BF3
  8
SURVEY_LIMIT
  6
BYBLOCK
 10
179883.631554894
 20
9943158.5508120228
 30
0.0
  0
VERTEX
  5
1BF4
  8
SURVEY_LIMIT
  6
BYBLOCK
 10
179890.03446376321
 20
9943090.0756924246
 30
0.0
  0
VERTEX
  5
1BF5
  8
SURVEY_LIMIT
  6
BYBLOCK
 10
179892.7868454046
 20
9943031.6605176516
 30
0.0
  0
VERTEX
  5
1BF6
  8
SURVEY_LIMIT
  6
BYBLOCK
 10
179903.70945465181
 20
9942942.2619984578
 30
0.0
  0
VERTEX
  5
1BF7
  8
SURVEY_LIMIT
  6
BYBLOCK
 10
179903.70945465181
 20
9942871.0388747677
 30
0.0
  0
VERTEX
  5
1BF8
  8
SURVEY_LIMIT
  6
BYBLOCK
 10
179893.65601855511
 20
9942801.6638240069
 30
0.0
  0
VERTEX
  5
1BF9
  8
SURVEY_LIMIT
  6
BYBLOCK
 10
179860.77230105919
 20
9942735.0207071435
 30
0.0
  0
VERTEX
  5
1BFA
  8
SURVEY_LIMIT
  6
BYBLOCK
 10
179832.43725637719
 20
9942657.4177143015
 30
0.0
  0
VERTEX
  5
1BFB
  8
SURVEY_LIMIT
  6
BYBLOCK
 10
179816.9080294368
 20
9942592.5905299671
 30
0.0
  0
VERTEX
  5
1BFC
  8
SURVEY_LIMIT
  6
BYBLOCK
 10
179807.781711366
 20
9942549.6830975991
 30
0.0
  0
VERTEX
  5
1BFD
  8
SURVEY_LIMIT
  6
BYBLOCK
 10
179800.36476715279
 20
9942517.7998220157
 30
0.0
  0
VERTEX
  5
1BFE
  8
SURVEY_LIMIT
  6
BYBLOCK
 10
179793.9908307232
 20
9942463.9485838637
 30
0.0
  0
VERTEX
  5
1BFF
  8
SURVEY_LIMIT
  6
BYBLOCK
 10
179793.9908307232
 20
9942406.433340257
 30
0.0
  0
VERTEX
  5
1C00
  8
SURVEY_LIMIT
  6
BYBLOCK
 10
179792.1655671075
 20
9942345.2540911846
 30
0.0
  0
VERTEX
  5
1C01
  8
SURVEY_LIMIT
  6
BYBLOCK
 10
179792.1655671075
 20
9942287.7388475705
 30
0.0
  0
VERTEX
  5
1C02
  8
SURVEY_LIMIT
  6
BYBLOCK
 10
179778.4326313436
 20
9942242.0994813126
 30
0.0
  0
VERTEX
  5
1C03
  8
SURVEY_LIMIT
  6
BYBLOCK
 10
179777.53448575351
 20
9942198.2760475818
 30
0.0
  0
VERTEX
  5
1C04
  8
SURVEY_LIMIT
  6
BYBLOCK
 10
179772.05869491011
 20
9942151.72067995
 30
0.0
  0
VERTEX
  5
1C05
  8
SURVEY_LIMIT
  6
BYBLOCK
 10
179772.95684050021
 20
9942099.6693041306
 30
0.0
  0
VERTEX
  5
1C06
  8
SURVEY_LIMIT
  6
BYBLOCK
 10
179773.88395852581
 20
9942073.2016857434
 30
0.0
  0
VERTEX
  5
1C07
  8
SURVEY_LIMIT
  6
BYBLOCK
 10
179776.54942285261
 20
9942021.2145907246
 30
0.0
  0
VERTEX
  5
1C08
  8
SURVEY_LIMIT
  6
BYBLOCK
 10
179782.025213696
 20
9941974.6592230909
 30
0.0
  0
VERTEX
  5
1C09
  8
SURVEY_LIMIT
  6
BYBLOCK
 10
179785.6757409237
 20
9941937.2317287195
 30
0.0
  0
VERTEX
  5
1C0A
  8
SURVEY_LIMIT
  6
BYBLOCK
 10
179776.54942285261
 20
9941905.2841723338
 30
0.0
  0
VERTEX
  5
1C0B
  8
SURVEY_LIMIT
  6
BYBLOCK
 10
179760.09307788301
 20
9941887.9283569939
 30
0.0
  0
VERTEX
  5
1C0C
  8
SURVEY_LIMIT
  6
BYBLOCK
 10
179729.03462400279
 20
9941873.3205457497
 30
0.0
  0
VERTEX
  5
1C0D
  8
SURVEY_LIMIT
  6
BYBLOCK
 10
179686.9956159927
 20
9941858.7127345037
 30
0.0
  0
VERTEX
  5
1C0E
  8
SURVEY_LIMIT
  6
BYBLOCK
 10
179649.5342532396
 20
9941850.500862617
 30
0.0
  0
VERTEX
  5
1C0F
  8
SURVEY_LIMIT
  6
BYBLOCK
 10
179624.87870822841
 20
9941845.9369259924
 30
0.0
  0
VERTEX
  5
1C10
  8
SURVEY_LIMIT
  6
BYBLOCK
 10
179598.36892716211
 20
9941828.5811106525
 30
0.0
  0
VERTEX
  5
1C11
  8
SURVEY_LIMIT
  6
BYBLOCK
 10
179576.4367913529
 20
9941813.0733682457
 30
0.0
  0
VERTEX
  5
1C12
  8
SURVEY_LIMIT
  6
BYBLOCK
 10
179559.98044638321
 20
9941782.9417443927
 30
0.0
  0
VERTEX
  5
1C13
  8
SURVEY_LIMIT
  6
BYBLOCK
 10
179546.2764830552
 20
9941749.1621852759
 30
0.0
  0
VERTEX
  5
1C14
  8
SURVEY_LIMIT
  6
BYBLOCK
 10
179546.2764830552
 20
9941719.9465627875
 30
0.0
  0
VERTEX
  5
1C15
  8
SURVEY_LIMIT
  6
BYBLOCK
 10
179552.6793919242
 20
9941671.5591924302
 30
0.0
  0
VERTEX
  5
1C16
  8
SURVEY_LIMIT
  6
BYBLOCK
 10
179562.73282802469
 20
9941638.6956346817
 30
0.0
  0
VERTEX
  5
1C17
  8
SURVEY_LIMIT
  6
BYBLOCK
 10
179568.208618868
 20
9941607.6480094641
 30
0.0
  0
VERTEX
  5
1C18
  8
SURVEY_LIMIT
  6
BYBLOCK
 10
179573.71338214719
 20
9941592.1402670555
 30
0.0
  0
VERTEX
  5
1C19
  8
SURVEY_LIMIT
  6
BYBLOCK
 10
179606.42326501751
 20
9941493.5656640083
 30
0.0
  0
VERTEX
  5
1C1A
  8
SURVEY_LIMIT
  6
BYBLOCK
 10
179660.34097273651
 20
9941371.2393062636
 30
0.0
  0
VERTEX
  5
1C1B
  8
SURVEY_LIMIT
  6
BYBLOCK
 10
179723.38499852631
 20
9941229.7251304537
 30
0.0
  0
VERTEX
  5
1C1C
  8
SURVEY_LIMIT
  6
BYBLOCK
 10
179741.66660711169
 20
9941196.8615727033
 30
0.0
  0
VERTEX
  5
1C1D
  8
SURVEY_LIMIT
  6
BYBLOCK
 10
179769.9726793505
 20
9941168.5619515833
 30
0.0
  0
VERTEX
  5
1C1E
  8
SURVEY_LIMIT
  6
BYBLOCK
 10
179793.7300787791
 20
9941138.4303277284
 30
0.0
  0
VERTEX
  5
1C1F
  8
SURVEY_LIMIT
  6
BYBLOCK
 10
179804.71063290161
 20
9941107.3827025127
 30
0.0
  0
VERTEX
  5
1C20
  8
SURVEY_LIMIT
  6
BYBLOCK
 10
179807.66582161179
 20
9941089.1912368033
 30
0.0
  0
VERTEX
  5
1C21
  8
SURVEY_LIMIT
  6
BYBLOCK
 10
179805.8405579961
 20
9941066.3715536725
 30
0.0
  0
VERTEX
  5
1C22
  8
SURVEY_LIMIT
  6
BYBLOCK
 10
179808.56396719799
 20
9941037.1559311822
 30
0.0
  0
VERTEX
  5
1C23
  8
SURVEY_LIMIT
  6
BYBLOCK
 10
179816.7921396828
 20
9941015.2361792158
 30
0.0
  0
VERTEX
  5
1C24
  8
SURVEY_LIMIT
  6
BYBLOCK
 10
179829.59795742109
 20
9940988.7685608249
 30
0.0
  0
VERTEX
  5
1C25
  8
SURVEY_LIMIT
  6
BYBLOCK
 10
179850.60297520831
 20
9940962.2848722339
 30
0.0
  0
VERTEX
  5
1C26
  8
SURVEY_LIMIT
  6
BYBLOCK
 10
179870.7098474018
 20
9940934.9012524765
 30
0.0
  0
VERTEX
  5
1C27
  8
SURVEY_LIMIT
  6
BYBLOCK
 10
179899.94303767011
 20
9940903.8536272608
 30
0.0
  0
VERTEX
  5
1C28
  8
SURVEY_LIMIT
  6
BYBLOCK
 10
179928.24910991261
 20
9940870.0740681421
 30
0.0
  0
VERTEX
  5
1C29
  8
SURVEY_LIMIT
  6
BYBLOCK
 10
179964.81232707939
 20
9940822.6026991494
 30
0.0
  0
VERTEX
  5
1C2A
  8
SURVEY_LIMIT
  6
BYBLOCK
 10
179994.04551734761
 20
9940783.343202047
 30
0.0
  0
VERTEX
  5
1C2B
  8
SURVEY_LIMIT
  6
BYBLOCK
 10
180023.278707616
 20
9940734.9558316898
 30
0.0
  0
VERTEX
  5
1C2C
  8
SURVEY_LIMIT
  6
BYBLOCK
 10
180057.0895431377
 20
9940689.3164654281
 30
0.0
  0
VERTEX
  5
1C2D
  8
SURVEY_LIMIT
  6
BYBLOCK
 10
180088.14799702141
 20
9940652.7889022157
 30
0.0
  0
VERTEX
  5
1C2E
  8
SURVEY_LIMIT
  6
BYBLOCK
 10
180113.7306600622
 20
9940624.4892810918
 30
0.0
  0
VERTEX
  5
1C2F
  8
SURVEY_LIMIT
  6
BYBLOCK
 10
180126.88414705911
 20
9940603.5819516871
 30
0.0
  0
VERTEX
  5
1C30
  8
SURVEY_LIMIT
  6
BYBLOCK
 10
180148.78731043261
 20
9940568.8863912132
 30
0.0
  0
VERTEX
  5
1C31
  8
SURVEY_LIMIT
  6
BYBLOCK
 10
180167.9960370397
 20
9940527.8109615743
 30
0.0
  0
VERTEX
  5
1C32
  8
SURVEY_LIMIT
  6
BYBLOCK
 10
180181.700000368
 20
9940490.3673970029
 30
0.0
  0
VERTEX
  5
1C33
  8
SURVEY_LIMIT
  6
BYBLOCK
 10
180189.92817285279
 20
9940455.6879067197
 30
0.0
  0
VERTEX
  5
1C34
  8
SURVEY_LIMIT
  6
BYBLOCK
 10
180192.65158205479
 20
9940413.6804055236
 30
0.0
  0
VERTEX
  5
1C35
  8
SURVEY_LIMIT
  6
BYBLOCK
 10
180188.102909237
 20
9940380.8168477733
 30
0.0
  0
VERTEX
  5
1C36
  8
SURVEY_LIMIT
  6
BYBLOCK
 10
180179.8747367523
 20
9940343.3893533964
 30
0.0
  0
VERTEX
  5
1C37
  8
SURVEY_LIMIT
  6
BYBLOCK
 10
180167.0689190141
 20
9940313.2577295434
 30
0.0
  0
VERTEX
  5
1C38
  8
SURVEY_LIMIT
  6
BYBLOCK
 10
180156.1173373273
 20
9940277.6622378957
 30
0.0
  0
VERTEX
  5
1C39
  8
SURVEY_LIMIT
  6
BYBLOCK
 10
180154.29207371551
 20
9940241.1346746869
 30
0.0
  0
VERTEX
  5
1C3A
  8
SURVEY_LIMIT
  6
BYBLOCK
 10
180154.29207371551
 20
9940201.8751775827
 30
0.0
  0
VERTEX
  5
1C3B
  8
SURVEY_LIMIT
  6
BYBLOCK
 10
180162.4912737608
 20
9940172.6595550962
 30
0.0
  0
VERTEX
  5
1C3C
  8
SURVEY_LIMIT
  6
BYBLOCK
 10
180179.8747367523
 20
9940143.4439326078
 30
0.0
  0
VERTEX
  5
1C3D
  8
SURVEY_LIMIT
  6
BYBLOCK
 10
180188.07393679759
 20
9940124.3203953356
 30
0.0
  0
VERTEX
  5
1C3E
  8
SURVEY_LIMIT
  6
BYBLOCK
 10
180196.30210928249
 20
9940099.6847796738
 30
0.0
  0
VERTEX
  5
1C3F
  8
SURVEY_LIMIT
  6
BYBLOCK
 10
180199.05449092371
 20
9940058.5932798404
 30
0.0
  0
VERTEX
  5
1C40
  8
SURVEY_LIMIT
  6
BYBLOCK
 10
180194.47684566671
 20
9940028.4616559837
 30
0.0
  0
VERTEX
  5
1C41
  8
SURVEY_LIMIT
  6
BYBLOCK
 10
180186.24867318559
 20
9939981.9062883556
 30
0.0
  0
VERTEX
  5
1C42
  8
SURVEY_LIMIT
  6
BYBLOCK
 10
180183.5252639837
 20
9939944.4787939824
 30
0.0
  0
VERTEX
  5
1C43
  8
SURVEY_LIMIT
  6
BYBLOCK
 10
180191.7244640289
 20
9939874.1716716606
 30
0.0
  0
VERTEX
  5
1C44
  8
SURVEY_LIMIT
  6
BYBLOCK
 10
180197.2292273081
 20
9939814.8404955156
 30
0.0
  0
VERTEX
  5
1C45
  8
SURVEY_LIMIT
  6
BYBLOCK
 10
180209.10792702041
 20
9939781.9769377671
 30
0.0
  0
VERTEX
  5
1C46
  8
SURVEY_LIMIT
  6
BYBLOCK
 10
180231.9382084198
 20
9939739.0695053991
 30
0.0
  0
VERTEX
  5
1C47
  8
SURVEY_LIMIT
  6
BYBLOCK
 10
180255.69560784451
 20
9939703.4579435606
 30
0.0
  0
VERTEX
  5
1C48
  8
SURVEY_LIMIT
  6
BYBLOCK
 10
180284.9287981129
 20
9939662.3664437253
 30
0.0
  0
VERTEX
  5
1C49
  8
SURVEY_LIMIT
  6
BYBLOCK
 10
180299.61782434559
 20
9939624.1032989752
 30
0.0
  0
VERTEX
  5
1C4A
  8
SURVEY_LIMIT
  6
BYBLOCK
 10
180308.74414241669
 20
9939562.0241187457
 30
0.0
  0
VERTEX
  5
1C4B
  8
SURVEY_LIMIT
  6
BYBLOCK
 10
180310.5983784681
 20
9939459.7694400344
 30
0.0
  0
VERTEX
  5
1C4C
  8
SURVEY_LIMIT
  6
BYBLOCK
 10
180299.61782434559
 20
9939389.4783879146
 30
0.0
  0
VERTEX
  5
1C4D
  8
SURVEY_LIMIT
  6
BYBLOCK
 10
180277.6856885328
 20
9939338.343013458
 30
0.0
  0
VERTEX
  5
1C4E
  8
SURVEY_LIMIT
  6
BYBLOCK
 10
180261.2583160027
 20
9939297.267583821
 30
0.0
  0
VERTEX
  5
1C4F
  8
SURVEY_LIMIT
  6
BYBLOCK
 10
180247.55435267821
 20
9939258.9240880832
 30
0.0
  0
VERTEX
  5
1C50
  8
SURVEY_LIMIT
  6
BYBLOCK
 10
180232.9232713244
 20
9939212.3687204495
 30
0.0
  0
VERTEX
  5
1C51
  8
SURVEY_LIMIT
  6
BYBLOCK
 10
180218.2342450954
 20
9939169.5898496807
 30
0.0
  0
VERTEX
  5
1C52
  8
SURVEY_LIMIT
  6
BYBLOCK
 10
180210.9331906361
 20
9939124.8664847836
 30
0.0
  0
VERTEX
  5
1C53
  8
SURVEY_LIMIT
  6
BYBLOCK
 10
180199.05449092371
 20
9939039.9515512194
 30
0.0
  0
VERTEX
  5
1C54
  8
SURVEY_LIMIT
  6
BYBLOCK
 10
180199.05449092371
 20
9938976.0403682515
 30
0.0
  0
VERTEX
  5
1C55
  8
SURVEY_LIMIT
  6
BYBLOCK
 10
180193.5787000804
 20
9938891.1415048838
 30
0.0
  0
VERTEX
  5
1C56
  8
SURVEY_LIMIT
  6
BYBLOCK
 10
180192.65158205479
 20
9938822.6663852874
 30
0.0
  0
VERTEX
  5
1C57
  8
SURVEY_LIMIT
  6
BYBLOCK
 10
180199.05449092371
 20
9938746.8953951746
 30
0.0
  0
VERTEX
  5
1C58
  8
SURVEY_LIMIT
  6
BYBLOCK
 10
180199.89469163489
 20
9938652.9168691523
 30
0.0
  0
VERTEX
  5
1C59
  8
SURVEY_LIMIT
  6
BYBLOCK
 10
180195.3170463813
 20
9938590.8376889154
 30
0.0
  0
VERTEX
  5
1C5A
  8
SURVEY_LIMIT
  6
BYBLOCK
 10
180187.08887389669
 20
9938537.8863819335
 30
0.0
  0
VERTEX
  5
1C5B
  8
SURVEY_LIMIT
  6
BYBLOCK
 10
180177.03543779621
 20
9938478.5391355921
 30
0.0
  0
VERTEX
  5
1C5C
  8
SURVEY_LIMIT
  6
BYBLOCK
 10
180187.08887389669
 20
9938426.503829971
 30
0.0
  0
VERTEX
  5
1C5D
  8
SURVEY_LIMIT
  6
BYBLOCK
 10
180205.37048247829
 20
9938370.8045188934
 30
0.0
  0
VERTEX
  5
1C5E
  8
SURVEY_LIMIT
  6
BYBLOCK
 10
180219.07444580639
 20
9938336.125028614
 30
0.0
  0
VERTEX
  5
1C5F
  8
SURVEY_LIMIT
  6
BYBLOCK
 10
180246.482372459
 20
9938307.8254074883
 30
0.0
  0
VERTEX
  5
1C60
  8
SURVEY_LIMIT
  6
BYBLOCK
 10
180314.104043506
 20
9938281.3417188954
 30
0.0
  0
VERTEX
  5
1C61
  8
SURVEY_LIMIT
  6
BYBLOCK
 10
180373.4975420683
 20
9938263.0859723911
 30
0.0
  0
VERTEX
  5
1C62
  8
SURVEY_LIMIT
  6
BYBLOCK
 10
180415.68141226831
 20
9938248.5745823458
 30
0.0
  0
VERTEX
  5
1C63
  8
SURVEY_LIMIT
  6
BYBLOCK
 10
180466.84673834959
 20
9938215.7110245954
 30
0.0
  0
VERTEX
  5
1C64
  8
SURVEY_LIMIT
  6
BYBLOCK
 10
180520.735473629
 20
9938154.547845725
 30
0.0
  0
VERTEX
  5
1C65
  8
SURVEY_LIMIT
  6
BYBLOCK
 10
180551.8228999525
 20
9938093.3685966525
 30
0.0
  0
VERTEX
  5
1C66
  8
SURVEY_LIMIT
  6
BYBLOCK
 10
180581.05609022061
 20
9938020.3456106335
 30
0.0
  0
VERTEX
  5
1C67
  8
SURVEY_LIMIT
  6
BYBLOCK
 10
180617.5903349444
 20
9937934.5146757029
 30
0.0
  0
VERTEX
  5
1C68
  8
SURVEY_LIMIT
  6
BYBLOCK
 10
180634.9448255001
 20
9937869.7035615705
 30
0.0
  0
VERTEX
  5
1C69
  8
SURVEY_LIMIT
  6
BYBLOCK
 10
180644.9982616005
 20
9937814.9202518519
 30
0.0
  0
VERTEX
  5
1C6A
  8
SURVEY_LIMIT
  6
BYBLOCK
 10
180643.2019704245
 20
9937795.8770655803
 30
0.0
  0
VERTEX
  5
1C6B
  8
SURVEY_LIMIT
  6
BYBLOCK
 10
180635.90091596521
 20
9937763.9295091964
 30
0.0
  0
VERTEX
  5
1C6C
  8
SURVEY_LIMIT
  6
BYBLOCK
 10
180619.44457099959
 20
9937720.1060754657
 30
0.0
  0
VERTEX
  5
1C6D
  8
SURVEY_LIMIT
  6
BYBLOCK
 10
180611.2453709541
 20
9937678.1146444641
 30
0.0
  0
VERTEX
  5
1C6E
  8
SURVEY_LIMIT
  6
BYBLOCK
 10
180611.99865435041
 20
9937653.2379758079
 30
0.0
  0
VERTEX
  5
1C6F
  8
SURVEY_LIMIT
  6
BYBLOCK
 10
180611.99865435041
 20
9937634.9822293092
 30
0.0
  0
VERTEX
  5
1C70
  8
SURVEY_LIMIT
  6
BYBLOCK
 10
180598.2946910224
 20
9937619.4584166966
 30
0.0
  0
VERTEX
  5
1C71
  8
SURVEY_LIMIT
  6
BYBLOCK
 10
180584.5907276943
 20
9937588.4107914753
 30
0.0
  0
VERTEX
  5
1C72
  8
SURVEY_LIMIT
  6
BYBLOCK
 10
180580.0130824408
 20
9937567.4231110755
 30
0.0
  0
VERTEX
  5
1C73
  8
SURVEY_LIMIT
  6
BYBLOCK
 10
180580.94020046649
 20
9937519.0357407182
 30
0.0
  0
VERTEX
  5
1C74
  8
SURVEY_LIMIT
  6
BYBLOCK
 10
180580.0130824408
 20
9937436.8688112479
 30
0.0
  0
VERTEX
  5
1C75
  8
SURVEY_LIMIT
  6
BYBLOCK
 10
180561.76044629511
 20
9937375.7056323756
 30
0.0
  0
VERTEX
  5
1C76
  8
SURVEY_LIMIT
  6
BYBLOCK
 10
180528.8477563597
 20
9937311.7944494113
 30
0.0
  0
VERTEX
  5
1C77
  8
SURVEY_LIMIT
  6
BYBLOCK
 10
180500.54168411711
 20
9937247.8832664452
 30
0.0
  0
VERTEX
  5
1C78
  8
SURVEY_LIMIT
  6
BYBLOCK
 10
180495.8771215489
 20
9937212.4324065913
 30
0.0
  0
VERTEX
  5
1C79
  8
SURVEY_LIMIT
  6
BYBLOCK
 10
180492.2265943177
 20
9937177.7368461117
 30
0.0
  0
VERTEX
  5
1C7A
  8
SURVEY_LIMIT
  6
BYBLOCK
 10
180494.95000352329
 20
9937134.8294137456
 30
0.0
  0
VERTEX
  5
1C7B
  8
SURVEY_LIMIT
  6
BYBLOCK
 10
180507.75582126141
 20
9937082.7941081282
 30
0.0
  0
VERTEX
  5
1C7C
  8
SURVEY_LIMIT
  6
BYBLOCK
 10
180518.70740294829
 20
9937023.4468617886
 30
0.0
  0
VERTEX
  5
1C7D
  8
SURVEY_LIMIT
  6
BYBLOCK
 10
180531.51322068641
 20
9936972.3275575358
 30
0.0
  0
VERTEX
  5
1C7E
  8
SURVEY_LIMIT
  6
BYBLOCK
 10
180552.51823846981
 20
9936913.8963125572
 30
0.0
  0
VERTEX
  5
1C7F
  8
SURVEY_LIMIT
  6
BYBLOCK
 10
180559.81929292891
 20
9936885.5966914371
 30
0.0
  0
VERTEX
  5
1C80
  8
SURVEY_LIMIT
  6
BYBLOCK
 10
180559.81929292891
 20
9936838.1253224425
 30
0.0
  0
VERTEX
  5
1C81
  8
SURVEY_LIMIT
  6
BYBLOCK
 10
180553.85097063321
 20
9936806.1295554582
 30
0.0
  0
VERTEX
  5
1C82
  8
SURVEY_LIMIT
  6
BYBLOCK
 10
180528.00755564871
 20
9936776.1747038029
 30
0.0
  0
VERTEX
  5
1C83
  8
SURVEY_LIMIT
  6
BYBLOCK
 10
180495.99301130319
 20
9936739.0043326188
 30
0.0
  0
VERTEX
  5
1C84
  8
SURVEY_LIMIT
  6
BYBLOCK
 10
180435.00602862981
 20
9936699.776975913
 30
0.0
  0
VERTEX
  5
1C85
  8
SURVEY_LIMIT
  6
BYBLOCK
 10
180381.2911279797
 20
9936678.0982769374
 30
0.0
  0
VERTEX
  5
1C86
  8
SURVEY_LIMIT
  6
BYBLOCK
 10
180336.8474075906
 20
9936653.3180294782
 30
0.0
  0
VERTEX
  5
1C87
  8
SURVEY_LIMIT
  6
BYBLOCK
 10
180294.48970276109
 20
9936621.3061922956
 30
0.0
  0
VERTEX
  5
1C88
  8
SURVEY_LIMIT
  6
BYBLOCK
 10
180251.08899015191
 20
9936603.7575345635
 30
0.0
  0
VERTEX
  5
1C89
  8
SURVEY_LIMIT
  6
BYBLOCK
 10
180204.5882266424
 20
9936595.4974520802
 30
0.0
  0
VERTEX
  5
1C8A
  8
SURVEY_LIMIT
  6
BYBLOCK
 10
180152.93036911261
 20
9936576.9042313881
 30
0.0
  0
VERTEX
  5
1C8B
  8
SURVEY_LIMIT
  6
BYBLOCK
 10
180098.14348824319
 20
9936569.688711863
 30
0.0
  0
VERTEX
  5
1C8C
  8
SURVEY_LIMIT
  6
BYBLOCK
 10
180065.08593611419
 20
9936568.6441489048
 30
0.0
  0
VERTEX
  5
1C8D
  8
SURVEY_LIMIT
  6
BYBLOCK
 10
180032.0283839888
 20
9936561.428629376
 30
0.0
  0
VERTEX
  5
1C8E
  8
SURVEY_LIMIT
  6
BYBLOCK
 10
179940.06986474991
 20
9936540.778423164
 30
0.0
  0
VERTEX
  5
1C8F
  8
SURVEY_LIMIT
  6
BYBLOCK
 10
179864.62563535571
 20
9936517.0266684648
 30
0.0
  0
VERTEX
  5
1C90
  8
SURVEY_LIMIT
  6
BYBLOCK
 10
179794.6282243653
 20
9936488.6145559493
 30
0.0
  0
VERTEX
  5
1C91
  8
SURVEY_LIMIT
  6
BYBLOCK
 10
179721.27001053069
 20
9936465.907364212
 30
0.0
  0
VERTEX
  5
1C92
  8
SURVEY_LIMIT
  6
BYBLOCK
 10
179685.11240750179
 20
9936453.5172404833
 30
0.0
  0
VERTEX
  5
1C93
  8
SURVEY_LIMIT
  6
BYBLOCK
 10
179637.56863621221
 20
9936414.2738135811
 30
0.0
  0
VERTEX
  5
1C94
  8
SURVEY_LIMIT
  6
BYBLOCK
 10
179609.66817810759
 20
9936395.6966630854
 30
0.0
  0
VERTEX
  5
1C95
  8
SURVEY_LIMIT
  6
BYBLOCK
 10
179570.4105241783
 20
9936380.2049908768
 30
0.0
  0
VERTEX
  5
1C96
  8
SURVEY_LIMIT
  6
BYBLOCK
 10
179516.66665108869
 20
9936365.7418114282
 30
0.0
  0
VERTEX
  5
1C97
  8
SURVEY_LIMIT
  6
BYBLOCK
 10
179460.86573487881
 20
9936360.5832774229
 30
0.0
  0
VERTEX
  5
1C98
  8
SURVEY_LIMIT
  6
BYBLOCK
 10
179414.3649713695
 20
9936347.1646609362
 30
0.0
  0
VERTEX
  5
1C99
  8
SURVEY_LIMIT
  6
BYBLOCK
 10
179355.4640042556
 20
9936317.2258794755
 30
0.0
  0
VERTEX
  5
1C9A
  8
SURVEY_LIMIT
  6
BYBLOCK
 10
179329.6495617106
 20
9936281.0840010475
 30
0.0
  0
VERTEX
  5
1C9B
  8
SURVEY_LIMIT
  6
BYBLOCK
 10
179298.64905270559
 20
9936239.7835886218
 30
0.0
  0
VERTEX
  5
1C9C
  8
SURVEY_LIMIT
  6
BYBLOCK
 10
179270.74859460071
 20
9936220.1618751697
 30
0.0
  0
VERTEX
  5
1C9D
  8
SURVEY_LIMIT
  6
BYBLOCK
 10
179210.80461970711
 20
9936203.6417101994
 30
0.0
  0
VERTEX
  5
1C9E
  8
SURVEY_LIMIT
  6
BYBLOCK
 10
179181.28170505539
 20
9936199.1581245717
 30
0.0
  0
VERTEX
  5
1C9F
  8
SURVEY_LIMIT
  6
BYBLOCK
 10
179127.5668044053
 20
9936180.5649038758
 30
0.0
  0
VERTEX
  5
1CA0
  8
SURVEY_LIMIT
  6
BYBLOCK
 10
179085.20909957579
 20
9936140.3090544082
 30
0.0
  0
VERTEX
  5
1CA1
  8
SURVEY_LIMIT
  6
BYBLOCK
 10
179059.7712987288
 20
9936082.2956346162
 30
0.0
  0
VERTEX
  5
1CA2
  8
SURVEY_LIMIT
  6
BYBLOCK
 10
179039.25881239391
 20
9936044.9484912381
 30
0.0
  0
VERTEX
  5
1CA3
  8
SURVEY_LIMIT
  6
BYBLOCK
 10
179018.77529849851
 20
9936016.0221323427
 30
0.0
  0
VERTEX
  5
1CA4
  8
SURVEY_LIMIT
  6
BYBLOCK
 10
178991.01970258731
 20
9936005.1747477539
 30
0.0
  0
VERTEX
  5
1CA5
  8
SURVEY_LIMIT
  6
BYBLOCK
 10
178969.3193462826
 20
9936046.153756192
 30
0.0
  0
VERTEX
  5
1CA6
  8
SURVEY_LIMIT
  6
BYBLOCK
 10
178959.6715243198
 20
9936105.1956687458
 30
0.0
  0
VERTEX
  5
1CA7
  8
SURVEY_LIMIT
  6
BYBLOCK
 10
178922.3550237602
 20
9936404.9852383323
 30
0.0
  0
VERTEX
  5
1CA8
  8
SURVEY_LIMIT
  6
BYBLOCK
 10
178900.3649430722
 20
9936456.2331041787
 30
0.0
  0
VERTEX
  5
1CA9
  8
SURVEY_LIMIT
  6
BYBLOCK
 10
178885.73386171821
 20
9936485.5130074657
 30
0.0
  0
VERTEX
  5
1CAA
  8
SURVEY_LIMIT
  6
BYBLOCK
 10
178821.06737938139
 20
9936523.2940462269
 30
0.0
  0
VERTEX
  5
1CAB
  8
SURVEY_LIMIT
  6
BYBLOCK
 10
178733.6865053958
 20
9936487.5860631876
 30
0.0
  0
VERTEX
  5
1CAC
  8
SURVEY_LIMIT
  6
BYBLOCK
 10
178654.24407951161
 20
9936491.5554024354
 30
0.0
  0
VERTEX
  5
1CAD
  8
SURVEY_LIMIT
  6
BYBLOCK
 10
178566.86320552969
 20
9936507.432759434
 30
0.0
  0
VERTEX
  5
1CAE
  8
SURVEY_LIMIT
  6
BYBLOCK
 10
178511.265096385
 20
9936543.1407424733
 30
0.0
  0
VERTEX
  5
1CAF
  8
SURVEY_LIMIT
  6
BYBLOCK
 10
178523.1727685369
 20
9936614.5888489522
 30
0.0
  0
VERTEX
  5
1CB0
  8
SURVEY_LIMIT
  6
BYBLOCK
 10
178614.5228665731
 20
9936713.8062599767
 30
0.0
  0
VERTEX
  5
1CB1
  8
SURVEY_LIMIT
  6
BYBLOCK
 10
178658.21330356211
 20
9936785.2382962555
 30
0.0
  0
VERTEX
  5
1CB2
  8
SURVEY_LIMIT
  6
BYBLOCK
 10
178646.305631414
 20
9936876.5170287825
 30
0.0
  0
VERTEX
  5
1CB3
  8
SURVEY_LIMIT
  6
BYBLOCK
 10
178662.18252761289
 20
9936963.826422058
 30
0.0
  0
VERTEX
  5
1CB4
  8
SURVEY_LIMIT
  6
BYBLOCK
 10
178715.5787314437
 20
9937055.3462075796
 30
0.0
  0
VERTEX
  5
1CB5
  8
SURVEY_LIMIT
  6
BYBLOCK
 10
178789.9220081828
 20
9937135.5525727198
 30
0.0
  0
VERTEX
  5
1CB6
  8
SURVEY_LIMIT
  6
BYBLOCK
 10
178819.6477299034
 20
9937189.0341962855
 30
0.0
  0
VERTEX
  5
1CB7
  8
SURVEY_LIMIT
  6
BYBLOCK
 10
178795.86135803899
 20
9937263.2945876569
 30
0.0
  0
VERTEX
  5
1CB8
  8
SURVEY_LIMIT
  6
BYBLOCK
 10
178730.4415923059
 20
9937346.4739396907
 30
0.0
  0
VERTEX
  5
1CB9
  8
SURVEY_LIMIT
  6
BYBLOCK
 10
178682.0576203056
 20
9937380.5588325933
 30
0.0
  0
VERTEX
  5
1CBA
  8
SURVEY_LIMIT
  6
BYBLOCK
 10
178641.26442714399
 20
9937364.3118610121
 30
0.0
  0
VERTEX
  5
1CBB
  8
SURVEY_LIMIT
  6
BYBLOCK
 10
178534.24023997781
 20
9937290.035399437
 30
0.0
  0
VERTEX
  5
1CBC
  8
SURVEY_LIMIT
  6
BYBLOCK
 10
178445.0341023803
 20
9937224.6778985281
 30
0.0
  0
VERTEX
  5
1CBD
  8
SURVEY_LIMIT
  6
BYBLOCK
 10
178382.59849779299
 20
9937203.8830605205
 30
0.0
  0
VERTEX
  5
1CBE
  8
SURVEY_LIMIT
  6
BYBLOCK
 10
178254.7431274688
 20
9937218.7479949538
 30
0.0
  0
VERTEX
  5
1CBF
  8
SURVEY_LIMIT
  6
BYBLOCK
 10
178123.93256843821
 20
9937230.6238723006
 30
0.0
  0
VERTEX
  5
1CC0
  8
SURVEY_LIMIT
  6
BYBLOCK
 10
177892.0371720976
 20
9937200.9100736324
 30
0.0
  0
VERTEX
  5
1CC1
  8
SURVEY_LIMIT
  6
BYBLOCK
 10
177773.10531277949
 20
9937209.8290342912
 30
0.0
  0
VERTEX
  5
1CC2
  8
SURVEY_LIMIT
  6
BYBLOCK
 10
177669.0652867592
 20
9937236.5698460806
 30
0.0
  0
VERTEX
  5
1CC3
  8
SURVEY_LIMIT
  6
BYBLOCK
 10
177538.25472772861
 20
9937310.8302374482
 30
0.0
  0
VERTEX
  5
1CC4
  8
SURVEY_LIMIT
  6
BYBLOCK
 10
177487.69782285381
 20
9937310.8302374482
 30
0.0
  0
VERTEX
  5
1CC5
  8
SURVEY_LIMIT
  6
BYBLOCK
 10
177419.32286841041
 20
9937275.186535202
 30
0.0
  0
VERTEX
  5
1CC6
  8
SURVEY_LIMIT
  6
BYBLOCK
 10
177321.22219224641
 20
9937275.186535202
 30
0.0
  0
VERTEX
  5
1CC7
  8
SURVEY_LIMIT
  6
BYBLOCK
 10
177288.51230937979
 20
9937287.0624125525
 30
0.0
  0
VERTEX
  5
1CC8
  8
SURVEY_LIMIT
  6
BYBLOCK
 10
177175.51979991791
 20
9937319.7491981126
 30
0.0
  0
VERTEX
  5
1CC9
  8
SURVEY_LIMIT
  6
BYBLOCK
 10
177062.5562628952
 20
9937364.3118610121
 30
0.0
  0
VERTEX
  5
1CCA
  8
SURVEY_LIMIT
  6
BYBLOCK
 10
176932.64384945109
 20
9937503.3833665159
 30
0.0
  0
VERTEX
  5
1CCB
  8
SURVEY_LIMIT
  6
BYBLOCK
 10
176866.29696569219
 20
9937566.9088647012
 30
0.0
  0
VERTEX
  5
1CCC
  8
SURVEY_LIMIT
  6
BYBLOCK
 10
176769.58696656671
 20
9937591.7533929534
 30
0.0
  0
VERTEX
  5
1CCD
  8
SURVEY_LIMIT
  6
BYBLOCK
 10
176670.06664092821
 20
9937608.3217685204
 30
0.0
  0
VERTEX
  5
1CCE
  8
SURVEY_LIMIT
  6
BYBLOCK
 10
176573.3276693635
 20
9937611.0858428162
 30
0.0
  0
VERTEX
  5
1CCF
  8
SURVEY_LIMIT
  6
BYBLOCK
 10
176454.48272735989
 20
9937622.1421399955
 30
0.0
  0
VERTEX
  5
1CD0
  8
SURVEY_LIMIT
  6
BYBLOCK
 10
176368.81122723961
 20
9937663.5550438166
 30
0.0
  0
VERTEX
  5
1CD1
  8
SURVEY_LIMIT
  6
BYBLOCK
 10
176285.89210875699
 20
9937707.7480921354
 30
0.0
  0
VERTEX
  5
1CD2
  8
SURVEY_LIMIT
  6
BYBLOCK
 10
176230.6126964353
 20
9937760.2172931395
 30
0.0
  0
VERTEX
  5
1CD3
  8
SURVEY_LIMIT
  6
BYBLOCK
 10
176113.3902109786
 20
9937821.2197700161
 30
0.0
  0
VERTEX
  5
1CD4
  8
SURVEY_LIMIT
  6
BYBLOCK
 10
176030.9636239484
 20
9937903.5634716805
 30
0.0
  0
VERTEX
  5
1CD5
  8
SURVEY_LIMIT
  6
BYBLOCK
 10
176003.49775241691
 20
9938027.079024177
 30
0.0
  0
VERTEX
  5
1CD6
  8
SURVEY_LIMIT
  6
BYBLOCK
 10
175934.83307358989
 20
9938164.3185269516
 30
0.0
  0
VERTEX
  5
1CD7
  8
SURVEY_LIMIT
  6
BYBLOCK
 10
175868.60207958141
 20
9938261.2057590634
 30
0.0
  0
VERTEX
  5
1CD8
  8
SURVEY_LIMIT
  6
BYBLOCK
 10
175797.61960569021
 20
9938355.7628122643
 30
0.0
  0
VERTEX
  5
1CD9
  8
SURVEY_LIMIT
  6
BYBLOCK
 10
175714.81637696171
 20
9938387.276473267
 30
0.0
  0
VERTEX
  5
1CDA
  8
SURVEY_LIMIT
  6
BYBLOCK
 10
175628.072896622
 20
9938430.6178010162
 30
0.0
  0
VERTEX
  5
1CDB
  8
SURVEY_LIMIT
  6
BYBLOCK
 10
175596.52191128579
 20
9938513.363257667
 30
0.0
  0
VERTEX
  5
1CDC
  8
SURVEY_LIMIT
  6
BYBLOCK
 10
175617.6717912629
 20
9938595.6748189367
 30
0.0
  0
VERTEX
  5
1CDD
  8
SURVEY_LIMIT
  6
BYBLOCK
 10
175544.40049474311
 20
9938668.874577146
 30
0.0
  0
VERTEX
  5
1CDE
  8
SURVEY_LIMIT
  6
BYBLOCK
 10
175537.07046784821
 20
9938749.4023462795
 30
0.0
  0
VERTEX
  5
1CDF
  8
SURVEY_LIMIT
  6
BYBLOCK
 10
175595.6817105746
 20
9938837.2420561351
 30
0.0
  0
VERTEX
  5
1CE0
  8
SURVEY_LIMIT
  6
BYBLOCK
 10
175639.63289951161
 20
9938873.8499703426
 30
0.0
  0
VERTEX
  5
1CE1
  8
SURVEY_LIMIT
  6
BYBLOCK
 10
175727.5642498247
 20
9938895.8018627036
 30
0.0
  0
VERTEX
  5
1CE2
  8
SURVEY_LIMIT
  6
BYBLOCK
 10
175771.5154387615
 20
9938947.0497285519
 30
0.0
  0
VERTEX
  5
1CE3
  8
SURVEY_LIMIT
  6
BYBLOCK
 10
175786.175492551
 20
9938998.2815242056
 30
0.0
  0
VERTEX
  5
1CE4
  8
SURVEY_LIMIT
  6
BYBLOCK
 10
175734.89427671939
 20
9939064.1693416964
 30
0.0
  0
VERTEX
  5
1CE5
  8
SURVEY_LIMIT
  6
BYBLOCK
 10
175668.9530070945
 20
9939108.0891966224
 30
0.0
  0
VERTEX
  5
1CE6
  8
SURVEY_LIMIT
  6
BYBLOCK
 10
175625.0018181577
 20
9939166.6490031946
 30
0.0
  0
VERTEX
  5
1CE7
  8
SURVEY_LIMIT
  6
BYBLOCK
 10
175588.35168367991
 20
9939247.160702128
 30
0.0
  0
VERTEX
  5
1CE8
  8
SURVEY_LIMIT
  6
BYBLOCK
 10
175515.1093595959
 20
9939320.360460341
 30
0.0
  0
VERTEX
  5
1CE9
  8
SURVEY_LIMIT
  6
BYBLOCK
 10
175485.78925201279
 20
9939437.4800734855
 30
0.0
  0
VERTEX
  5
1CEA
  8
SURVEY_LIMIT
  6
BYBLOCK
 10
175625.0018181577
 20
9939525.3358535394
 30
0.0
  0
VERTEX
  5
1CEB
  8
SURVEY_LIMIT
  6
BYBLOCK
 10
175734.89427671939
 20
9939496.0559502542
 30
0.0
  0
VERTEX
  5
1CEC
  8
SURVEY_LIMIT
  6
BYBLOCK
 10
175822.7966545932
 20
9939518.0078426208
 30
0.0
  0
VERTEX
  5
1CED
  8
SURVEY_LIMIT
  6
BYBLOCK
 10
175940.01914004979
 20
9939466.7760469671
 30
0.0
  0
VERTEX
  5
1CEE
  8
SURVEY_LIMIT
  6
BYBLOCK
 10
176115.8238957971
 20
9939539.975805182
 30
0.0
  0
VERTEX
  5
1CEF
  8
SURVEY_LIMIT
  6
BYBLOCK
 10
176269.6675432958
 20
9939561.9276975468
 30
0.0
  0
VERTEX
  5
1CF0
  8
SURVEY_LIMIT
  6
BYBLOCK
 10
176408.88010944051
 20
9939554.6157568265
 30
0.0
  0
VERTEX
  5
1CF1
  8
SURVEY_LIMIT
  6
BYBLOCK
 10
176511.44254110361
 20
9939583.895660108
 30
0.0
  0
VERTEX
  5
1CF2
  8
SURVEY_LIMIT
  6
BYBLOCK
 10
176653.37851645419
 20
9939653.6724658534
 30
0.0
  0
VERTEX
  5
1CF3
  8
SURVEY_LIMIT
  6
BYBLOCK
 10
176696.75025662399
 20
9939704.9042615034
 30
0.0
  0
VERTEX
  5
1CF4
  8
SURVEY_LIMIT
  6
BYBLOCK
 10
176680.9602777361
 20
9939767.9315835014
 30
0.0
  0
VERTEX
  5
1CF5
  8
SURVEY_LIMIT
  6
BYBLOCK
 10
176594.2167973964
 20
9939799.4613147043
 30
0.0
  0
VERTEX
  5
1CF6
  8
SURVEY_LIMIT
  6
BYBLOCK
 10
176570.02481139451
 20
9939884.006633684
 30
0.0
  0
VERTEX
  5
1CF7
  8
SURVEY_LIMIT
  6
BYBLOCK
 10
176570.02481139451
 20
9939949.894451173
 30
0.0
  0
VERTEX
  5
1CF8
  8
SURVEY_LIMIT
  6
BYBLOCK
 10
176577.35483829299
 20
9940030.4222203083
 30
0.0
  0
VERTEX
  5
1CF9
  8
SURVEY_LIMIT
  6
BYBLOCK
 10
176577.35483829299
 20
9940096.2939676009
 30
0.0
  0
VERTEX
  5
1CFA
  8
SURVEY_LIMIT
  6
BYBLOCK
 10
176570.02481139451
 20
9940140.2138225269
 30
0.0
  0
VERTEX
  5
1CFB
  8
SURVEY_LIMIT
  6
BYBLOCK
 10
176562.72375693911
 20
9940184.1336774565
 30
0.0
  0
VERTEX
  5
1CFC
  8
SURVEY_LIMIT
  6
BYBLOCK
 10
176574.5734842121
 20
9940273.9660920408
 30
0.0
  0
VERTEX
  5
1CFD
  8
SURVEY_LIMIT
  6
BYBLOCK
 10
176578.51373582319
 20
9940333.0722853895
 30
0.0
  0
VERTEX
  5
1CFE
  8
SURVEY_LIMIT
  6
BYBLOCK
 10
176610.06472115961
 20
9940380.3508119881
 30
0.0
  0
VERTEX
  5
1CFF
  8
SURVEY_LIMIT
  6
BYBLOCK
 10
176696.8082014992
 20
9940411.8644729927
 30
0.0
  0
VERTEX
  5
1D00
  8
SURVEY_LIMIT
  6
BYBLOCK
 10
176783.5516818389
 20
9940403.9900752883
 30
0.0
  0
VERTEX
  5
1D01
  8
SURVEY_LIMIT
  6
BYBLOCK
 10
176791.34526775021
 20
9940488.969289653
 30
0.0
  0
VERTEX
  5
1D02
  8
SURVEY_LIMIT
  6
BYBLOCK
 10
176756.92601102221
 20
9940576.4715253245
 30
0.0
  0
VERTEX
  5
1D03
  8
SURVEY_LIMIT
  6
BYBLOCK
 10
176722.53572672981
 20
9940613.9633004926
 30
0.0
  0
VERTEX
  5
1D04
  8
SURVEY_LIMIT
  6
BYBLOCK
 10
176684.98744666181
 20
9940635.8509120606
 30
0.0
  0
VERTEX
  5
1D05
  8
SURVEY_LIMIT
  6
BYBLOCK
 10
176625.56497566021
 20
9940648.3535271846
 30
0.0
  0
VERTEX
  5
1D06
  8
SURVEY_LIMIT
  6
BYBLOCK
 10
176569.27152799809
 20
9940660.8400721103
 30
0.0
  0
VERTEX
  5
1D07
  8
SURVEY_LIMIT
  6
BYBLOCK
 10
176516.1071036754
 20
9940685.8453023583
 30
0.0
  0
VERTEX
  5
1D08
  8
SURVEY_LIMIT
  6
BYBLOCK
 10
176450.42658599469
 20
9940720.2194588482
 30
0.0
  0
VERTEX
  5
1D09
  8
SURVEY_LIMIT
  6
BYBLOCK
 10
176350.35578402501
 20
9940760.8449229058
 30
0.0
  0
VERTEX
  5
1D0A
  8
SURVEY_LIMIT
  6
BYBLOCK
 10
176281.5462430082
 20
9940820.2243096456
 30
0.0
  0
VERTEX
  5
1D0B
  8
SURVEY_LIMIT
  6
BYBLOCK
 10
176218.99474866691
 20
9940876.4700075034
 30
0.0
  0
VERTEX
  5
1D0C
  8
SURVEY_LIMIT
  6
BYBLOCK
 10
176165.83032434431
 20
9940938.9830831196
 30
0.0
  0
VERTEX
  5
1D0D
  8
SURVEY_LIMIT
  6
BYBLOCK
 10
176131.41106761619
 20
9940970.2235507276
 30
0.0
  0
VERTEX
  5
1D0E
  8
SURVEY_LIMIT
  6
BYBLOCK
 10
176059.5014756954
 20
9940998.3463996612
 30
0.0
  0
VERTEX
  5
1D0F
  8
SURVEY_LIMIT
  6
BYBLOCK
 10
175943.7565845958
 20
9941023.3516299073
 30
0.0
  0
VERTEX
  5
1D10
  8
SURVEY_LIMIT
  6
BYBLOCK
 10
175846.814805962
 20
9941007.7313960996
 30
0.0
  0
VERTEX
  5
1D11
  8
SURVEY_LIMIT
  6
BYBLOCK
 10
175762.36014825091
 20
9940995.2287809756
 30
0.0
  0
VERTEX
  5
1D12
  8
SURVEY_LIMIT
  6
BYBLOCK
 10
175441.7511457614
 20
9940984.5903089847
 30
0.0
  0
VERTEX
  5
1D13
  8
SURVEY_LIMIT
  6
BYBLOCK
 10
175299.8151704146
 20
9941008.2295722831
 30
0.0
  0
VERTEX
  5
1D14
  8
SURVEY_LIMIT
  6
BYBLOCK
 10
175157.85022262851
 20
9941004.2763032354
 30
0.0
  0
VERTEX
  5
1D15
  8
SURVEY_LIMIT
  6
BYBLOCK
 10
175075.04699390009
 20
9940992.4647066854
 30
0.0
  0
VERTEX
  5
1D16
  8
SURVEY_LIMIT
  6
BYBLOCK
 10
174972.542507112
 20
9941020.0411688387
 30
0.0
  0
VERTEX
  5
1D17
  8
SURVEY_LIMIT
  6
BYBLOCK
 10
174921.2902637198
 20
9941059.4452977329
 30
0.0
  0
VERTEX
  5
1D18
  8
SURVEY_LIMIT
  6
BYBLOCK
 10
174913.40976049381
 20
9941161.8767486364
 30
0.0
  0
VERTEX
  5
1D19
  8
SURVEY_LIMIT
  6
BYBLOCK
 10
174925.230515331
 20
9941217.0457431376
 30
0.0
  0
VERTEX
  5
1D1A
  8
SURVEY_LIMIT
  6
BYBLOCK
 10
174956.57869359851
 20
9941257.0766098127
 30
0.0
  0
VERTEX
  5
1D1B
  8
SURVEY_LIMIT
  6
BYBLOCK
 10
174988.10070649159
 20
9941308.2923352607
 30
0.0
  0
VERTEX
  5
1D1C
  8
SURVEY_LIMIT
  6
BYBLOCK
 10
175027.53219505021
 20
9941351.6336630117
 30
0.0
  0
VERTEX
  5
1D1D
  8
SURVEY_LIMIT
  6
BYBLOCK
 10
175070.90393522009
 20
9941458.0183829609
 30
0.0
  0
VERTEX
  5
1D1E
  8
SURVEY_LIMIT
  6
BYBLOCK
 10
175130.0656542778
 20
9941651.0696882121
 30
0.0
  0
VERTEX
  5
1D1F
  8
SURVEY_LIMIT
  6
BYBLOCK
 10
175106.39517216751
 20
9941792.9052680098
 30
0.0
  0
VERTEX
  5
1D20
  8
SURVEY_LIMIT
  6
BYBLOCK
 10
175086.6939141078
 20
9941887.4623212125
 30
0.0
  0
VERTEX
  5
1D21
  8
SURVEY_LIMIT
  6
BYBLOCK
 10
174956.57869359851
 20
9941918.9759822171
 30
0.0
  0
VERTEX
  5
1D22
  8
SURVEY_LIMIT
  6
BYBLOCK
 10
174830.4037246964
 20
9941934.740847813
 30
0.0
  0
VERTEX
  5
1D23
  8
SURVEY_LIMIT
  6
BYBLOCK
 10
174684.87516699731
 20
9941964.3582252804
 30
0.0
  0
VERTEX
  5
1D24
  8
SURVEY_LIMIT
  6
BYBLOCK
 10
174575.7070193961
 20
9942034.4725052118
 30
0.0
  0
VERTEX
  5
1D25
  8
SURVEY_LIMIT
  6
BYBLOCK
 10
174444.69365329671
 20
9942115.5145207327
 30
0.0
  0
VERTEX
  5
1D26
  8
SURVEY_LIMIT
  6
BYBLOCK
 10
174276.2768693231
 20
9942207.4521314278
 30
0.0
  0
VERTEX
  5
1D27
  8
SURVEY_LIMIT
  6
BYBLOCK
 10
174160.8796474784
 20
9942271.3472441956
 30
0.0
  0
VERTEX
  5
1D28
  8
SURVEY_LIMIT
  6
BYBLOCK
 10
174143.698991552
 20
9942332.1247382853
 30
0.0
  0
VERTEX
  5
1D29
  8
SURVEY_LIMIT
  6
BYBLOCK
 10
174188.9249677769
 20
9942350.8143801726
 30
0.0
  0
VERTEX
  5
1D2A
  8
SURVEY_LIMIT
  6
BYBLOCK
 10
174245.30533275381
 20
9942367.9452127162
 30
0.0
  0
VERTEX
  5
1D2B
  8
SURVEY_LIMIT
  6
BYBLOCK
 10
174295.2248439863
 20
9942372.6216407381
 30
0.0
  0
VERTEX
  5
1D2C
  8
SURVEY_LIMIT
  6
BYBLOCK
 10
174339.55267462131
 20
9942398.0125557743
 30
0.0
  0
VERTEX
  5
1D2D
  8
SURVEY_LIMIT
  6
BYBLOCK
 10
174398.8013109937
 20
9942448.7622454464
 30
0.0
  0
VERTEX
  5
1D2E
  8
SURVEY_LIMIT
  6
BYBLOCK
 10
174451.70498337221
 20
9942491.0590102375
 30
0.0
  0
VERTEX
  5
1D2F
  8
SURVEY_LIMIT
  6
BYBLOCK
 10
174489.80373976749
 20
9942520.6603175048
 30
0.0
  0
VERTEX
  5
1D30
  8
SURVEY_LIMIT
  6
BYBLOCK
 10
174508.83863174531
 20
9942611.5694354437
 30
0.0
  0
VERTEX
  5
1D31
  8
SURVEY_LIMIT
  6
BYBLOCK
 10
174462.27992336079
 20
9942689.8152362648
 30
0.0
  0
VERTEX
  5
1D32
  8
SURVEY_LIMIT
  6
BYBLOCK
 10
174439.01505538449
 20
9942740.5488557313
 30
0.0
  0
VERTEX
  5
1D33
  8
SURVEY_LIMIT
  6
BYBLOCK
 10
174491.918727763
 20
9942825.1263151132
 30
0.0
  0
VERTEX
  5
1D34
  8
SURVEY_LIMIT
  6
BYBLOCK
 10
174593.49609652531
 20
9942795.5250078402
 30
0.0
  0
VERTEX
  5
1D35
  8
SURVEY_LIMIT
  6
BYBLOCK
 10
174680.23957686871
 20
9942729.9907347355
 30
0.0
  0
VERTEX
  5
1D36
  8
SURVEY_LIMIT
  6
BYBLOCK
 10
174745.83317723111
 20
9942615.8119680844
 30
0.0
  0
VERTEX
  5
1D37
  8
SURVEY_LIMIT
  6
BYBLOCK
 10
174794.50687361509
 20
9942560.8358159754
 30
0.0
  0
VERTEX
  5
1D38
  8
SURVEY_LIMIT
  6
BYBLOCK
 10
174864.3594224118
 20
9942567.1674745344
 30
0.0
  0
VERTEX
  5
1D39
  8
SURVEY_LIMIT
  6
BYBLOCK
 10
174912.16394564501
 20
9942637.7638604455
 30
0.0
  0
VERTEX
  5
1D3A
  8
SURVEY_LIMIT
  6
BYBLOCK
 10
174976.65659335619
 20
9942708.6495099515
 30
0.0
  0
VERTEX
  5
1D3B
  8
SURVEY_LIMIT
  6
BYBLOCK
 10
175045.40818949789
 20
9942761.1669215448
 30
0.0
  0
VERTEX
  5
1D3C
  8
SURVEY_LIMIT
  6
BYBLOCK
 10
175073.54042710731
 20
9942879.9256950282
 30
0.0
  0
VERTEX
  5
1D3D
  8
SURVEY_LIMIT
  6
BYBLOCK
 10
175101.70163716
 20
9943001.8020871878
 30
0.0
  0
VERTEX
  5
1D3E
  8
SURVEY_LIMIT
  6
BYBLOCK
 10
175154.86606148249
 20
9943129.9297869094
 30
0.0
  0
VERTEX
  5
1D3F
  8
SURVEY_LIMIT
  6
BYBLOCK
 10
175164.2531315012
 20
9943204.9294074569
 30
0.0
  0
VERTEX
  5
1D40
  8
SURVEY_LIMIT
  6
BYBLOCK
 10
175114.21773051471
 20
9943267.4264128767
 30
0.0
  0
VERTEX
  5
1D41
  8
SURVEY_LIMIT
  6
BYBLOCK
 10
175073.54042710731
 20
9943298.6829506885
 30
0.0
  0
VERTEX
  5
1D42
  8
SURVEY_LIMIT
  6
BYBLOCK
 10
175064.1533570922
 20
9943373.6825712249
 30
0.0
  0
VERTEX
  5
1D43
  8
SURVEY_LIMIT
  6
BYBLOCK
 10
175067.2823804318
 20
9943467.4361144621
 30
0.0
  0
VERTEX
  5
1D44
  8
SURVEY_LIMIT
  6
BYBLOCK
 10
175079.79847378639
 20
9943514.3128860779
 30
0.0
  0
VERTEX
  5
1D45
  8
SURVEY_LIMIT
  6
BYBLOCK
 10
175123.57582809401
 20
9943526.8155012019
 30
0.0
  0
VERTEX
  5
1D46
  8
SURVEY_LIMIT
  6
BYBLOCK
 10
175192.38536911071
 20
9943511.1952673942
 30
0.0
  0
VERTEX
  5
1D47
  8
SURVEY_LIMIT
  6
BYBLOCK
 10
175248.678816773
 20
9943473.6874220241
 30
0.0
  0
VERTEX
  5
1D48
  8
SURVEY_LIMIT
  6
BYBLOCK
 10
175339.39152116681
 20
9943451.8158806562
 30
0.0
  0
VERTEX
  5
1D49
  8
SURVEY_LIMIT
  6
BYBLOCK
 10
175448.8493931517
 20
9943454.9334993362
 30
0.0
  0
VERTEX
  5
1D4A
  8
SURVEY_LIMIT
  6
BYBLOCK
 10
175499.60910509521
 20
9943484.1651920229
 30
0.0
  0
VERTEX
  5
1D4B
  8
SURVEY_LIMIT
  6
BYBLOCK
 10
175524.64129180461
 20
9943540.4108898807
 30
0.0
  0
VERTEX
  5
1D4C
  8
SURVEY_LIMIT
  6
BYBLOCK
 10
175593.4508328251
 20
9943556.0311236866
 30
0.0
  0
VERTEX
  5
1D4D
  8
SURVEY_LIMIT
  6
BYBLOCK
 10
175668.51842052111
 20
9943577.9187352546
 30
0.0
  0
VERTEX
  5
1D4E
  8
SURVEY_LIMIT
  6
BYBLOCK
 10
175731.06991486251
 20
9943602.9078953043
 30
0.0
  0
VERTEX
  5
1D4F
  8
SURVEY_LIMIT
  6
BYBLOCK
 10
175831.1407168321
 20
9943631.0468144324
 30
0.0
  0
VERTEX
  5
1D50
  8
SURVEY_LIMIT
  6
BYBLOCK
 10
175909.33732786769
 20
9943596.6565877404
 30
0.0
  0
VERTEX
  5
1D51
  8
SURVEY_LIMIT
  6
BYBLOCK
 10
175953.11468217149
 20
9943552.9135050066
 30
0.0
  0
VERTEX
  5
1D52
  8
SURVEY_LIMIT
  6
BYBLOCK
 10
175996.89203647891
 20
9943487.2828107048
 30
0.0
  0
VERTEX
  5
1D53
  8
SURVEY_LIMIT
  6
BYBLOCK
 10
176072.94468707961
 20
9943429.5907949023
 30
0.0
  0
VERTEX
  5
1D54
  8
SURVEY_LIMIT
  6
BYBLOCK
 10
176169.74160351601
 20
9943413.4723849148
 30
0.0
  0
VERTEX
  5
1D55
  8
SURVEY_LIMIT
  6
BYBLOCK
 10
176255.8187177777
 20
9943397.3539749272
 30
0.0
  0
VERTEX
  5
1D56
  8
SURVEY_LIMIT
  6
BYBLOCK
 10
176387.1797531358
 20
9943442.3987438157
 30
0.0
  0
VERTEX
  5
1D57
  8
SURVEY_LIMIT
  6
BYBLOCK
 10
176572.37157889819
 20
9943521.7212479934
 30
0.0
  0
VERTEX
  5
1D58
  8
SURVEY_LIMIT
  6
BYBLOCK
 10
176687.044489786
 20
9943539.3502567206
 30
0.0
  0
VERTEX
  5
1D59
  8
SURVEY_LIMIT
  6
BYBLOCK
 10
176801.6884282305
 20
9943521.7212479934
 30
0.0
  0
VERTEX
  5
1D5A
  8
SURVEY_LIMIT
  6
BYBLOCK
 10
176898.71712417519
 20
9943556.9631952494
 30
0.0
  0
VERTEX
  5
1D5B
  8
SURVEY_LIMIT
  6
BYBLOCK
 10
177013.3610626235
 20
9943574.5922039859
 30
0.0
  0
VERTEX
  5
1D5C
  8
SURVEY_LIMIT
  6
BYBLOCK
 10
177145.64921600741
 20
9943565.7857347168
 30
0.0
  0
VERTEX
  5
1D5D
  8
SURVEY_LIMIT
  6
BYBLOCK
 10
177198.5818608253
 20
9943442.3987438157
 30
0.0
  0
VERTEX
  5
1D5E
  8
SURVEY_LIMIT
  6
BYBLOCK
 10
177163.29343094671
 20
9943301.398814382
 30
0.0
  0
VERTEX
  5
1D5F
  8
SURVEY_LIMIT
  6
BYBLOCK
 10
177119.19737981629
 20
9943151.5924156867
 30
0.0
  0
VERTEX
  5
1D60
  8
SURVEY_LIMIT
  6
BYBLOCK
 10
177145.64921600741
 20
9943001.7699467875
 30
0.0
  0
VERTEX
  5
1D61
  8
SURVEY_LIMIT
  6
BYBLOCK
 10
177189.7742395736
 20
9942896.0280348118
 30
0.0
  0
VERTEX
  5
1D62
  8
SURVEY_LIMIT
  6
BYBLOCK
 10
177233.8702907039
 20
9942790.2700526398
 30
0.0
  0
VERTEX
  5
1D63
  8
SURVEY_LIMIT
  6
BYBLOCK
 10
177357.32185040039
 20
9942702.1410791967
 30
0.0
  0
VERTEX
  5
1D64
  8
SURVEY_LIMIT
  6
BYBLOCK
 10
177507.28319116301
 20
9942755.0120351836
 30
0.0
  0
VERTEX
  5
1D65
  8
SURVEY_LIMIT
  6
BYBLOCK
 10
177568.99448478961
 20
9942887.2054953538
 30
0.0
  0
VERTEX
  5
1D66
  8
SURVEY_LIMIT
  6
BYBLOCK
 10
177498.4465974718
 20
9943028.2054247819
 30
0.0
  0
VERTEX
  5
1D67
  8
SURVEY_LIMIT
  6
BYBLOCK
 10
177454.35054634509
 20
9943169.2053542119
 30
0.0
  0
VERTEX
  5
1D68
  8
SURVEY_LIMIT
  6
BYBLOCK
 10
177445.54292509329
 20
9943310.2213538494
 30
0.0
  0
VERTEX
  5
1D69
  8
SURVEY_LIMIT
  6
BYBLOCK
 10
177542.5426486021
 20
9943468.8502920084
 30
0.0
  0
VERTEX
  5
1D6A
  8
SURVEY_LIMIT
  6
BYBLOCK
 10
177524.89843366289
 20
9943583.4147434458
 30
0.0
  0
VERTEX
  5
1D6B
  8
SURVEY_LIMIT
  6
BYBLOCK
 10
177570.7328310906
 20
9943726.6645007916
 30
0.0
  0
VERTEX
  5
1D6C
  8
SURVEY_LIMIT
  6
BYBLOCK
 10
177629.92352258411
 20
9943825.2391038407
 30
0.0
  0
VERTEX
  5
1D6D
  8
SURVEY_LIMIT
  6
BYBLOCK
 10
177647.1910958252
 20
9943955.8416142631
 30
0.0
  0
VERTEX
  5
1D6E
  8
SURVEY_LIMIT
  6
BYBLOCK
 10
177642.2657813094
 20
9944014.996018216
 30
0.0
  0
VERTEX
  5
1D6F
  8
SURVEY_LIMIT
  6
BYBLOCK
 10
177666.9213263242
 20
9944034.6980826631
 30
0.0
  0
VERTEX
  5
1D70
  8
SURVEY_LIMIT
  6
BYBLOCK
 10
177753.25919253001
 20
9944066.7420602441
 30
0.0
  0
VERTEX
  5
1D71
  8
SURVEY_LIMIT
  6
BYBLOCK
 10
177800.1076252982
 20
9944180.1012467276
 30
0.0
  0
VERTEX
  5
1D72
  8
SURVEY_LIMIT
  6
BYBLOCK
 10
177819.8378557972
 20
9944249.0906127021
 30
0.0
  0
VERTEX
  5
1D73
  8
SURVEY_LIMIT
  6
BYBLOCK
 10
177844.49340080839
 20
9944310.7037571575
 30
0.0
  0
VERTEX
  5
1D74
  8
SURVEY_LIMIT
  6
BYBLOCK
 10
177940.68189604199
 20
9944426.5216841474
 30
0.0
  0
VERTEX
  5
1D75
  8
SURVEY_LIMIT
  6
BYBLOCK
 10
177994.5706313251
 20
9944536.6025499552
 30
0.0
  0
VERTEX
  5
1D76
  8
SURVEY_LIMIT
  6
BYBLOCK
 10
177972.37774356821
 20
9944649.9617364407
 30
0.0
  0
VERTEX
  5
1D77
  8
SURVEY_LIMIT
  6
BYBLOCK
 10
177903.30745060739
 20
9944723.8846536297
 30
0.0
  0
VERTEX
  5
1D78
  8
SURVEY_LIMIT
  6
BYBLOCK
 10
177834.26613008231
 20
9944822.459256677
 30
0.0
  0
VERTEX
  5
1D79
  8
SURVEY_LIMIT
  6
BYBLOCK
 10
177703.54248836631
 20
9944832.3102889024
 30
0.0
  0
VERTEX
  5
1D7A
  8
SURVEY_LIMIT
  6
BYBLOCK
 10
177567.9225045738
 20
9944807.6746732369
 30
0.0
  0
VERTEX
  5
1D7B
  8
SURVEY_LIMIT
  6
BYBLOCK
 10
177437.19886285809
 20
9944829.8515483923
 30
0.0
  0
VERTEX
  5
1D7C
  8
SURVEY_LIMIT
  6
BYBLOCK
 10
177368.12856989351
 20
9944903.7744655833
 30
0.0
  0
VERTEX
  5
1D7D
  8
SURVEY_LIMIT
  6
BYBLOCK
 10
177279.3570188692
 20
9944921.0338597205
 30
0.0
  0
VERTEX
  5
1D7E
  8
SURVEY_LIMIT
  6
BYBLOCK
 10
177126.44048940009
 20
9944891.4646928459
 30
0.0
  0
VERTEX
  5
1D7F
  8
SURVEY_LIMIT
  6
BYBLOCK
 10
176939.01778588441
 20
9944935.8184431549
 30
0.0
  0
VERTEX
  5
1D80
  8
SURVEY_LIMIT
  6
BYBLOCK
 10
176884.752408903
 20
9945012.2161710467
 30
0.0
  0
VERTEX
  5
1D81
  8
SURVEY_LIMIT
  6
BYBLOCK
 10
176815.7110883779
 20
9945095.9901204612
 30
0.0
  0
VERTEX
  5
1D82
  8
SURVEY_LIMIT
  6
BYBLOCK
 10
176763.90836865819
 20
9945174.8465888556
 30
0.0
  0
VERTEX
  5
1D83
  8
SURVEY_LIMIT
  6
BYBLOCK
 10
176726.7657027244
 20
9945247.2749775033
 30
0.0
  0
VERTEX
  5
1D84
  8
SURVEY_LIMIT
  6
BYBLOCK
 10
176827.87951247391
 20
9945299.0370897315
 30
0.0
  0
VERTEX
  5
1D85
  8
SURVEY_LIMIT
  6
BYBLOCK
 10
176948.72355272251
 20
9945257.1420799308
 30
0.0
  0
VERTEX
  5
1D86
  8
SURVEY_LIMIT
  6
BYBLOCK
 10
177030.10713197291
 20
9945274.3854038697
 30
0.0
  0
VERTEX
  5
1D87
  8
SURVEY_LIMIT
  6
BYBLOCK
 10
177072.03025022891
 20
9945321.2139648832
 30
0.0
  0
VERTEX
  5
1D88
  8
SURVEY_LIMIT
  6
BYBLOCK
 10
177091.7604807243
 20
9945387.7445903532
 30
0.0
  0
VERTEX
  5
1D89
  8
SURVEY_LIMIT
  6
BYBLOCK
 10
177086.83516621211
 20
9945412.3962762114
 30
0.0
  0
VERTEX
  5
1D8A
  8
SURVEY_LIMIT
  6
BYBLOCK
 10
177072.03025022891
 20
9945439.4906323832
 30
0.0
  0
VERTEX
  5
1D8B
  8
SURVEY_LIMIT
  6
BYBLOCK
 10
177035.06141892821
 20
9945471.5346099604
 30
0.0
  0
VERTEX
  5
1D8C
  8
SURVEY_LIMIT
  6
BYBLOCK
 10
176983.25869920471
 20
9945496.170225624
 30
0.0
  0
VERTEX
  5
1D8D
  8
SURVEY_LIMIT
  6
BYBLOCK
 10
176894.45817574111
 20
9945478.9269016832
 30
0.0
  0
VERTEX
  5
1D8E
  8
SURVEY_LIMIT
  6
BYBLOCK
 10
176783.03017795071
 20
9945482.6391177401
 30
0.0
  0
VERTEX
  5
1D8F
  8
SURVEY_LIMIT
  6
BYBLOCK
 10
176658.68047266451
 20
9945539.2705003843
 30
0.0
  0
VERTEX
  5
1D90
  8
SURVEY_LIMIT
  6
BYBLOCK
 10
176465.69506099439
 20
9945528.6320283879
 30
0.0
  0
VERTEX
  5
1D91
  8
SURVEY_LIMIT
  6
BYBLOCK
 10
176375.0113290399
 20
9945422.1026766468
 30
0.0
  0
VERTEX
  5
1D92
  8
SURVEY_LIMIT
  6
BYBLOCK
 10
176312.02524812511
 20
9945289.2021277081
 30
0.0
  0
VERTEX
  5
1D93
  8
SURVEY_LIMIT
  6
BYBLOCK
 10
176228.03414942321
 20
9945317.1803448349
 30
0.0
  0
VERTEX
  5
1D94
  8
SURVEY_LIMIT
  6
BYBLOCK
 10
176242.02783713481
 20
9945485.0496476516
 30
0.0
  0
VERTEX
  5
1D95
  8
SURVEY_LIMIT
  6
BYBLOCK
 10
176305.0139180496
 20
9945673.8905606586
 30
0.0
  0
VERTEX
  5
1D96
  8
SURVEY_LIMIT
  6
BYBLOCK
 10
176431.01505231849
 20
9945792.7939659338
 30
0.0
  0
VERTEX
  5
1D97
  8
SURVEY_LIMIT
  6
BYBLOCK
 10
176528.9998387284
 20
9945855.7409369368
 30
0.0
  0
VERTEX
  5
1D98
  8
SURVEY_LIMIT
  6
BYBLOCK
 10
176487.01877559701
 20
9945988.6254156809
 30
0.0
  0
VERTEX
  5
1D99
  8
SURVEY_LIMIT
  6
BYBLOCK
 10
176459.0024277381
 20
9946093.5316772833
 30
0.0
  0
VERTEX
  5
1D9A
  8
SURVEY_LIMIT
  6
BYBLOCK
 10
176361.01764132819
 20
9946177.466328688
 30
0.0
  0
VERTEX
  5
1D9B
  8
SURVEY_LIMIT
  6
BYBLOCK
 10
176431.01505231849
 20
9946254.41044336
 30
0.0
  0
VERTEX
  5
1D9C
  8
SURVEY_LIMIT
  6
BYBLOCK
 10
176578.0212043747
 20
9946331.33848783
 30
0.0
  0
VERTEX
  5
1D9D
  8
SURVEY_LIMIT
  6
BYBLOCK
 10
176655.0009729974
 20
9946401.2759955674
 30
0.0
  0
VERTEX
  5
1D9E
  8
SURVEY_LIMIT
  6
BYBLOCK
 10
176843.98818818101
 20
9946492.2011837084
 30
0.0
  0
VERTEX
  5
1D9F
  8
SURVEY_LIMIT
  6
BYBLOCK
 10
176963.00696481761
 20
9946590.1329787783
 30
0.0
  0
VERTEX
  5
1DA0
  8
SURVEY_LIMIT
  6
BYBLOCK
 10
176934.99061695859
 20
9946771.9833550528
 30
0.0
  0
VERTEX
  5
1DA1
  8
SURVEY_LIMIT
  6
BYBLOCK
 10
176864.877316214
 20
9946906.4909239318
 30
0.0
  0
VERTEX
  5
1DA2
  8
SURVEY_LIMIT
  6
BYBLOCK
 10
176787.86857515201
 20
9946976.428431673
 30
0.0
  0
VERTEX
  5
1DA3
  8
SURVEY_LIMIT
  6
BYBLOCK
 10
176668.87877095479
 20
9947032.3848659396
 30
0.0
  0
VERTEX
  5
1DA4
  8
SURVEY_LIMIT
  6
BYBLOCK
 10
176570.89398454491
 20
9947074.3602267429
 30
0.0
  0
VERTEX
  5
1DA5
  8
SURVEY_LIMIT
  6
BYBLOCK
 10
176465.89786805949
 20
9947032.3848659396
 30
0.0
  0
VERTEX
  5
1DA6
  8
SURVEY_LIMIT
  6
BYBLOCK
 10
176381.87779692179
 20
9946927.4786043353
 30
0.0
  0
VERTEX
  5
1DA7
  8
SURVEY_LIMIT
  6
BYBLOCK
 10
176279.95275890079
 20
9946786.7840086874
 30
0.0
  0
VERTEX
  5
1DA8
  8
SURVEY_LIMIT
  6
BYBLOCK
 10
176220.64617765319
 20
9946749.7421991006
 30
0.0
  0
VERTEX
  5
1DA9
  8
SURVEY_LIMIT
  6
BYBLOCK
 10
176176.14451238871
 20
9946690.4592335615
 30
0.0
  0
VERTEX
  5
1DAA
  8
SURVEY_LIMIT
  6
BYBLOCK
 10
176116.8379311375
 20
9946638.6007001307
 30
0.0
  0
VERTEX
  5
1DAB
  8
SURVEY_LIMIT
  6
BYBLOCK
 10
176094.5870985052
 20
9946575.6215887275
 30
0.0
  0
VERTEX
  5
1DAC
  8
SURVEY_LIMIT
  6
BYBLOCK
 10
176013.0296846256
 20
9946527.4752713647
 30
0.0
  0
VERTEX
  5
1DAD
  8
SURVEY_LIMIT
  6
BYBLOCK
 10
175949.98565883559
 20
9946475.6167379357
 30
0.0
  0
VERTEX
  5
1DAE
  8
SURVEY_LIMIT
  6
BYBLOCK
 10
175924.0553265326
 20
9946434.8627122901
 30
0.0
  0
VERTEX
  5
1DAF
  8
SURVEY_LIMIT
  6
BYBLOCK
 10
175879.5536612682
 20
9946394.1086866409
 30
0.0
  0
VERTEX
  5
1DB0
  8
SURVEY_LIMIT
  6
BYBLOCK
 10
175831.37249633661
 20
9946331.1456454378
 30
0.0
  0
VERTEX
  5
1DB1
  8
SURVEY_LIMIT
  6
BYBLOCK
 10
175783.16235896561
 20
9946290.3916197922
 30
0.0
  0
VERTEX
  5
1DB2
  8
SURVEY_LIMIT
  6
BYBLOCK
 10
175734.98119403419
 20
9946260.7581721153
 30
0.0
  0
VERTEX
  5
1DB3
  8
SURVEY_LIMIT
  6
BYBLOCK
 10
175690.47952876971
 20
9946231.1247244459
 30
0.0
  0
VERTEX
  5
1DB4
  8
SURVEY_LIMIT
  6
BYBLOCK
 10
175612.6305869928
 20
9946197.7790607139
 30
0.0
  0
VERTEX
  5
1DB5
  8
SURVEY_LIMIT
  6
BYBLOCK
 10
175571.8373938351
 20
9946168.1456130445
 30
0.0
  0
VERTEX
  5
1DB6
  8
SURVEY_LIMIT
  6
BYBLOCK
 10
175518.70194194841
 20
9946121.2688414268
 30
0.0
  0
VERTEX
  5
1DB7
  8
SURVEY_LIMIT
  6
BYBLOCK
 10
175463.27766743669
 20
9946060.2181539517
 30
0.0
  0
VERTEX
  5
1DB8
  8
SURVEY_LIMIT
  6
BYBLOCK
 10
175427.7574580535
 20
9946026.1332610548
 30
0.0
  0
VERTEX
  5
1DB9
  8
SURVEY_LIMIT
  6
BYBLOCK
 10
175400.7551455349
 20
9946023.3049059603
 30
0.0
  0
VERTEX
  5
1DBA
  8
SURVEY_LIMIT
  6
BYBLOCK
 10
175375.2014549337
 20
9946046.012097694
 30
0.0
  0
VERTEX
  5
1DBB
  8
SURVEY_LIMIT
  6
BYBLOCK
 10
175358.13668876141
 20
9946082.9253456928
 30
0.0
  0
VERTEX
  5
1DBC
  8
SURVEY_LIMIT
  6
BYBLOCK
 10
175304.1320637241
 20
9946129.7860471029
 30
0.0
  0
VERTEX
  5
1DBD
  8
SURVEY_LIMIT
  6
BYBLOCK
 10
175238.7702428698
 20
9946189.4225570336
 30
0.0
  0
VERTEX
  5
1DBE
  8
SURVEY_LIMIT
  6
BYBLOCK
 10
175144.98646001509
 20
9946250.4732445125
 30
0.0
  0
VERTEX
  5
1DBF
  8
SURVEY_LIMIT
  6
BYBLOCK
 10
175003.9196578188
 20
9946358.4328439981
 30
0.0
  0
VERTEX
  5
1DC0
  8
SURVEY_LIMIT
  6
BYBLOCK
 10
174943.71493098131
 20
9946391.8588587306
 30
0.0
  0
VERTEX
  5
1DC1
  8
SURVEY_LIMIT
  6
BYBLOCK
 10
174883.48123170799
 20
9946414.1482252758
 30
0.0
  0
VERTEX
  5
1DC2
  8
SURVEY_LIMIT
  6
BYBLOCK
 10
174803.1986051127
 20
9946454.2594429571
 30
0.0
  0
VERTEX
  5
1DC3
  8
SURVEY_LIMIT
  6
BYBLOCK
 10
174745.19578358901
 20
9946512.2085819449
 30
0.0
  0
VERTEX
  5
1DC4
  8
SURVEY_LIMIT
  6
BYBLOCK
 10
174749.657539092
 20
9946574.6091661677
 30
0.0
  0
VERTEX
  5
1DC5
  8
SURVEY_LIMIT
  6
BYBLOCK
 10
174767.5045610964
 20
9946625.8731022216
 30
0.0
  0
VERTEX
  5
1DC6
  8
SURVEY_LIMIT
  6
BYBLOCK
 10
174774.22616678849
 20
9946662.2881740294
 30
0.0
  0
VERTEX
  5
1DC7
  8
SURVEY_LIMIT
  6
BYBLOCK
 10
174781.87489050621
 20
9946687.7433698624
 30
0.0
  0
VERTEX
  5
1DC8
  8
SURVEY_LIMIT
  6
BYBLOCK
 10
174840.48613323271
 20
9946703.0261294805
 30
0.0
  0
VERTEX
  5
1DC9
  8
SURVEY_LIMIT
  6
BYBLOCK
 10
174922.04354711619
 20
9946731.0364870112
 30
0.0
  0
VERTEX
  5
1DCA
  8
SURVEY_LIMIT
  6
BYBLOCK
 10
174988.30351356039
 20
9946789.6123637781
 30
0.0
  0
VERTEX
  5
1DCB
  8
SURVEY_LIMIT
  6
BYBLOCK
 10
175041.8156071454
 20
9946891.4652875047
 30
0.0
  0
VERTEX
  5
1DCC
  8
SURVEY_LIMIT
  6
BYBLOCK
 10
175054.56348000839
 20
9946950.0411642734
 30
0.0
  0
VERTEX
  5
1DCD
  8
SURVEY_LIMIT
  6
BYBLOCK
 10
175054.56348000839
 20
9947031.5331453718
 30
0.0
  0
VERTEX
  5
1DCE
  8
SURVEY_LIMIT
  6
BYBLOCK
 10
175018.8984084315
 20
9947087.5538604409
 30
0.0
  0
VERTEX
  5
1DCF
  8
SURVEY_LIMIT
  6
BYBLOCK
 10
174955.1880165562
 20
9947148.6688287165
 30
0.0
  0
VERTEX
  5
1DD0
  8
SURVEY_LIMIT
  6
BYBLOCK
 10
174899.0973759628
 20
9947214.8780501932
 30
0.0
  0
VERTEX
  5
1DD1
  8
SURVEY_LIMIT
  6
BYBLOCK
 10
174873.6306026763
 20
9947270.8987652622
 30
0.0
  0
VERTEX
  5
1DD2
  8
SURVEY_LIMIT
  6
BYBLOCK
 10
174850.684431523
 20
9947288.7206163816
 30
0.0
  0
VERTEX
  5
1DD3
  8
SURVEY_LIMIT
  6
BYBLOCK
 10
174797.1723379418
 20
9947296.3700312898
 30
0.0
  0
VERTEX
  5
1DD4
  8
SURVEY_LIMIT
  6
BYBLOCK
 10
174769.1270176433
 20
9947319.2861356158
 30
0.0
  0
VERTEX
  5
1DD5
  8
SURVEY_LIMIT
  6
BYBLOCK
 10
174745.5434528476
 20
9947362.3542699758
 30
0.0
  0
VERTEX
  5
1DD6
  8
SURVEY_LIMIT
  6
BYBLOCK
 10
174738.79287471989
 20
9947406.2098441049
 30
0.0
  0
VERTEX
  5
1DD7
  8
SURVEY_LIMIT
  6
BYBLOCK
 10
174715.1513650454
 20
9947450.0654182415
 30
0.0
  0
VERTEX
  5
1DD8
  8
SURVEY_LIMIT
  6
BYBLOCK
 10
174654.39616188401
 20
9947497.2957342397
 30
0.0
  0
VERTEX
  5
1DD9
  8
SURVEY_LIMIT
  6
BYBLOCK
 10
174613.892693106
 20
9947551.2594637889
 30
0.0
  0
VERTEX
  5
1DDA
  8
SURVEY_LIMIT
  6
BYBLOCK
 10
174580.11083002001
 20
9947632.2211283036
 30
0.0
  0
VERTEX
  5
1DDB
  8
SURVEY_LIMIT
  6
BYBLOCK
 10
174553.1085175052
 20
9947669.3272186946
 30
0.0
  0
VERTEX
  5
1DDC
  8
SURVEY_LIMIT
  6
BYBLOCK
 10
174521.58650460839
 20
9947723.0498952456
 30
0.0
  0
VERTEX
  5
1DDD
  8
SURVEY_LIMIT
  6
BYBLOCK
 10
174478.2437368742
 20
9947761.2487591933
 30
0.0
  0
VERTEX
  5
1DDE
  8
SURVEY_LIMIT
  6
BYBLOCK
 10
174442.57866529751
 20
9947809.6200593524
 30
0.0
  0
VERTEX
  5
1DDF
  8
SURVEY_LIMIT
  6
BYBLOCK
 10
174404.79860572511
 20
9947886.0820680391
 30
0.0
  0
VERTEX
  5
1DE0
  8
SURVEY_LIMIT
  6
BYBLOCK
 10
174363.3969913609
 20
9947950.4592867903
 30
0.0
  0
VERTEX
  5
1DE1
  8
SURVEY_LIMIT
  6
BYBLOCK
 10
174321.9664045572
 20
9948037.8329608627
 30
0.0
  0
VERTEX
  5
1DE2
  8
SURVEY_LIMIT
  6
BYBLOCK
 10
174294.35567083571
 20
9948115.9984106869
 30
0.0
  0
VERTEX
  5
1DE3
  8
SURVEY_LIMIT
  6
BYBLOCK
 10
174206.91685197499
 20
9948138.9948660098
 30
0.0
  0
VERTEX
  5
1DE4
  8
SURVEY_LIMIT
  6
BYBLOCK
 10
174183.91273594639
 20
9948047.0251149125
 30
0.0
  0
VERTEX
  5
1DE5
  8
SURVEY_LIMIT
  6
BYBLOCK
 10
174151.69538453221
 20
9948005.6443514898
 30
0.0
  0
VERTEX
  5
1DE6
  8
SURVEY_LIMIT
  6
BYBLOCK
 10
174101.08053477851
 20
9947941.2671327386
 30
0.0
  0
VERTEX
  5
1DE7
  8
SURVEY_LIMIT
  6
BYBLOCK
 10
174096.47391708559
 20
9947858.5056058913
 30
0.0
  0
VERTEX
  5
1DE8
  8
SURVEY_LIMIT
  6
BYBLOCK
 10
174105.68715247509
 20
9947794.128387142
 30
0.0
  0
VERTEX
  5
1DE9
  8
SURVEY_LIMIT
  6
BYBLOCK
 10
174091.8672993927
 20
9947697.562559016
 30
0.0
  0
VERTEX
  5
1DEA
  8
SURVEY_LIMIT
  6
BYBLOCK
 10
174087.2606816999
 20
9947522.8312810697
 30
0.0
  0
VERTEX
  5
1DEB
  8
SURVEY_LIMIT
  6
BYBLOCK
 10
174082.6540640071
 20
9947394.0768435728
 30
0.0
  0
VERTEX
  5
1DEC
  8
SURVEY_LIMIT
  6
BYBLOCK
 10
174036.64583195001
 20
9947297.5110154469
 30
0.0
  0
VERTEX
  5
1DED
  8
SURVEY_LIMIT
  6
BYBLOCK
 10
173976.81774681059
 20
9947320.5074707717
 30
0.0
  0
VERTEX
  5
1DEE
  8
SURVEY_LIMIT
  6
BYBLOCK
 10
173986.0309821963
 20
9947403.2689976208
 30
0.0
  0
VERTEX
  5
1DEF
  8
SURVEY_LIMIT
  6
BYBLOCK
 10
173967.6045114249
 20
9947467.6462163702
 30
0.0
  0
VERTEX
  5
1DF0
  8
SURVEY_LIMIT
  6
BYBLOCK
 10
173963.0268661677
 20
9947591.8045768458
 30
0.0
  0
VERTEX
  5
1DF1
  8
SURVEY_LIMIT
  6
BYBLOCK
 10
173990.6375998891
 20
9947720.5429441407
 30
0.0
  0
VERTEX
  5
1DF2
  8
SURVEY_LIMIT
  6
BYBLOCK
 10
173978.38225847849
 20
9947798.9012363628
 30
0.0
  0
VERTEX
  5
1DF3
  8
SURVEY_LIMIT
  6
BYBLOCK
 10
173937.56009288121
 20
9947825.7706097364
 30
0.0
  0
VERTEX
  5
1DF4
  8
SURVEY_LIMIT
  6
BYBLOCK
 10
173886.42373923949
 20
9947825.5777673442
 30
0.0
  0
VERTEX
  5
1DF5
  8
SURVEY_LIMIT
  6
BYBLOCK
 10
173831.52096861601
 20
9947807.1773890443
 30
0.0
  0
VERTEX
  5
1DF6
  8
SURVEY_LIMIT
  6
BYBLOCK
 10
173785.54170899841
 20
9947674.4054016992
 30
0.0
  0
VERTEX
  5
1DF7
  8
SURVEY_LIMIT
  6
BYBLOCK
 10
173687.643839903
 20
9947561.7693741899
 30
0.0
  0
VERTEX
  5
1DF8
  8
SURVEY_LIMIT
  6
BYBLOCK
 10
173542.2891168333
 20
9947526.1899527442
 30
0.0
  0
VERTEX
  5
1DF9
  8
SURVEY_LIMIT
  6
BYBLOCK
 10
173390.99504390731
 20
9947511.3732289057
 30
0.0
  0
VERTEX
  5
1DFA
  8
SURVEY_LIMIT
  6
BYBLOCK
 10
173236.71680983531
 20
9947526.1899527442
 30
0.0
  0
VERTEX
  5
1DFB
  8
SURVEY_LIMIT
  6
BYBLOCK
 10
173121.02986361081
 20
9947520.260049168
 30
0.0
  0
VERTEX
  5
1DFC
  8
SURVEY_LIMIT
  6
BYBLOCK
 10
172990.4800565241
 20
9947499.5134217571
 30
0.0
  0
VERTEX
  5
1DFD
  8
SURVEY_LIMIT
  6
BYBLOCK
 10
172803.60782933611
 20
9947460.9770836234
 30
0.0
  0
VERTEX
  5
1DFE
  8
SURVEY_LIMIT
  6
BYBLOCK
 10
172803.60782933611
 20
9947460.9770836234
 30
0.0
  0
VERTEX
  5
1DFF
  8
SURVEY_LIMIT
  6
BYBLOCK
 10
172655.26894512019
 20
9947431.3436359558
 30
0.0
  0
VERTEX
  5
1E00
  8
SURVEY_LIMIT
  6
BYBLOCK
 10
172575.16015315801
 20
9947449.1172764767
 30
0.0
  0
VERTEX
  5
1E01
  8
SURVEY_LIMIT
  6
BYBLOCK
 10
172563.3104258813
 20
9947520.260049168
 30
0.0
  0
VERTEX
  5
1E02
  8
SURVEY_LIMIT
  6
BYBLOCK
 10
172622.79084176189
 20
9947627.6732618753
 30
0.0
  0
VERTEX
  5
1E03
  8
SURVEY_LIMIT
  6
BYBLOCK
 10
172725.2373836711
 20
9947668.6201299205
 30
0.0
  0
VERTEX
  5
1E04
  8
SURVEY_LIMIT
  6
BYBLOCK
 10
172827.7128980234
 20
9947730.0565021783
 30
0.0
  0
VERTEX
  5
1E05
  8
SURVEY_LIMIT
  6
BYBLOCK
 10
172909.7048984766
 20
9947784.6630397029
 30
0.0
  0
VERTEX
  5
1E06
  8
SURVEY_LIMIT
  6
BYBLOCK
 10
173039.47244973111
 20
9947811.9663084634
 30
0.0
  0
VERTEX
  5
1E07
  8
SURVEY_LIMIT
  6
BYBLOCK
 10
173114.62695474181
 20
9947852.9131765049
 30
0.0
  0
VERTEX
  5
1E08
  8
SURVEY_LIMIT
  6
BYBLOCK
 10
173114.62695474181
 20
9947921.1633133031
 30
0.0
  0
VERTEX
  5
1E09
  8
SURVEY_LIMIT
  6
BYBLOCK
 10
173150.1181916855
 20
9948008.9226721637
 30
0.0
  0
VERTEX
  5
1E0A
  8
SURVEY_LIMIT
  6
BYBLOCK
 10
173137.8628502748
 20
9948074.0712604821
 30
0.0
  0
VERTEX
  5
1E0B
  8
SURVEY_LIMIT
  6
BYBLOCK
 10
173139.42736194649
 20
9948133.4506472237
 30
0.0
  0
VERTEX
  5
1E0C
  8
SURVEY_LIMIT
  6
BYBLOCK
 10
173165.99508788809
 20
9948183.4611077216
 30
0.0
  0
VERTEX
  5
1E0D
  8
SURVEY_LIMIT
  6
BYBLOCK
 10
173220.75299631801
 20
9948230.3378793355
 30
0.0
  0
VERTEX
  5
1E0E
  8
SURVEY_LIMIT
  6
BYBLOCK
 10
173286.43351399901
 20
9948269.4206042476
 30
0.0
  0
VERTEX
  5
1E0F
  8
SURVEY_LIMIT
  6
BYBLOCK
 10
173344.29147333279
 20
9948302.2359513976
 30
0.0
  0
VERTEX
  5
1E10
  8
SURVEY_LIMIT
  6
BYBLOCK
 10
173374.01719504959
 20
9948331.9176096637
 30
0.0
  0
VERTEX
  5
1E11
  8
SURVEY_LIMIT
  6
BYBLOCK
 10
173411.56547511739
 20
9948356.9228399154
 30
0.0
  0
VERTEX
  5
1E12
  8
SURVEY_LIMIT
  6
BYBLOCK
 10
173433.43966605139
 20
9948394.4306852855
 30
0.0
  0
VERTEX
  5
1E13
  8
SURVEY_LIMIT
  6
BYBLOCK
 10
173441.2622243985
 20
9948435.0561493412
 30
0.0
  0
VERTEX
  5
1E14
  8
SURVEY_LIMIT
  6
BYBLOCK
 10
173397.48487009481
 20
9948478.8153022751
 30
0.0
  0
VERTEX
  5
1E15
  8
SURVEY_LIMIT
  6
BYBLOCK
 10
173359.93659002689
 20
9948503.8205325268
 30
0.0
  0
VERTEX
  5
1E16
  8
SURVEY_LIMIT
  6
BYBLOCK
 10
173309.90118904039
 20
9948528.8257627729
 30
0.0
  0
VERTEX
  5
1E17
  8
SURVEY_LIMIT
  6
BYBLOCK
 10
173275.48193231219
 20
9948580.395032607
 30
0.0
  0
VERTEX
  5
1E18
  8
SURVEY_LIMIT
  6
BYBLOCK
 10
173266.094862297
 20
9948631.964302443
 30
0.0
  0
VERTEX
  5
1E19
  8
SURVEY_LIMIT
  6
BYBLOCK
 10
173203.5433679558
 20
9948674.1646460369
 30
0.0
  0
VERTEX
  5
1E1A
  8
SURVEY_LIMIT
  6
BYBLOCK
 10
173168.77644196901
 20
9948689.1902824622
 30
0.0
  0
VERTEX
  5
1E1B
  8
SURVEY_LIMIT
  6
BYBLOCK
 10
173143.74425525591
 20
9948770.4572807718
 30
0.0
  0
VERTEX
  5
1E1C
  8
SURVEY_LIMIT
  6
BYBLOCK
 10
173081.19276091451
 20
9948822.0265506078
 30
0.0
  0
VERTEX
  5
1E1D
  8
SURVEY_LIMIT
  6
BYBLOCK
 10
172998.30261487141
 20
9948854.8418977596
 30
0.0
  0
VERTEX
  5
1E1E
  8
SURVEY_LIMIT
  6
BYBLOCK
 10
172932.62209719041
 20
9948892.3497431315
 30
0.0
  0
VERTEX
  5
1E1F
  8
SURVEY_LIMIT
  6
BYBLOCK
 10
172873.1996261887
 20
9948900.1759302337
 30
0.0
  0
VERTEX
  5
1E20
  8
SURVEY_LIMIT
  6
BYBLOCK
 10
172804.36111273241
 20
9948904.8523582555
 30
0.0
  0
VERTEX
  5
1E21
  8
SURVEY_LIMIT
  6
BYBLOCK
 10
172744.9386417307
 20
9948928.2987791654
 30
0.0
  0
VERTEX
  5
1E22
  8
SURVEY_LIMIT
  6
BYBLOCK
 10
172673.0000773741
 20
9948954.8628187533
 30
0.0
  0
VERTEX
  5
1E23
  8
SURVEY_LIMIT
  6
BYBLOCK
 10
172594.80346633861
 20
9948979.8680490013
 30
0.0
  0
VERTEX
  5
1E24
  8
SURVEY_LIMIT
  6
BYBLOCK
 10
172510.34880862749
 20
9949000.1807810254
 30
0.0
  0
VERTEX
  5
1E25
  8
SURVEY_LIMIT
  6
BYBLOCK
 10
172453.5048846342
 20
9949058.6923769955
 30
0.0
  0
VERTEX
  5
1E26
  8
SURVEY_LIMIT
  6
BYBLOCK
 10
172406.5985069907
 20
9949133.7080677412
 30
0.0
  0
VERTEX
  5
1E27
  8
SURVEY_LIMIT
  6
BYBLOCK
 10
172364.35669191551
 20
9949216.533875389
 30
0.0
  0
VERTEX
  5
1E28
  8
SURVEY_LIMIT
  6
BYBLOCK
 10
172311.19226758921
 20
9949308.7286092807
 30
0.0
  0
VERTEX
  5
1E29
  8
SURVEY_LIMIT
  6
BYBLOCK
 10
172212.6570048517
 20
9949374.3753737826
 30
0.0
  0
VERTEX
  5
1E2A
  8
SURVEY_LIMIT
  6
BYBLOCK
 10
172124.8125718571
 20
9949396.9540039208
 30
0.0
  0
VERTEX
  5
1E2B
  8
SURVEY_LIMIT
  6
BYBLOCK
 10
172052.35250360891
 20
9949466.2004930805
 30
0.0
  0
VERTEX
  5
1E2C
  8
SURVEY_LIMIT
  6
BYBLOCK
 10
171948.37042246381
 20
9949491.3824955262
 30
0.0
  0
VERTEX
  5
1E2D
  8
SURVEY_LIMIT
  6
BYBLOCK
 10
171951.64430799699
 20
9949385.6245133504
 30
0.0
  0
VERTEX
  5
1E2E
  8
SURVEY_LIMIT
  6
BYBLOCK
 10
171897.00228931749
 20
9949324.2042112928
 30
0.0
  0
VERTEX
  5
1E2F
  8
SURVEY_LIMIT
  6
BYBLOCK
 10
171835.52277519551
 20
9949276.4114383087
 30
0.0
  0
VERTEX
  5
1E30
  8
SURVEY_LIMIT
  6
BYBLOCK
 10
171815.03926130009
 20
9949187.6878674868
 30
0.0
  0
VERTEX
  5
1E31
  8
SURVEY_LIMIT
  6
BYBLOCK
 10
171760.36827018479
 20
9949133.0813299678
 30
0.0
  0
VERTEX
  5
1E32
  8
SURVEY_LIMIT
  6
BYBLOCK
 10
171712.56374695149
 20
9949064.8151229639
 30
0.0
  0
VERTEX
  5
1E33
  8
SURVEY_LIMIT
  6
BYBLOCK
 10
171562.2837093659
 20
9949044.3416889459
 30
0.0
  0
VERTEX
  5
1E34
  8
SURVEY_LIMIT
  6
BYBLOCK
 10
171480.3206813483
 20
9949044.3416889459
 30
0.0
  0
VERTEX
  5
1E35
  8
SURVEY_LIMIT
  6
BYBLOCK
 10
171377.84516699979
 20
9949051.1715236846
 30
0.0
  0
VERTEX
  5
1E36
  8
SURVEY_LIMIT
  6
BYBLOCK
 10
171323.2031483202
 20
9949058.0013584234
 30
0.0
  0
VERTEX
  5
1E37
  8
SURVEY_LIMIT
  6
BYBLOCK
 10
171234.40262486041
 20
9949071.6449577045
 30
0.0
  0
VERTEX
  5
1E38
  8
SURVEY_LIMIT
  6
BYBLOCK
 10
171131.92711050811
 20
9949092.1183917262
 30
0.0
  0
VERTEX
  5
1E39
  8
SURVEY_LIMIT
  6
BYBLOCK
 10
171049.9351100511
 20
9949153.5547639877
 30
0.0
  0
VERTEX
  5
1E3A
  8
SURVEY_LIMIT
  6
BYBLOCK
 10
170978.19935276351
 20
9949221.933462387
 30
0.0
  0
VERTEX
  5
1E3B
  8
SURVEY_LIMIT
  6
BYBLOCK
 10
170862.22268215561
 20
9949245.106689902
 30
0.0
  0
VERTEX
  5
1E3C
  8
SURVEY_LIMIT
  6
BYBLOCK
 10
170812.53495043141
 20
9949263.3142258078
 30
0.0
  0
VERTEX
  5
1E3D
  8
SURVEY_LIMIT
  6
BYBLOCK
 10
170708.17622758821
 20
9949190.4840821829
 30
0.0
  0
VERTEX
  5
1E3E
  8
SURVEY_LIMIT
  6
BYBLOCK
 10
170610.42322068661
 20
9949192.1393127237
 30
0.0
  0
VERTEX
  5
1E3F
  8
SURVEY_LIMIT
  6
BYBLOCK
 10
170560.73548895851
 20
9949261.6589952726
 30
0.0
  0
VERTEX
  5
1E40
  8
SURVEY_LIMIT
  6
BYBLOCK
 10
170532.57427890971
 20
9949384.1460550074
 30
0.0
  0
VERTEX
  5
1E41
  8
SURVEY_LIMIT
  6
BYBLOCK
 10
170484.5379761681
 20
9949422.2163573578
 30
0.0
  0
VERTEX
  5
1E42
  8
SURVEY_LIMIT
  6
BYBLOCK
 10
170419.9294387064
 20
9949486.7703483012
 30
0.0
  0
VERTEX
  5
1E43
  8
SURVEY_LIMIT
  6
BYBLOCK
 10
170373.54456495109
 20
9949533.1168033369
 30
0.0
  0
VERTEX
  5
1E44
  8
SURVEY_LIMIT
  6
BYBLOCK
 10
170312.2388854585
 20
9949584.4450201876
 30
0.0
  0
VERTEX
  5
1E45
  8
SURVEY_LIMIT
  6
BYBLOCK
 10
170262.5511537343
 20
9949574.5136369597
 30
0.0
  0
VERTEX
  5
1E46
  8
SURVEY_LIMIT
  6
BYBLOCK
 10
170201.24547424159
 20
9949536.4272644073
 30
0.0
  0
VERTEX
  5
1E47
  8
SURVEY_LIMIT
  6
BYBLOCK
 10
170163.14671784639
 20
9949500.0121925976
 30
0.0
  0
VERTEX
  5
1E48
  8
SURVEY_LIMIT
  6
BYBLOCK
 10
170098.53818038481
 20
9949435.4582016561
 30
0.0
  0
VERTEX
  5
1E49
  8
SURVEY_LIMIT
  6
BYBLOCK
 10
170032.2782139405
 20
9949397.3878993057
 30
0.0
  0
VERTEX
  5
1E4A
  8
SURVEY_LIMIT
  6
BYBLOCK
 10
169961.06396054101
 20
9949342.7652915865
 30
0.0
  0
VERTEX
  5
1E4B
  8
SURVEY_LIMIT
  6
BYBLOCK
 10
169898.04890718681
 20
9949287.7087884825
 30
0.0
  0
VERTEX
  5
1E4C
  8
SURVEY_LIMIT
  6
BYBLOCK
 10
169787.1424132846
 20
9949339.9851470869
 30
0.0
  0
VERTEX
  5
1E4D
  8
SURVEY_LIMIT
  6
BYBLOCK
 10
169675.54058086121
 20
9949340.708306063
 30
0.0
  0
VERTEX
  5
1E4E
  8
SURVEY_LIMIT
  6
BYBLOCK
 10
169627.9388646968
 20
9949295.6956775766
 30
0.0
  0
VERTEX
  5
1E4F
  8
SURVEY_LIMIT
  6
BYBLOCK
 10
169573.70246015489
 20
9949239.6267519165
 30
0.0
  0
VERTEX
  5
1E50
  8
SURVEY_LIMIT
  6
BYBLOCK
 10
169519.2922209836
 20
9949174.8156377766
 30
0.0
  0
VERTEX
  5
1E51
  8
SURVEY_LIMIT
  6
BYBLOCK
 10
169483.7140667215
 20
9949128.8066569306
 30
0.0
  0
VERTEX
  5
1E52
  8
SURVEY_LIMIT
  6
BYBLOCK
 10
169474.819528155
 20
9949094.3360792436
 30
0.0
  0
VERTEX
  5
1E53
  8
SURVEY_LIMIT
  6
BYBLOCK
 10
169439.2413738966
 20
9949073.5894518327
 30
0.0
  0
VERTEX
  5
1E54
  8
SURVEY_LIMIT
  6
BYBLOCK
 10
169424.4074854739
 20
9949103.2389696985
 30
0.0
  0
VERTEX
  5
1E55
  8
SURVEY_LIMIT
  6
BYBLOCK
 10
169397.6948973386
 20
9949162.5219352487
 30
0.0
  0
VERTEX
  5
1E56
  8
SURVEY_LIMIT
  6
BYBLOCK
 10
169353.19323207421
 20
9949239.5946115106
 30
0.0
  0
VERTEX
  5
1E57
  8
SURVEY_LIMIT
  6
BYBLOCK
 10
169296.8418395333
 20
9949316.6672877781
 30
0.0
  0
VERTEX
  5
1E58
  8
SURVEY_LIMIT
  6
BYBLOCK
 10
169270.1292514017
 20
9949381.8801568933
 30
0.0
  0
VERTEX
  5
1E59
  8
SURVEY_LIMIT
  6
BYBLOCK
 10
169140.5355347805
 20
9949526.0780560058
 30
0.0
  0
VERTEX
  5
1E5A
  8
SURVEY_LIMIT
  6
BYBLOCK
 10
169075.0578241683
 20
9949647.2634295877
 30
0.0
  0
VERTEX
  5
1E5B
  8
SURVEY_LIMIT
  6
BYBLOCK
 10
169062.454813499
 20
9949719.6596778333
 30
0.0
  0
VERTEX
  5
1E5C
  8
SURVEY_LIMIT
  6
BYBLOCK
 10
169030.96177303779
 20
9949782.6227190401
 30
0.0
  0
VERTEX
  5
1E5D
  8
SURVEY_LIMIT
  6
BYBLOCK
 10
168980.54973035681
 20
9949839.2862420809
 30
0.0
  0
VERTEX
  5
1E5E
  8
SURVEY_LIMIT
  6
BYBLOCK
 10
168986.83674947169
 20
9949899.0995242056
 30
0.0
  0
VERTEX
  5
1E5F
  8
SURVEY_LIMIT
  6
BYBLOCK
 10
168980.54973035681
 20
9949943.1800811235
 30
0.0
  0
VERTEX
  5
1E60
  8
SURVEY_LIMIT
  6
BYBLOCK
 10
168952.18571323901
 20
9949958.9128063247
 30
0.0
  0
VERTEX
  5
1E61
  8
SURVEY_LIMIT
  6
BYBLOCK
 10
168898.61567477879
 20
9949921.1317675654
 30
0.0
  0
VERTEX
  5
1E62
  8
SURVEY_LIMIT
  6
BYBLOCK
 10
168826.15560653061
 20
9949940.0303220451
 30
0.0
  0
VERTEX
  5
1E63
  8
SURVEY_LIMIT
  6
BYBLOCK
 10
168750.56651494649
 20
9949952.6132881641
 30
0.0
  0
VERTEX
  5
1E64
  8
SURVEY_LIMIT
  6
BYBLOCK
 10
168706.44149137661
 20
9949980.9450496882
 30
0.0
  0
VERTEX
  5
1E65
  8
SURVEY_LIMIT
  6
BYBLOCK
 10
168656.02944869551
 20
9950050.20760905
 30
0.0
  0
VERTEX
  5
1E66
  8
SURVEY_LIMIT
  6
BYBLOCK
 10
168611.93339756501
 20
9950097.4218548518
 30
0.0
  0
VERTEX
  5
1E67
  8
SURVEY_LIMIT
  6
BYBLOCK
 10
168583.56938044721
 20
9950172.9839323796
 30
0.0
  0
VERTEX
  5
1E68
  8
SURVEY_LIMIT
  6
BYBLOCK
 10
168564.67935065919
 20
9950283.1612193789
 30
0.0
  0
VERTEX
  5
1E69
  8
SURVEY_LIMIT
  6
BYBLOCK
 10
168530.02831442651
 20
9950333.5252242628
 30
0.0
  0
VERTEX
  5
1E6A
  8
SURVEY_LIMIT
  6
BYBLOCK
 10
168479.6162717416
 20
9950349.274019666
 30
0.0
  0
VERTEX
  5
1E6B
  8
SURVEY_LIMIT
  6
BYBLOCK
 10
168318.93512880051
 20
9950311.492980903
 30
0.0
  0
VERTEX
  5
1E6C
  8
SURVEY_LIMIT
  6
BYBLOCK
 10
168243.31706477699
 20
9950267.4124239832
 30
0.0
  0
VERTEX
  5
1E6D
  8
SURVEY_LIMIT
  6
BYBLOCK
 10
168117.28695806841
 20
9950280.0114603005
 30
0.0
  0
VERTEX
  5
1E6E
  8
SURVEY_LIMIT
  6
BYBLOCK
 10
168047.98488559941
 20
9950308.3432218246
 30
0.0
  0
VERTEX
  5
1E6F
  8
SURVEY_LIMIT
  6
BYBLOCK
 10
167978.6828131302
 20
9950317.7924990579
 30
0.0
  0
VERTEX
  5
1E70
  8
SURVEY_LIMIT
  6
BYBLOCK
 10
167909.35176822171
 20
9950311.492980903
 30
0.0
  0
VERTEX
  5
1E71
  8
SURVEY_LIMIT
  6
BYBLOCK
 10
167830.60468085841
 20
9950283.1612193789
 30
0.0
  0
VERTEX
  5
1E72
  8
SURVEY_LIMIT
  6
BYBLOCK
 10
167792.79564884669
 20
9950220.1981781796
 30
0.0
  0
VERTEX
  5
1E73
  8
SURVEY_LIMIT
  6
BYBLOCK
 10
167767.58962750429
 20
9950182.4171394166
 30
0.0
  0
VERTEX
  5
1E74
  8
SURVEY_LIMIT
  6
BYBLOCK
 10
167745.54160194099
 20
9950128.9033754542
 30
0.0
  0
VERTEX
  5
1E75
  8
SURVEY_LIMIT
  6
BYBLOCK
 10
167732.9385912678
 20
9950084.8388887327
 30
0.0
  0
VERTEX
  5
1E76
  8
SURVEY_LIMIT
  6
BYBLOCK
 10
167673.08153369269
 20
9950065.940334253
 30
0.0
  0
VERTEX
  5
1E77
  8
SURVEY_LIMIT
  6
BYBLOCK
 10
167591.1764505505
 20
9950072.2398524117
 30
0.0
  0
VERTEX
  5
1E78
  8
SURVEY_LIMIT
  6
BYBLOCK
 10
167499.79738007861
 20
9950103.721373016
 30
0.0
  0
VERTEX
  5
1E79
  8
SURVEY_LIMIT
  6
BYBLOCK
 10
167417.89229694009
 20
9950144.6521708556
 30
0.0
  0
VERTEX
  5
1E7A
  8
SURVEY_LIMIT
  6
BYBLOCK
 10
167318.95142006499
 20
9950227.2369255126
 30
0.0
  0
VERTEX
  5
1E7B
  8
SURVEY_LIMIT
  6
BYBLOCK
 10
167278.01336471341
 20
9950280.7506894749
 30
0.0
  0
VERTEX
  5
1E7C
  8
SURVEY_LIMIT
  6
BYBLOCK
 10
167227.60132202879
 20
9950390.9279764779
 30
0.0
  0
VERTEX
  5
1E7D
  8
SURVEY_LIMIT
  6
BYBLOCK
 10
167230.7593178078
 20
9950482.2227792032
 30
0.0
  0
VERTEX
  5
1E7E
  8
SURVEY_LIMIT
  6
BYBLOCK
 10
167255.96533915019
 20
9950608.1327914167
 30
0.0
  0
VERTEX
  5
1E7F
  8
SURVEY_LIMIT
  6
BYBLOCK
 10
167249.64934759581
 20
9950730.9091147371
 30
0.0
  0
VERTEX
  5
1E80
  8
SURVEY_LIMIT
  6
BYBLOCK
 10
167252.80734337121
 20
9950822.2039174587
 30
0.0
  0
VERTEX
  5
1E81
  8
SURVEY_LIMIT
  6
BYBLOCK
 10
167284.30038382841
 20
9950904.0494429432
 30
0.0
  0
VERTEX
  5
1E82
  8
SURVEY_LIMIT
  6
BYBLOCK
 10
167284.30038382841
 20
9950954.4134478271
 30
0.0
  0
VERTEX
  5
1E83
  8
SURVEY_LIMIT
  6
BYBLOCK
 10
167252.80734337121
 20
9950973.3120023068
 30
0.0
  0
VERTEX
  5
1E84
  8
SURVEY_LIMIT
  6
BYBLOCK
 10
167196.10828157139
 20
9950967.0124841481
 30
0.0
  0
VERTEX
  5
1E85
  8
SURVEY_LIMIT
  6
BYBLOCK
 10
167142.53824311119
 20
9950967.0124841481
 30
0.0
  0
VERTEX
  5
1E86
  8
SURVEY_LIMIT
  6
BYBLOCK
 10
167095.28419620541
 20
9950992.1944865882
 30
0.0
  0
VERTEX
  5
1E87
  8
SURVEY_LIMIT
  6
BYBLOCK
 10
167066.92017908761
 20
9951029.9755253475
 30
0.0
  0
VERTEX
  5
1E88
  8
SURVEY_LIMIT
  6
BYBLOCK
 10
167048.03014929959
 20
9951108.6712917518
 30
0.0
  0
VERTEX
  5
1E89
  8
SURVEY_LIMIT
  6
BYBLOCK
 10
167022.82412796089
 20
9951196.816335395
 30
0.0
  0
VERTEX
  5
1E8A
  8
SURVEY_LIMIT
  6
BYBLOCK
 10
167013.3791130668
 20
9951269.2286538407
 30
0.0
  0
VERTEX
  5
1E8B
  8
SURVEY_LIMIT
  6
BYBLOCK
 10
167016.50813640651
 20
9951310.1433814857
 30
0.0
  0
VERTEX
  5
1E8C
  8
SURVEY_LIMIT
  6
BYBLOCK
 10
167019.66613218191
 20
9951376.2561817635
 30
0.0
  0
VERTEX
  5
1E8D
  8
SURVEY_LIMIT
  6
BYBLOCK
 10
167061.9658921361
 20
9951373.7010200657
 30
0.0
  0
VERTEX
  5
1E8E
  8
SURVEY_LIMIT
  6
BYBLOCK
 10
167113.10224577409
 20
9951369.4424172267
 30
0.0
  0
VERTEX
  5
1E8F
  8
SURVEY_LIMIT
  6
BYBLOCK
 10
167151.43278167761
 20
9951365.1838143878
 30
0.0
  0
VERTEX
  5
1E90
  8
SURVEY_LIMIT
  6
BYBLOCK
 10
167181.27439315239
 20
9951354.5453423932
 30
0.0
  0
VERTEX
  5
1E91
  8
SURVEY_LIMIT
  6
BYBLOCK
 10
167215.345980618
 20
9951346.0281367172
 30
0.0
  0
VERTEX
  5
1E92
  8
SURVEY_LIMIT
  6
BYBLOCK
 10
167255.8494493961
 20
9951341.7695338819
 30
0.0
  0
VERTEX
  5
1E93
  8
SURVEY_LIMIT
  6
BYBLOCK
 10
167287.89296618101
 20
9951355.2685013674
 30
0.0
  0
VERTEX
  5
1E94
  8
SURVEY_LIMIT
  6
BYBLOCK
 10
167331.64134804899
 20
9951384.0341582727
 30
0.0
  0
VERTEX
  5
1E95
  8
SURVEY_LIMIT
  6
BYBLOCK
 10
167381.1552451438
 20
9951425.4470620919
 30
0.0
  0
VERTEX
  5
1E96
  8
SURVEY_LIMIT
  6
BYBLOCK
 10
167438.7234800942
 20
9951473.754081456
 30
0.0
  0
VERTEX
  5
1E97
  8
SURVEY_LIMIT
  6
BYBLOCK
 10
167476.7063467353
 20
9951509.4138539005
 30
0.0
  0
VERTEX
  5
1E98
  8
SURVEY_LIMIT
  6
BYBLOCK
 10
167503.18715536219
 20
9951540.4775493145
 30
0.0
  0
VERTEX
  5
1E99
  8
SURVEY_LIMIT
  6
BYBLOCK
 10
167517.0070084444
 20
9951584.1884916518
 30
0.0
  0
VERTEX
  5
1E9A
  8
SURVEY_LIMIT
  6
BYBLOCK
 10
167521.6136261372
 20
9951602.5888699517
 30
0.0
  0
VERTEX
  5
1E9B
  8
SURVEY_LIMIT
  6
BYBLOCK
 10
167523.9024487659
 20
9951611.7970941961
 30
0.0
  0
VERTEX
  5
1E9C
  8
SURVEY_LIMIT
  6
BYBLOCK
 10
167538.8811993784
 20
9951629.0404181443
 30
0.0
  0
VERTEX
  5
1E9D
  8
SURVEY_LIMIT
  6
BYBLOCK
 10
167559.59649277851
 20
9951652.0529436637
 30
0.0
  0
VERTEX
  5
1E9E
  8
SURVEY_LIMIT
  6
BYBLOCK
 10
167589.5250215678
 20
9951688.8697704673
 30
0.0
  0
VERTEX
  5
1E9F
  8
SURVEY_LIMIT
  6
BYBLOCK
 10
167611.39921250191
 20
9951723.3724885527
 30
0.0
  0
VERTEX
  5
1EA0
  8
SURVEY_LIMIT
  6
BYBLOCK
 10
167639.03891866279
 20
9951748.6830525883
 30
0.0
  0
VERTEX
  5
1EA1
  8
SURVEY_LIMIT
  6
BYBLOCK
 10
167678.18068283799
 20
9951784.3428250346
 30
0.0
  0
VERTEX
  5
1EA2
  8
SURVEY_LIMIT
  6
BYBLOCK
 10
167717.32244701311
 20
9951826.896713011
 30
0.0
  0
VERTEX
  5
1EA3
  8
SURVEY_LIMIT
  6
BYBLOCK
 10
167754.72586488721
 20
9951851.6126796734
 30
0.0
  0
VERTEX
  5
1EA4
  8
SURVEY_LIMIT
  6
BYBLOCK
 10
167807.68748214471
 20
9951884.9744135998
 30
0.0
  0
VERTEX
  5
1EA5
  8
SURVEY_LIMIT
  6
BYBLOCK
 10
167865.2557170912
 20
9951911.4259617925
 30
0.0
  0
VERTEX
  5
1EA6
  8
SURVEY_LIMIT
  6
BYBLOCK
 10
167927.4015972949
 20
9951924.0732087102
 30
0.0
  0
VERTEX
  5
1EA7
  8
SURVEY_LIMIT
  6
BYBLOCK
 10
167975.75659685949
 20
9951929.8263400923
 30
0.0
  0
VERTEX
  5
1EA8
  8
SURVEY_LIMIT
  6
BYBLOCK
 10
168021.82277379179
 20
9951924.0732087102
 30
0.0
  0
VERTEX
  5
1EA9
  8
SURVEY_LIMIT
  6
BYBLOCK
 10
168064.41225812951
 20
9951912.5669459496
 30
0.0
  0
VERTEX
  5
1EAA
  8
SURVEY_LIMIT
  6
BYBLOCK
 10
168100.10630214211
 20
9951889.5704906229
 30
0.0
  0
VERTEX
  5
1EAB
  8
SURVEY_LIMIT
  6
BYBLOCK
 10
168124.2693157047
 20
9951855.0517023392
 30
0.0
  0
VERTEX
  5
1EAC
  8
SURVEY_LIMIT
  6
BYBLOCK
 10
168142.6957864798
 20
9951825.1450612787
 30
0.0
  0
VERTEX
  5
1EAD
  8
SURVEY_LIMIT
  6
BYBLOCK
 10
168153.03894696009
 20
9951780.2931347843
 30
0.0
  0
VERTEX
  5
1EAE
  8
SURVEY_LIMIT
  6
BYBLOCK
 10
168171.46541773519
 20
9951741.1782694757
 30
0.0
  0
VERTEX
  5
1EAF
  8
SURVEY_LIMIT
  6
BYBLOCK
 10
168194.49850619951
 20
9951725.0759296883
 30
0.0
  0
VERTEX
  5
1EB0
  8
SURVEY_LIMIT
  6
BYBLOCK
 10
168223.2681374549
 20
9951719.3227983043
 30
0.0
  0
VERTEX
  5
1EB1
  8
SURVEY_LIMIT
  6
BYBLOCK
 10
168245.14232838899
 20
9951723.9188753329
 30
0.0
  0
VERTEX
  5
1EB2
  8
SURVEY_LIMIT
  6
BYBLOCK
 10
168275.07085717839
 20
9951745.7743465025
 30
0.0
  0
VERTEX
  5
1EB3
  8
SURVEY_LIMIT
  6
BYBLOCK
 10
168321.13703411439
 20
9951769.927856179
 30
0.0
  0
VERTEX
  5
1EB4
  8
SURVEY_LIMIT
  6
BYBLOCK
 10
168371.78085630381
 20
9951789.4852888342
 30
0.0
  0
VERTEX
  5
1EB5
  8
SURVEY_LIMIT
  6
BYBLOCK
 10
168430.5079887844
 20
9951806.7446829788
 30
0.0
  0
VERTEX
  5
1EB6
  8
SURVEY_LIMIT
  6
BYBLOCK
 10
168496.13056158641
 20
9951825.1450612787
 30
0.0
  0
VERTEX
  5
1EB7
  8
SURVEY_LIMIT
  6
BYBLOCK
 10
168554.8287216312
 20
9951835.5103398841
 30
0.0
  0
VERTEX
  5
1EB8
  8
SURVEY_LIMIT
  6
BYBLOCK
 10
168590.52276564381
 20
9951836.6513240393
 30
0.0
  0
VERTEX
  5
1EB9
  8
SURVEY_LIMIT
  6
BYBLOCK
 10
168617.00357427439
 20
9951844.7024939321
 30
0.0
  0
VERTEX
  5
1EBA
  8
SURVEY_LIMIT
  6
BYBLOCK
 10
168643.48438290131
 20
9951864.2599265892
 30
0.0
  0
VERTEX
  5
1EBB
  8
SURVEY_LIMIT
  6
BYBLOCK
 10
168737.8765869588
 20
9951928.6853559371
 30
0.0
  0
VERTEX
  5
1EBC
  8
SURVEY_LIMIT
  6
BYBLOCK
 10
168788.3755469583
 20
9951957.7242062334
 30
0.0
  0
VERTEX
  5
1EBD
  8
SURVEY_LIMIT
  6
BYBLOCK
 10
168841.33716421199
 20
9951972.6694916617
 30
0.0
  0
VERTEX
  5
1EBE
  8
SURVEY_LIMIT
  6
BYBLOCK
 10
168881.63782592121
 20
9951983.0347702634
 30
0.0
  0
VERTEX
  5
1EBF
  8
SURVEY_LIMIT
  6
BYBLOCK
 10
168917.3318699337
 20
9952009.4863184579
 30
0.0
  0
VERTEX
  5
1EC0
  8
SURVEY_LIMIT
  6
BYBLOCK
 10
168954.1558390446
 20
9952042.8480523899
 30
0.0
  0
VERTEX
  5
1EC1
  8
SURVEY_LIMIT
  6
BYBLOCK
 10
168985.2432653642
 20
9952068.1586164292
 30
0.0
  0
VERTEX
  5
1EC2
  8
SURVEY_LIMIT
  6
BYBLOCK
 10
169024.38502953941
 20
9952091.1550717503
 30
0.0
  0
VERTEX
  5
1EC3
  8
SURVEY_LIMIT
  6
BYBLOCK
 10
169066.9745138771
 20
9952096.9082031325
 30
0.0
  0
VERTEX
  5
1EC4
  8
SURVEY_LIMIT
  6
BYBLOCK
 10
169121.09502866489
 20
9952099.2062416486
 30
0.0
  0
VERTEX
  5
1EC5
  8
SURVEY_LIMIT
  6
BYBLOCK
 10
169154.47127761319
 20
9952083.1039018556
 30
0.0
  0
VERTEX
  5
1EC6
  8
SURVEY_LIMIT
  6
BYBLOCK
 10
169185.55870393279
 20
9952053.197260797
 30
0.0
  0
VERTEX
  5
1EC7
  8
SURVEY_LIMIT
  6
BYBLOCK
 10
169214.3573076278
 20
9952011.7843569722
 30
0.0
  0
VERTEX
  5
1EC8
  8
SURVEY_LIMIT
  6
BYBLOCK
 10
169251.1812767385
 20
9951966.9163602851
 30
0.0
  0
VERTEX
  5
1EC9
  8
SURVEY_LIMIT
  6
BYBLOCK
 10
169285.71642321721
 20
9951937.0097192209
 30
0.0
  0
VERTEX
  5
1ECA
  8
SURVEY_LIMIT
  6
BYBLOCK
 10
169324.8581873923
 20
9951910.5581710283
 30
0.0
  0
VERTEX
  5
1ECB
  8
SURVEY_LIMIT
  6
BYBLOCK
 10
169370.9243643283
 20
9951892.1577927247
 30
0.0
  0
VERTEX
  5
1ECC
  8
SURVEY_LIMIT
  6
BYBLOCK
 10
169431.9403194375
 20
9951882.9495684765
 30
0.0
  0
VERTEX
  5
1ECD
  8
SURVEY_LIMIT
  6
BYBLOCK
 10
169595.40281645951
 20
9951882.9495684765
 30
0.0
  0
VERTEX
  5
1ECE
  8
SURVEY_LIMIT
  6
BYBLOCK
 10
169657.5776691027
 20
9951892.1577927247
 30
0.0
  0
VERTEX
  5
1ECF
  8
SURVEY_LIMIT
  6
BYBLOCK
 10
169685.709906712
 20
9951897.1074141357
 30
0.0
  0
VERTEX
  5
1ED0
  8
SURVEY_LIMIT
  6
BYBLOCK
 10
169670.6152663453
 20
9951909.4493272677
 30
0.0
  0
VERTEX
  5
1ED1
  8
SURVEY_LIMIT
  6
BYBLOCK
 10
169641.81666265431
 20
9951940.9629882649
 30
0.0
  0
VERTEX
  5
1ED2
  8
SURVEY_LIMIT
  6
BYBLOCK
 10
169613.01805895939
 20
9951979.3386244066
 30
0.0
  0
VERTEX
  5
1ED3
  8
SURVEY_LIMIT
  6
BYBLOCK
 10
169577.35298738239
 20
9952025.9261324331
 30
0.0
  0
VERTEX
  5
1ED4
  8
SURVEY_LIMIT
  6
BYBLOCK
 10
169555.42085157329
 20
9952058.8218305819
 30
0.0
  0
VERTEX
  5
1ED5
  8
SURVEY_LIMIT
  6
BYBLOCK
 10
169530.73633411899
 20
9952101.295367565
 30
0.0
  0
VERTEX
  5
1ED6
  8
SURVEY_LIMIT
  6
BYBLOCK
 10
169519.75577999651
 20
9952150.6308796834
 30
0.0
  0
VERTEX
  5
1ED7
  8
SURVEY_LIMIT
  6
BYBLOCK
 10
169512.88931211439
 20
9952220.5201768242
 30
0.0
  0
VERTEX
  5
1ED8
  8
SURVEY_LIMIT
  6
BYBLOCK
 10
169510.136930473
 20
9952290.4094739649
 30
0.0
  0
VERTEX
  5
1ED9
  8
SURVEY_LIMIT
  6
BYBLOCK
 10
169506.02284422881
 20
9952349.3388951197
 30
0.0
  0
VERTEX
  5
1EDA
  8
SURVEY_LIMIT
  6
BYBLOCK
 10
169497.7946717478
 20
9952397.308440296
 30
0.0
  0
VERTEX
  5
1EDB
  8
SURVEY_LIMIT
  6
BYBLOCK
 10
169490.9571763016
 20
9952431.5701053869
 30
0.0
  0
VERTEX
  5
1EDC
  8
SURVEY_LIMIT
  6
BYBLOCK
 10
169473.11015429339
 20
9952467.197737433
 30
0.0
  0
VERTEX
  5
1EDD
  8
SURVEY_LIMIT
  6
BYBLOCK
 10
169438.57500781491
 20
9952538.1958783306
 30
0.0
  0
VERTEX
  5
1EDE
  8
SURVEY_LIMIT
  6
BYBLOCK
 10
169407.05299491811
 20
9952587.5313904565
 30
0.0
  0
VERTEX
  5
1EDF
  8
SURVEY_LIMIT
  6
BYBLOCK
 10
169387.844268307
 20
9952627.2729935367
 30
0.0
  0
VERTEX
  5
1EE0
  8
SURVEY_LIMIT
  6
BYBLOCK
 10
169369.99724630269
 20
9952661.5346586406
 30
0.0
  0
VERTEX
  5
1EE1
  8
SURVEY_LIMIT
  6
BYBLOCK
 10
169353.54090133301
 20
9952705.3902327642
 30
0.0
  0
VERTEX
  5
1EE2
  8
SURVEY_LIMIT
  6
BYBLOCK
 10
169341.19864260769
 20
9952741.0178648066
 30
0.0
  0
VERTEX
  5
1EE3
  8
SURVEY_LIMIT
  6
BYBLOCK
 10
169322.0188884362
 20
9952768.4336249642
 30
0.0
  0
VERTEX
  5
1EE4
  8
SURVEY_LIMIT
  6
BYBLOCK
 10
169306.9242480695
 20
9952790.3533769306
 30
0.0
  0
VERTEX
  5
1EE5
  8
SURVEY_LIMIT
  6
BYBLOCK
 10
169287.715521462
 20
9952812.273128897
 30
0.0
  0
VERTEX
  5
1EE6
  8
SURVEY_LIMIT
  6
BYBLOCK
 10
169267.1450902521
 20
9952825.9810089767
 30
0.0
  0
VERTEX
  5
1EE7
  8
SURVEY_LIMIT
  6
BYBLOCK
 10
169247.9363636449
 20
9952834.2089510635
 30
0.0
  0
VERTEX
  5
1EE8
  8
SURVEY_LIMIT
  6
BYBLOCK
 10
169227.3659324348
 20
9952839.6888890527
 30
0.0
  0
VERTEX
  5
1EE9
  8
SURVEY_LIMIT
  6
BYBLOCK
 10
169212.3002645075
 20
9952843.8028600961
 30
0.0
  0
VERTEX
  5
1EEA
  8
SURVEY_LIMIT
  6
BYBLOCK
 10
169209.547882866
 20
9952880.7964590918
 30
0.0
  0
VERTEX
  5
1EEB
  8
SURVEY_LIMIT
  6
BYBLOCK
 10
169214.0965556837
 20
9952886.7424328644
 30
0.0
  0
VERTEX
  5
1EEC
  8
SURVEY_LIMIT
  6
BYBLOCK
 10
169217.4283860882
 20
9952893.4115656074
 30
0.0
  0
SEQEND
  5
1EED
  8
SURVEY_LIMIT
  6
BYBLOCK
  0
POLYLINE
  5
14F1
  8
GRID_500X500M
 66
     1
 10
0.0
 20
0.0
 30
0.0
  0
VERTEX
  5
1EEE
  8
GRID_500X500M
 10
176737.74428941539
 20
9947000.0
 30
0.0
  0
VERTEX
  5
1EEF
  8
GRID_500X500M
 10
181242.8768986139
 20
9947000.0
 30
0.0
  0
SEQEND
  5
1EF0
  8
GRID_500X500M
  0
POLYLINE
  5
14F5
  8
GRID_500X500M
 66
     1
 10
0.0
 20
0.0
 30
0.0
  0
VERTEX
  5
1EF1
  8
GRID_500X500M
 10
174652.36642552901
 20
9947500.0
 30
0.0
  0
VERTEX
  5
1EF2
  8
GRID_500X500M
 10
181580.02518401001
 20
9947500.0
 30
0.0
  0
SEQEND
  5
1EF3
  8
GRID_500X500M
  0
POLYLINE
  5
14F9
  8
GRID_500X500M
 66
     1
 10
0.0
 20
0.0
 30
0.0
  0
VERTEX
  5
1EF4
  8
GRID_500X500M
 10
174339.9059245064
 20
9948000.0
 30
0.0
  0
VERTEX
  5
1EF5
  8
GRID_500X500M
 10
181845.0919957225
 20
9948000.0
 30
0.0
  0
SEQEND
  5
1EF6
  8
GRID_500X500M
  0
POLYLINE
  5
14FD
  8
GRID_500X500M
 66
     1
 10
0.0
 20
0.0
 30
0.0
  0
VERTEX
  5
1EF7
  8
GRID_500X500M
 10
173365.673566802
 20
9948500.0
 30
0.0
  0
VERTEX
  5
1EF8
  8
GRID_500X500M
 10
182017.47792762911
 20
9948500.0
 30
0.0
  0
SEQEND
  5
1EF9
  8
GRID_500X500M
  0
POLYLINE
  5
1501
  8
GRID_500X500M
 66
     1
 10
0.0
 20
0.0
 30
0.0
  0
VERTEX
  5
1EFA
  8
GRID_500X500M
 10
172511.10044556169
 20
9949000.0
 30
0.0
  0
VERTEX
  5
1EFB
  8
GRID_500X500M
 10
182291.2562447628
 20
9949000.0
 30
0.0
  0
SEQEND
  5
1EFC
  8
GRID_500X500M
  0
POLYLINE
  5
1505
  8
GRID_500X500M
 66
     1
 10
0.0
 20
0.0
 30
0.0
  0
VERTEX
  5
1EFD
  8
GRID_500X500M
 10
170406.68882033631
 20
9949500.0
 30
0.0
  0
VERTEX
  5
1EFE
  8
GRID_500X500M
 10
182686.41977373161
 20
9949500.0
 30
0.0
  0
SEQEND
  5
1EFF
  8
GRID_500X500M
  0
POLYLINE
  5
1509
  8
GRID_500X500M
 66
     1
 10
0.0
 20
0.0
 30
0.0
  0
VERTEX
  5
1F00
  8
GRID_500X500M
 10
168692.57254143801
 20
9950000.0
 30
0.0
  0
VERTEX
  5
1F01
  8
GRID_500X500M
 10
182891.50518210931
 20
9950000.0
 30
0.0
  0
SEQEND
  5
1F02
  8
GRID_500X500M
  0
POLYLINE
  5
150D
  8
GRID_500X500M
 66
     1
 10
0.0
 20
0.0
 30
0.0
  0
VERTEX
  5
1F03
  8
GRID_500X500M
 10
167234.31815319319
 20
9950500.0
 30
0.0
  0
VERTEX
  5
1F04
  8
GRID_500X500M
 10
183397.20810147221
 20
9950500.0
 30
0.0
  0
SEQEND
  5
1F05
  8
GRID_500X500M
  0
POLYLINE
  5
1511
  8
GRID_500X500M
 66
     1
 10
0.0
 20
0.0
 30
0.0
  0
VERTEX
  5
1F06
  8
GRID_500X500M
 10
174129.48670659089
 20
9951000.0
 30
0.0
  0
VERTEX
  5
1F07
  8
GRID_500X500M
 10
183544.33709402359
 20
9951000.0
 30
0.0
  0
SEQEND
  5
1F08
  8
GRID_500X500M
  0
POLYLINE
  5
1515
  8
GRID_500X500M
 66
     1
 10
0.0
 20
0.0
 30
0.0
  0
VERTEX
  5
1F09
  8
GRID_500X500M
 10
177558.99312614789
 20
9951500.0
 30
0.0
  0
VERTEX
  5
1F0A
  8
GRID_500X500M
 10
183700.0492100566
 20
9951500.0
 30
0.0
  0
SEQEND
  5
1F0B
  8
GRID_500X500M
  0
POLYLINE
  5
1519
  8
GRID_500X500M
 66
     1
 10
0.0
 20
0.0
 30
0.0
  0
VERTEX
  5
1F0C
  8
GRID_500X500M
 10
178648.46551181821
 20
9952000.0
 30
0.0
  0
VERTEX
  5
1F0D
  8
GRID_500X500M
 10
183694.08476522911
 20
9952000.0
 30
0.0
  0
SEQEND
  5
1F0E
  8
GRID_500X500M
  0
POLYLINE
  5
151D
  8
GRID_500X500M
 66
     1
 10
0.0
 20
0.0
 30
0.0
  0
VERTEX
  5
1F0F
  8
GRID_500X500M
 10
178992.7511965851
 20
9952500.0
 30
0.0
  0
VERTEX
  5
1F10
  8
GRID_500X500M
 10
183945.558806402
 20
9952500.0
 30
0.0
  0
SEQEND
  5
1F11
  8
GRID_500X500M
  0
POLYLINE
  5
1521
  8
GRID_500X500M
 66
     1
 10
0.0
 20
0.0
 30
0.0
  0
VERTEX
  5
1F12
  8
GRID_500X500M
 10
179145.3231044501
 20
9953000.0
 30
0.0
  0
VERTEX
  5
1F13
  8
GRID_500X500M
 10
184354.63428776959
 20
9953000.0
 30
0.0
  0
SEQEND
  5
1F14
  8
GRID_500X500M
  0
POLYLINE
  5
1525
  8
GRID_500X500M
 66
     1
 10
0.0
 20
0.0
 30
0.0
  0
VERTEX
  5
1F15
  8
GRID_500X500M
 10
179502.58183567799
 20
9953500.0
 30
0.0
  0
VERTEX
  5
1F16
  8
GRID_500X500M
 10
184790.65430585551
 20
9953500.0
 30
0.0
  0
SEQEND
  5
1F17
  8
GRID_500X500M
  0
POLYLINE
  5
1529
  8
GRID_500X500M
 66
     1
 10
0.0
 20
0.0
 30
0.0
  0
VERTEX
  5
1F18
  8
GRID_500X500M
 10
180469.88001099171
 20
9954000.0
 30
0.0
  0
VERTEX
  5
1F19
  8
GRID_500X500M
 10
184866.2779179925
 20
9954000.0
 30
0.0
  0
SEQEND
  5
1F1A
  8
GRID_500X500M
  0
POLYLINE
  5
152D
  8
GRID_500X500M
 66
     1
 10
0.0
 20
0.0
 30
0.0
  0
VERTEX
  5
1F1B
  8
GRID_500X500M
 10
180792.3998504403
 20
9954500.0
 30
0.0
  0
VERTEX
  5
1F1C
  8
GRID_500X500M
 10
185059.89825698681
 20
9954500.0
 30
0.0
  0
SEQEND
  5
1F1D
  8
GRID_500X500M
  0
POLYLINE
  5
1531
  8
GRID_500X500M
 66
     1
 10
0.0
 20
0.0
 30
0.0
  0
VERTEX
  5
1F1E
  8
GRID_500X500M
 10
180651.73342511751
 20
9955000.0
 30
0.0
  0
VERTEX
  5
1F1F
  8
GRID_500X500M
 10
185220.3726243829
 20
9955000.0
 30
0.0
  0
SEQEND
  5
1F20
  8
GRID_500X500M
  0
POLYLINE
  5
1535
  8
GRID_500X500M
 66
     1
 10
0.0
 20
0.0
 30
0.0
  0
VERTEX
  5
1F21
  8
GRID_500X500M
 10
180405.89951712391
 20
9955500.0
 30
0.0
  0
VERTEX
  5
1F22
  8
GRID_500X500M
 10
185887.95318706479
 20
9955500.0
 30
0.0
  0
SEQEND
  5
1F23
  8
GRID_500X500M
  0
POLYLINE
  5
1539
  8
GRID_500X500M
 66
     1
 10
0.0
 20
0.0
 30
0.0
  0
VERTEX
  5
1F24
  8
GRID_500X500M
 10
179817.7163089338
 20
9956000.0
 30
0.0
  0
VERTEX
  5
1F25
  8
GRID_500X500M
 10
186231.0899548622
 20
9956000.0
 30
0.0
  0
SEQEND
  5
1F26
  8
GRID_500X500M
  0
POLYLINE
  5
153D
  8
GRID_500X500M
 66
     1
 10
0.0
 20
0.0
 30
0.0
  0
VERTEX
  5
1F27
  8
GRID_500X500M
 10
179763.1571798712
 20
9956500.0
 30
0.0
  0
VERTEX
  5
1F28
  8
GRID_500X500M
 10
186689.7334661668
 20
9956500.0
 30
0.0
  0
SEQEND
  5
1F29
  8
GRID_500X500M
  0
POLYLINE
  5
1541
  8
GRID_500X500M
 66
     1
 10
0.0
 20
0.0
 30
0.0
  0
VERTEX
  5
1F2A
  8
GRID_500X500M
 10
181091.67457384159
 20
9957000.0
 30
0.0
  0
VERTEX
  5
1F2B
  8
GRID_500X500M
 10
186962.36340432311
 20
9957000.0
 30
0.0
  0
SEQEND
  5
1F2C
  8
GRID_500X500M
  0
POLYLINE
  5
1545
  8
GRID_500X500M
 66
     1
 10
0.0
 20
0.0
 30
0.0
  0
VERTEX
  5
1F2D
  8
GRID_500X500M
 10
167089.42422720281
 20
9951000.0
 30
0.0
  0
VERTEX
  5
1F2E
  8
GRID_500X500M
 10
173948.79309799339
 20
9951000.0
 30
0.0
  0
SEQEND
  5
1F2F
  8
GRID_500X500M
  0
POLYLINE
  5
1549
  8
GRID_500X500M
 66
     1
 10
0.0
 20
0.0
 30
0.0
  0
VERTEX
  5
1F30
  8
GRID_500X500M
 10
173146.5097255795
 20
9948000.0
 30
0.0
  0
VERTEX
  5
1F31
  8
GRID_500X500M
 10
174147.2576655974
 20
9948000.0
 30
0.0
  0
SEQEND
  5
1F32
  8
GRID_500X500M
  0
POLYLINE
  5
154D
  8
GRID_500X500M
 66
     1
 10
0.0
 20
0.0
 30
0.0
  0
VERTEX
  5
1F33
  8
GRID_500X500M
 10
169480.68984230631
 20
9954000.0
 30
0.0
  0
VERTEX
  5
1F34
  8
GRID_500X500M
 10
171736.2925160607
 20
9954000.0
 30
0.0
  0
SEQEND
  5
1F35
  8
GRID_500X500M
  0
POLYLINE
  5
1551
  8
GRID_500X500M
 66
     1
 10
0.0
 20
0.0
 30
0.0
  0
VERTEX
  5
1F36
  8
GRID_500X500M
 10
169323.21487086799
 20
9953500.0
 30
0.0
  0
VERTEX
  5
1F37
  8
GRID_500X500M
 10
172217.54584023921
 20
9953500.0
 30
0.0
  0
SEQEND
  5
1F38
  8
GRID_500X500M
  0
POLYLINE
  5
1555
  8
GRID_500X500M
 66
     1
 10
0.0
 20
0.0
 30
0.0
  0
VERTEX
  5
1F39
  8
GRID_500X500M
 10
169207.198370375
 20
9953000.0
 30
0.0
  0
VERTEX
  5
1F3A
  8
GRID_500X500M
 10
172336.7967555979
 20
9953000.0
 30
0.0
  0
SEQEND
  5
1F3B
  8
GRID_500X500M
  0
POLYLINE
  5
1559
  8
GRID_500X500M
 66
     1
 10
0.0
 20
0.0
 30
0.0
  0
VERTEX
  5
1F3C
  8
GRID_500X500M
 10
169457.15437111011
 20
9952500.0
 30
0.0
  0
VERTEX
  5
1F3D
  8
GRID_500X500M
 10
173126.8991900238
 20
9952500.0
 30
0.0
  0
SEQEND
  5
1F3E
  8
GRID_500X500M
  0
POLYLINE
  5
155D
  8
GRID_500X500M
 66
     1
 10
0.0
 20
0.0
 30
0.0
  0
VERTEX
  5
1F3F
  8
GRID_500X500M
 10
169597.20074074189
 20
9952000.0
 30
0.0
  0
VERTEX
  5
1F40
  8
GRID_500X500M
 10
173759.4340634736
 20
9952000.0
 30
0.0
  0
SEQEND
  5
1F41
  8
GRID_500X500M
  0
POLYLINE
  5
1561
  8
GRID_500X500M
 66
     1
 10
0.0
 20
0.0
 30
0.0
  0
VERTEX
  5
1F42
  8
GRID_500X500M
 10
167466.679217208
 20
9951500.0
 30
0.0
  0
VERTEX
  5
1F43
  8
GRID_500X500M
 10
173128.541399037
 20
9951500.0
 30
0.0
  0
SEQEND
  5
1F44
  8
GRID_500X500M
  0
POLYLINE
  5
1565
  8
GRID_500X500M
 66
     1
 10
0.0
 20
0.0
 30
0.0
  0
VERTEX
  5
1F45
  8
GRID_500X500M
 10
167500.0
 20
9950103.6515672784
 30
0.0
  0
VERTEX
  5
1F46
  8
GRID_500X500M
 10
167500.0
 20
9951536.738810638
 30
0.0
  0
SEQEND
  5
1F47
  8
GRID_500X500M
  0
POLYLINE
  5
1569
  8
GRID_500X500M
 66
     1
 10
0.0
 20
0.0
 30
0.0
  0
VERTEX
  5
1F48
  8
GRID_500X500M
 10
168000.0
 20
9950314.8859191947
 30
0.0
  0
VERTEX
  5
1F49
  8
GRID_500X500M
 10
168000.0
 20
9951926.7986201327
 30
0.0
  0
SEQEND
  5
1F4A
  8
GRID_500X500M
  0
POLYLINE
  5
156D
  8
GRID_500X500M
 66
     1
 10
0.0
 20
0.0
 30
0.0
  0
VERTEX
  5
1F4B
  8
GRID_500X500M
 10
168500.0
 20
9950342.906113334
 30
0.0
  0
VERTEX
  5
1F4C
  8
GRID_500X500M
 10
168500.0
 20
9951825.8283502795
 30
0.0
  0
SEQEND
  5
1F4D
  8
GRID_500X500M
  0
POLYLINE
  5
1571
  8
GRID_500X500M
 66
     1
 10
0.0
 20
0.0
 30
0.0
  0
VERTEX
  5
1F4E
  8
GRID_500X500M
 10
169000.0
 20
9949817.4239896554
 30
0.0
  0
VERTEX
  5
1F4F
  8
GRID_500X500M
 10
169000.0
 20
9952076.8284501955
 30
0.0
  0
SEQEND
  5
1F50
  8
GRID_500X500M
  0
POLYLINE
  5
1575
  8
GRID_500X500M
 66
     1
 10
0.0
 20
0.0
 30
0.0
  0
VERTEX
  5
1F51
  8
GRID_500X500M
 10
169500.0
 20
9954382.7099500466
 30
0.0
  0
VERTEX
  5
1F52
  8
GRID_500X500M
 10
169500.0
 20
9954589.5833511017
 30
0.0
  0
SEQEND
  5
1F53
  8
GRID_500X500M
  0
POLYLINE
  5
1579
  8
GRID_500X500M
 66
     1
 10
0.0
 20
0.0
 30
0.0
  0
VERTEX
  5
1F54
  8
GRID_500X500M
 10
170000.0
 20
9949372.6299311444
 30
0.0
  0
VERTEX
  5
1F55
  8
GRID_500X500M
 10
170000.0
 20
9954399.0025086161
 30
0.0
  0
SEQEND
  5
1F56
  8
GRID_500X500M
  0
POLYLINE
  5
157D
  8
GRID_500X500M
 66
     1
 10
0.0
 20
0.0
 30
0.0
  0
VERTEX
  5
1F57
  8
GRID_500X500M
 10
169429.30723814739
 20
9954500.0
 30
0.0
  0
VERTEX
  5
1F58
  8
GRID_500X500M
 10
169600.83941572171
 20
9954500.0
 30
0.0
  0
SEQEND
  5
1F59
  8
GRID_500X500M
  0
POLYLINE
  5
1581
  8
GRID_500X500M
 66
     1
 10
0.0
 20
0.0
 30
0.0
  0
VERTEX
  5
1F5A
  8
GRID_500X500M
 10
168904.5309152944
 20
9952000.0
 30
0.0
  0
VERTEX
  5
1F5B
  8
GRID_500X500M
 10
169224.0289406199
 20
9952000.0
 30
0.0
  0
SEQEND
  5
1F5C
  8
GRID_500X500M
  0
POLYLINE
  5
1585
  8
GRID_500X500M
 66
     1
 10
0.0
 20
0.0
 30
0.0
  0
VERTEX
  5
1F5D
  8
GRID_500X500M
 10
169163.97243795759
 20
9949500.0
 30
0.0
  0
VERTEX
  5
1F5E
  8
GRID_500X500M
 10
170163.13451494821
 20
9949500.0
 30
0.0
  0
SEQEND
  5
1F5F
  8
GRID_500X500M
  0
POLYLINE
  5
1589
  8
GRID_500X500M
 66
     1
 10
0.0
 20
0.0
 30
0.0
  0
VERTEX
  5
1F60
  8
GRID_500X500M
 10
169500.0
 20
9949149.8673108015
 30
0.0
  0
VERTEX
  5
1F61
  8
GRID_500X500M
 10
169500.0
 20
9951882.9495684765
 30
0.0
  0
SEQEND
  5
1F62
  8
GRID_500X500M
  0
POLYLINE
  5
158D
  8
GRID_500X500M
 66
     1
 10
0.0
 20
0.0
 30
0.0
  0
VERTEX
  5
1F63
  8
GRID_500X500M
 10
169500.0
 20
9952384.4515643064
 30
0.0
  0
VERTEX
  5
1F64
  8
GRID_500X500M
 10
169500.0
 20
9954094.7611843646
 30
0.0
  0
SEQEND
  5
1F65
  8
GRID_500X500M
  0
POLYLINE
  5
1591
  8
GRID_500X500M
 66
     1
 10
0.0
 20
0.0
 30
0.0
  0
VERTEX
  5
1F66
  8
GRID_500X500M
 10
170500.0
 20
9949409.9622102082
 30
0.0
  0
VERTEX
  5
1F67
  8
GRID_500X500M
 10
170500.0
 20
9954375.2249676231
 30
0.0
  0
SEQEND
  5
1F68
  8
GRID_500X500M
  0
POLYLINE
  5
1595
  8
GRID_500X500M
 66
     1
 10
0.0
 20
0.0
 30
0.0
  0
VERTEX
  5
1F69
  8
GRID_500X500M
 10
171000.0
 20
9949201.1530323923
 30
0.0
  0
VERTEX
  5
1F6A
  8
GRID_500X500M
 10
171000.0
 20
9954830.6142264027
 30
0.0
  0
SEQEND
  5
1F6B
  8
GRID_500X500M
  0
POLYLINE
  5
1599
  8
GRID_500X500M
 66
     1
 10
0.0
 20
0.0
 30
0.0
  0
VERTEX
  5
1F6C
  8
GRID_500X500M
 10
171500.0
 20
9949044.3416889459
 30
0.0
  0
VERTEX
  5
1F6D
  8
GRID_500X500M
 10
171500.0
 20
9954093.7114114705
 30
0.0
  0
SEQEND
  5
1F6E
  8
GRID_500X500M
  0
POLYLINE
  5
159D
  8
GRID_500X500M
 66
     1
 10
0.0
 20
0.0
 30
0.0
  0
VERTEX
  5
1F6F
  8
GRID_500X500M
 10
170652.564416807
 20
9954500.0
 30
0.0
  0
VERTEX
  5
1F70
  8
GRID_500X500M
 10
171197.2742558014
 20
9954500.0
 30
0.0
  0
SEQEND
  5
1F71
  8
GRID_500X500M
  0
POLYLINE
  5
15A1
  8
GRID_500X500M
 66
     1
 10
0.0
 20
0.0
 30
0.0
  0
VERTEX
  5
1F72
  8
GRID_500X500M
 10
172000.0
 20
9949478.8790321127
 30
0.0
  0
VERTEX
  5
1F73
  8
GRID_500X500M
 10
172000.0
 20
9953981.1100089606
 30
0.0
  0
SEQEND
  5
1F74
  8
GRID_500X500M
  0
POLYLINE
  5
15A5
  8
GRID_500X500M
 66
     1
 10
0.0
 20
0.0
 30
0.0
  0
VERTEX
  5
1F75
  8
GRID_500X500M
 10
172500.0
 20
9949010.8332002554
 30
0.0
  0
VERTEX
  5
1F76
  8
GRID_500X500M
 10
172500.0
 20
9952596.8184860293
 30
0.0
  0
SEQEND
  5
1F77
  8
GRID_500X500M
  0
POLYLINE
  5
15A9
  8
GRID_500X500M
 66
     1
 10
0.0
 20
0.0
 30
0.0
  0
VERTEX
  5
1F78
  8
GRID_500X500M
 10
173000.0
 20
9948854.1699206326
 30
0.0
  0
VERTEX
  5
1F79
  8
GRID_500X500M
 10
173000.0
 20
9952633.0912084747
 30
0.0
  0
SEQEND
  5
1F7A
  8
GRID_500X500M
  0
POLYLINE
  5
15AD
  8
GRID_500X500M
 66
     1
 10
0.0
 20
0.0
 30
0.0
  0
VERTEX
  5
1F7B
  8
GRID_500X500M
 10
173500.0
 20
9951636.5500866231
 30
0.0
  0
VERTEX
  5
1F7C
  8
GRID_500X500M
 10
173500.0
 20
9952218.5945451744
 30
0.0
  0
SEQEND
  5
1F7D
  8
GRID_500X500M
  0
POLYLINE
  5
15B1
  8
GRID_500X500M
 66
     1
 10
0.0
 20
0.0
 30
0.0
  0
VERTEX
  5
1F7E
  8
GRID_500X500M
 10
172566.68499294081
 20
9947500.0
 30
0.0
  0
VERTEX
  5
1F7F
  8
GRID_500X500M
 10
172993.54188892301
 20
9947500.0
 30
0.0
  0
SEQEND
  5
1F80
  8
GRID_500X500M
  0
POLYLINE
  5
15B5
  8
GRID_500X500M
 66
     1
 10
0.0
 20
0.0
 30
0.0
  0
VERTEX
  5
1F81
  8
GRID_500X500M
 10
173500.0
 20
9947522.0484410916
 30
0.0
  0
VERTEX
  5
1F82
  8
GRID_500X500M
 10
173500.0
 20
9951172.3411676753
 30
0.0
  0
SEQEND
  5
1F83
  8
GRID_500X500M
  0
POLYLINE
  5
15B9
  8
GRID_500X500M
 66
     1
 10
0.0
 20
0.0
 30
0.0
  0
VERTEX
  5
1F84
  8
GRID_500X500M
 10
173000.0
 20
9947501.0263058003
 30
0.0
  0
VERTEX
  5
1F85
  8
GRID_500X500M
 10
173000.0
 20
9947803.6612515133
 30
0.0
  0
SEQEND
  5
1F86
  8
GRID_500X500M
  0
POLYLINE
  5
15BD
  8
GRID_500X500M
 66
     1
 10
0.0
 20
0.0
 30
0.0
  0
VERTEX
  5
1F87
  8
GRID_500X500M
 10
176935.80439127659
 20
9937500.0
 30
0.0
  0
VERTEX
  5
1F88
  8
GRID_500X500M
 10
180580.72541358741
 20
9937500.0
 30
0.0
  0
SEQEND
  5
1F89
  8
GRID_500X500M
  0
POLYLINE
  5
15C1
  8
GRID_500X500M
 66
     1
 10
0.0
 20
0.0
 30
0.0
  0
VERTEX
  5
1F8A
  8
GRID_500X500M
 10
176009.5192532255
 20
9938000.0
 30
0.0
  0
VERTEX
  5
1F8B
  8
GRID_500X500M
 10
180589.71627222319
 20
9938000.0
 30
0.0
  0
SEQEND
  5
1F8C
  8
GRID_500X500M
  0
POLYLINE
  5
15C5
  8
GRID_500X500M
 66
     1
 10
0.0
 20
0.0
 30
0.0
  0
VERTEX
  5
1F8D
  8
GRID_500X500M
 10
175601.61734448181
 20
9938500.0
 30
0.0
  0
VERTEX
  5
1F8E
  8
GRID_500X500M
 10
180180.67091277291
 20
9938500.0
 30
0.0
  0
SEQEND
  5
1F8F
  8
GRID_500X500M
  0
POLYLINE
  5
15C9
  8
GRID_500X500M
 66
     1
 10
0.0
 20
0.0
 30
0.0
  0
VERTEX
  5
1F90
  8
GRID_500X500M
 10
175784.83798386491
 20
9939000.0
 30
0.0
  0
VERTEX
  5
1F91
  8
GRID_500X500M
 10
180199.05449092371
 20
9939000.0
 30
0.0
  0
SEQEND
  5
1F92
  8
GRID_500X500M
  0
POLYLINE
  5
15CD
  8
GRID_500X500M
 66
     1
 10
0.0
 20
0.0
 30
0.0
  0
VERTEX
  5
1F93
  8
GRID_500X500M
 10
176019.8135149242
 20
9939500.0
 30
0.0
  0
VERTEX
  5
1F94
  8
GRID_500X500M
 10
180309.86885728061
 20
9939500.0
 30
0.0
  0
SEQEND
  5
1F95
  8
GRID_500X500M
  0
POLYLINE
  5
15D1
  8
GRID_500X500M
 66
     1
 10
0.0
 20
0.0
 30
0.0
  0
VERTEX
  5
1F96
  8
GRID_500X500M
 10
176574.58566070901
 20
9940000.0
 30
0.0
  0
VERTEX
  5
1F97
  8
GRID_500X500M
 10
180189.4465467672
 20
9940000.0
 30
0.0
  0
SEQEND
  5
1F98
  8
GRID_500X500M
  0
POLYLINE
  5
15D5
  8
GRID_500X500M
 66
     1
 10
0.0
 20
0.0
 30
0.0
  0
VERTEX
  5
1F99
  8
GRID_500X500M
 10
176787.00630602639
 20
9940500.0
 30
0.0
  0
VERTEX
  5
1F9A
  8
GRID_500X500M
 10
180178.17456576321
 20
9940500.0
 30
0.0
  0
SEQEND
  5
1F9B
  8
GRID_500X500M
  0
POLYLINE
  5
15D9
  8
GRID_500X500M
 66
     1
 10
0.0
 20
0.0
 30
0.0
  0
VERTEX
  5
1F9C
  8
GRID_500X500M
 10
176051.8472453907
 20
9941000.0
 30
0.0
  0
VERTEX
  5
1F9D
  8
GRID_500X500M
 10
179824.16385447819
 20
9941000.0
 30
0.0
  0
SEQEND
  5
1F9E
  8
GRID_500X500M
  0
POLYLINE
  5
15DD
  8
GRID_500X500M
 66
     1
 10
0.0
 20
0.0
 30
0.0
  0
VERTEX
  5
1F9F
  8
GRID_500X500M
 10
175083.76945109779
 20
9941500.0
 30
0.0
  0
VERTEX
  5
1FA0
  8
GRID_500X500M
 10
179604.28816763821
 20
9941500.0
 30
0.0
  0
SEQEND
  5
1FA1
  8
GRID_500X500M
  0
POLYLINE
  5
15E1
  8
GRID_500X500M
 66
     1
 10
0.0
 20
0.0
 30
0.0
  0
VERTEX
  5
1FA2
  8
GRID_500X500M
 10
174629.380815107
 20
9942000.0
 30
0.0
  0
VERTEX
  5
1FA3
  8
GRID_500X500M
 10
179779.04465954669
 20
9942000.0
 30
0.0
  0
SEQEND
  5
1FA4
  8
GRID_500X500M
  0
POLYLINE
  5
15E5
  8
GRID_500X500M
 66
     1
 10
0.0
 20
0.0
 30
0.0
  0
VERTEX
  5
1FA5
  8
GRID_500X500M
 10
174463.2126032181
 20
9942500.0
 30
0.0
  0
VERTEX
  5
1FA6
  8
GRID_500X500M
 10
179798.2579458823
 20
9942500.0
 30
0.0
  0
SEQEND
  5
1FA7
  8
GRID_500X500M
  0
POLYLINE
  5
15E9
  8
GRID_500X500M
 66
     1
 10
0.0
 20
0.0
 30
0.0
  0
VERTEX
  5
1FA8
  8
GRID_500X500M
 10
176893.42956652949
 20
9945000.0
 30
0.0
  0
VERTEX
  5
1FA9
  8
GRID_500X500M
 10
180582.3471899998
 20
9945000.0
 30
0.0
  0
SEQEND
  5
1FAA
  8
GRID_500X500M
  0
POLYLINE
  5
15ED
  8
GRID_500X500M
 66
     1
 10
0.0
 20
0.0
 30
0.0
  0
VERTEX
  5
1FAB
  8
GRID_500X500M
 10
176744.9096078405
 20
9945500.0
 30
0.0
  0
VERTEX
  5
1FAC
  8
GRID_500X500M
 10
180825.55449723071
 20
9945500.0
 30
0.0
  0
SEQEND
  5
1FAD
  8
GRID_500X500M
  0
POLYLINE
  5
15F1
  8
GRID_500X500M
 66
     1
 10
0.0
 20
0.0
 30
0.0
  0
VERTEX
  5
1FAE
  8
GRID_500X500M
 10
176483.98107025711
 20
9946000.0
 30
0.0
  0
VERTEX
  5
1FAF
  8
GRID_500X500M
 10
180767.7780304912
 20
9946000.0
 30
0.0
  0
SEQEND
  5
1FB0
  8
GRID_500X500M
  0
POLYLINE
  5
15F5
  8
GRID_500X500M
 66
     1
 10
0.0
 20
0.0
 30
0.0
  0
VERTEX
  5
1FB1
  8
GRID_500X500M
 10
176853.4662700826
 20
9946500.0
 30
0.0
  0
VERTEX
  5
1FB2
  8
GRID_500X500M
 10
180863.55867719519
 20
9946500.0
 30
0.0
  0
SEQEND
  5
1FB3
  8
GRID_500X500M
  0
POLYLINE
  5
15F9
  8
GRID_500X500M
 66
     1
 10
0.0
 20
0.0
 30
0.0
  0
VERTEX
  5
1FB4
  8
GRID_500X500M
 10
175054.56348000839
 20
9947000.0
 30
0.0
  0
VERTEX
  5
1FB5
  8
GRID_500X500M
 10
176439.96062943881
 20
9947000.0
 30
0.0
  0
SEQEND
  5
1FB6
  8
GRID_500X500M
  0
POLYLINE
  5
15FD
  8
GRID_500X500M
 66
     1
 10
0.0
 20
0.0
 30
0.0
  0
VERTEX
  5
1FB7
  8
GRID_500X500M
 10
174757.4156752358
 20
9946500.0
 30
0.0
  0
VERTEX
  5
1FB8
  8
GRID_500X500M
 10
175979.6282056034
 20
9946500.0
 30
0.0
  0
SEQEND
  5
1FB9
  8
GRID_500X500M
  0
POLYLINE
  5
1601
  8
GRID_500X500M
 66
     1
 10
0.0
 20
0.0
 30
0.0
  0
VERTEX
  5
1FBA
  8
GRID_500X500M
 10
175506.6563973304
 20
9943500.0
 30
0.0
  0
VERTEX
  5
1FBB
  8
GRID_500X500M
 10
175988.4093454541
 20
9943500.0
 30
0.0
  0
SEQEND
  5
1FBC
  8
GRID_500X500M
  0
POLYLINE
  5
1605
  8
GRID_500X500M
 66
     1
 10
0.0
 20
0.0
 30
0.0
  0
VERTEX
  5
1FBD
  8
GRID_500X500M
 10
175101.28524022759
 20
9943000.0
 30
0.0
  0
VERTEX
  5
1FBE
  8
GRID_500X500M
 10
177146.38779678629
 20
9943000.0
 30
0.0
  0
SEQEND
  5
1FBF
  8
GRID_500X500M
  0
POLYLINE
  5
1609
  8
GRID_500X500M
 66
     1
 10
0.0
 20
0.0
 30
0.0
  0
VERTEX
  5
1FC0
  8
GRID_500X500M
 10
175349.22755497281
 20
9941000.0
 30
0.0
  0
VERTEX
  5
1FC1
  8
GRID_500X500M
 10
175794.58953909599
 20
9941000.0
 30
0.0
  0
SEQEND
  5
1FC2
  8
GRID_500X500M
  0
POLYLINE
  5
160D
  8
GRID_500X500M
 66
     1
 10
0.0
 20
0.0
 30
0.0
  0
VERTEX
  5
1FC3
  8
GRID_500X500M
 10
175584.85569248989
 20
9939500.0
 30
0.0
  0
VERTEX
  5
1FC4
  8
GRID_500X500M
 10
175720.091587003
 20
9939500.0
 30
0.0
  0
SEQEND
  5
1FC5
  8
GRID_500X500M
  0
POLYLINE
  5
1611
  8
GRID_500X500M
 66
     1
 10
0.0
 20
0.0
 30
0.0
  0
VERTEX
  5
1FC6
  8
GRID_500X500M
 10
174000.0
 20
9947311.5967785995
 30
0.0
  0
VERTEX
  5
1FC7
  8
GRID_500X500M
 10
174000.0
 20
9950988.8398921434
 30
0.0
  0
SEQEND
  5
1FC8
  8
GRID_500X500M
  0
POLYLINE
  5
1615
  8
GRID_500X500M
 66
     1
 10
0.0
 20
0.0
 30
0.0
  0
VERTEX
  5
1FC9
  8
GRID_500X500M
 10
174500.0
 20
9947742.0745214
 30
0.0
  0
VERTEX
  5
1FCA
  8
GRID_500X500M
 10
174500.0
 20
9951092.9193438534
 30
0.0
  0
SEQEND
  5
1FCB
  8
GRID_500X500M
  0
POLYLINE
  5
1619
  8
GRID_500X500M
 66
     1
 10
0.0
 20
0.0
 30
0.0
  0
VERTEX
  5
1FCC
  8
GRID_500X500M
 10
175000.0
 20
9947105.6823885757
 30
0.0
  0
VERTEX
  5
1FCD
  8
GRID_500X500M
 10
175000.0
 20
9951263.2965437453
 30
0.0
  0
SEQEND
  5
1FCE
  8
GRID_500X500M
  0
POLYLINE
  5
161D
  8
GRID_500X500M
 66
     1
 10
0.0
 20
0.0
 30
0.0
  0
VERTEX
  5
1FCF
  8
GRID_500X500M
 10
175500.0
 20
9946100.6683658566
 30
0.0
  0
VERTEX
  5
1FD0
  8
GRID_500X500M
 10
175500.0
 20
9951225.2794429883
 30
0.0
  0
SEQEND
  5
1FD1
  8
GRID_500X500M
  0
POLYLINE
  5
1621
  8
GRID_500X500M
 66
     1
 10
0.0
 20
0.0
 30
0.0
  0
VERTEX
  5
1FD2
  8
GRID_500X500M
 10
173966.4116465736
 20
9947500.0
 30
0.0
  0
VERTEX
  5
1FD3
  8
GRID_500X500M
 10
174086.44381677959
 20
9947500.0
 30
0.0
  0
SEQEND
  5
1FD4
  8
GRID_500X500M
  0
POLYLINE
  5
1625
  8
GRID_500X500M
 66
     1
 10
0.0
 20
0.0
 30
0.0
  0
VERTEX
  5
1FD5
  8
GRID_500X500M
 10
175075.97693462879
 20
9943500.0
 30
0.0
  0
VERTEX
  5
1FD6
  8
GRID_500X500M
 10
175209.18772586761
 20
9943500.0
 30
0.0
  0
SEQEND
  5
1FD7
  8
GRID_500X500M
  0
POLYLINE
  5
1629
  8
GRID_500X500M
 66
     1
 10
0.0
 20
0.0
 30
0.0
  0
VERTEX
  5
1FD8
  8
GRID_500X500M
 10
175047.0375498379
 20
9941000.0
 30
0.0
  0
VERTEX
  5
1FD9
  8
GRID_500X500M
 10
175127.8719116172
 20
9941000.0
 30
0.0
  0
SEQEND
  5
1FDA
  8
GRID_500X500M
  0
POLYLINE
  5
162D
  8
GRID_500X500M
 66
     1
 10
0.0
 20
0.0
 30
0.0
  0
VERTEX
  5
1FDB
  8
GRID_500X500M
 10
175500.0
 20
9939380.7150257453
 30
0.0
  0
VERTEX
  5
1FDC
  8
GRID_500X500M
 10
175500.0
 20
9939446.4483468514
 30
0.0
  0
SEQEND
  5
1FDD
  8
GRID_500X500M
  0
POLYLINE
  5
1631
  8
GRID_500X500M
 66
     1
 10
0.0
 20
0.0
 30
0.0
  0
VERTEX
  5
1FDE
  8
GRID_500X500M
 10
175500.0
 20
9940986.5231268406
 30
0.0
  0
VERTEX
  5
1FDF
  8
GRID_500X500M
 10
175500.0
 20
9943485.0435074884
 30
0.0
  0
SEQEND
  5
1FE0
  8
GRID_500X500M
  0
POLYLINE
  5
1635
  8
GRID_500X500M
 66
     1
 10
0.0
 20
0.0
 30
0.0
  0
VERTEX
  5
1FE1
  8
GRID_500X500M
 10
175000.0
 20
9941012.6543652229
 30
0.0
  0
VERTEX
  5
1FE2
  8
GRID_500X500M
 10
175000.0
 20
9941321.3715062179
 30
0.0
  0
SEQEND
  5
1FE3
  8
GRID_500X500M
  0
POLYLINE
  5
1639
  8
GRID_500X500M
 66
     1
 10
0.0
 20
0.0
 30
0.0
  0
VERTEX
  5
1FE4
  8
GRID_500X500M
 10
175000.0
 20
9941908.4594236966
 30
0.0
  0
VERTEX
  5
1FE5
  8
GRID_500X500M
 10
175000.0
 20
9942726.4808820672
 30
0.0
  0
SEQEND
  5
1FE6
  8
GRID_500X500M
  0
POLYLINE
  5
163D
  8
GRID_500X500M
 66
     1
 10
0.0
 20
0.0
 30
0.0
  0
VERTEX
  5
1FE7
  8
GRID_500X500M
 10
175000.0
 20
9946360.6090608332
 30
0.0
  0
VERTEX
  5
1FE8
  8
GRID_500X500M
 10
175000.0
 20
9946811.8750199657
 30
0.0
  0
SEQEND
  5
1FE9
  8
GRID_500X500M
  0
POLYLINE
  5
1641
  8
GRID_500X500M
 66
     1
 10
0.0
 20
0.0
 30
0.0
  0
VERTEX
  5
1FEA
  8
GRID_500X500M
 10
174500.0
 20
9942081.3032189272
 30
0.0
  0
VERTEX
  5
1FEB
  8
GRID_500X500M
 10
174500.0
 20
9942569.3568388801
 30
0.0
  0
SEQEND
  5
1FEC
  8
GRID_500X500M
  0
POLYLINE
  5
1645
  8
GRID_500X500M
 66
     1
 10
0.0
 20
0.0
 30
0.0
  0
VERTEX
  5
1FED
  8
GRID_500X500M
 10
174500.0
 20
9942626.4234948233
 30
0.0
  0
VERTEX
  5
1FEE
  8
GRID_500X500M
 10
174500.0
 20
9942822.7713001557
 30
0.0
  0
SEQEND
  5
1FEF
  8
GRID_500X500M
  0
POLYLINE
  5
1649
  8
GRID_500X500M
 66
     1
 10
0.0
 20
0.0
 30
0.0
  0
VERTEX
  5
1FF0
  8
GRID_500X500M
 10
176000.0
 20
9946516.7573591229
 30
0.0
  0
VERTEX
  5
1FF1
  8
GRID_500X500M
 10
176000.0
 20
9951232.8202549815
 30
0.0
  0
SEQEND
  5
1FF2
  8
GRID_500X500M
  0
POLYLINE
  5
164D
  8
GRID_500X500M
 66
     1
 10
0.0
 20
0.0
 30
0.0
  0
VERTEX
  5
1FF3
  8
GRID_500X500M
 10
176500.0
 20
9947046.0182205867
 30
0.0
  0
VERTEX
  5
1FF4
  8
GRID_500X500M
 10
176500.0
 20
9951316.6096708719
 30
0.0
  0
SEQEND
  5
1FF5
  8
GRID_500X500M
  0
POLYLINE
  5
1651
  8
GRID_500X500M
 66
     1
 10
0.0
 20
0.0
 30
0.0
  0
VERTEX
  5
1FF6
  8
GRID_500X500M
 10
177000.0
 20
9945488.2086310517
 30
0.0
  0
VERTEX
  5
1FF7
  8
GRID_500X500M
 10
177000.0
 20
9951294.2178138904
 30
0.0
  0
SEQEND
  5
1FF8
  8
GRID_500X500M
  0
POLYLINE
  5
1655
  8
GRID_500X500M
 66
     1
 10
0.0
 20
0.0
 30
0.0
  0
VERTEX
  5
1FF9
  8
GRID_500X500M
 10
176247.0143842127
 20
9945500.0
 30
0.0
  0
VERTEX
  5
1FFA
  8
GRID_500X500M
 10
176441.32187984491
 20
9945500.0
 30
0.0
  0
SEQEND
  5
1FFB
  8
GRID_500X500M
  0
POLYLINE
  5
1659
  8
GRID_500X500M
 66
     1
 10
0.0
 20
0.0
 30
0.0
  0
VERTEX
  5
1FFC
  8
GRID_500X500M
 10
176521.65964518601
 20
9943500.0
 30
0.0
  0
VERTEX
  5
1FFD
  8
GRID_500X500M
 10
177173.87109664819
 20
9943500.0
 30
0.0
  0
SEQEND
  5
1FFE
  8
GRID_500X500M
  0
POLYLINE
  5
165D
  8
GRID_500X500M
 66
     1
 10
0.0
 20
0.0
 30
0.0
  0
VERTEX
  5
1FFF
  8
GRID_500X500M
 10
175750.6875097286
 20
9939500.0
 30
0.0
  0
VERTEX
  5
2000
  8
GRID_500X500M
 10
175864.0000526534
 20
9939500.0
 30
0.0
  0
SEQEND
  5
2001
  8
GRID_500X500M
  0
POLYLINE
  5
1661
  8
GRID_500X500M
 66
     1
 10
0.0
 20
0.0
 30
0.0
  0
VERTEX
  5
2002
  8
GRID_500X500M
 10
177000.0
 20
9937431.2784689683
 30
0.0
  0
VERTEX
  5
2003
  8
GRID_500X500M
 10
177000.0
 20
9943572.5376488734
 30
0.0
  0
SEQEND
  5
2004
  8
GRID_500X500M
  0
POLYLINE
  5
1665
  8
GRID_500X500M
 66
     1
 10
0.0
 20
0.0
 30
0.0
  0
VERTEX
  5
2005
  8
GRID_500X500M
 10
177000.0
 20
9944921.3869476784
 30
0.0
  0
VERTEX
  5
2006
  8
GRID_500X500M
 10
177000.0
 20
9945268.0063893981
 30
0.0
  0
SEQEND
  5
2007
  8
GRID_500X500M
  0
POLYLINE
  5
1669
  8
GRID_500X500M
 66
     1
 10
0.0
 20
0.0
 30
0.0
  0
VERTEX
  5
2008
  8
GRID_500X500M
 10
176500.0
 20
9937617.9076098166
 30
0.0
  0
VERTEX
  5
2009
  8
GRID_500X500M
 10
176500.0
 20
9939580.6290010475
 30
0.0
  0
SEQEND
  5
200A
  8
GRID_500X500M
  0
POLYLINE
  5
166D
  8
GRID_500X500M
 66
     1
 10
0.0
 20
0.0
 30
0.0
  0
VERTEX
  5
200B
  8
GRID_500X500M
 10
176500.0
 20
9940694.2750182301
 30
0.0
  0
VERTEX
  5
200C
  8
GRID_500X500M
 10
176500.0
 20
9943490.7226072792
 30
0.0
  0
SEQEND
  5
200D
  8
GRID_500X500M
  0
POLYLINE
  5
1671
  8
GRID_500X500M
 66
     1
 10
0.0
 20
0.0
 30
0.0
  0
VERTEX
  5
200E
  8
GRID_500X500M
 10
176500.0
 20
9945530.523115024
 30
0.0
  0
VERTEX
  5
200F
  8
GRID_500X500M
 10
176500.0
 20
9945837.110983504
 30
0.0
  0
SEQEND
  5
2010
  8
GRID_500X500M
  0
POLYLINE
  5
1675
  8
GRID_500X500M
 66
     1
 10
0.0
 20
0.0
 30
0.0
  0
VERTEX
  5
2011
  8
GRID_500X500M
 10
176500.0
 20
9945947.5353834238
 30
0.0
  0
VERTEX
  5
2012
  8
GRID_500X500M
 10
176500.0
 20
9946290.5101374816
 30
0.0
  0
SEQEND
  5
2013
  8
GRID_500X500M
  0
POLYLINE
  5
1679
  8
GRID_500X500M
 66
     1
 10
0.0
 20
0.0
 30
0.0
  0
VERTEX
  5
2014
  8
GRID_500X500M
 10
176000.0
 20
9938034.0699518379
 30
0.0
  0
VERTEX
  5
2015
  8
GRID_500X500M
 10
176000.0
 20
9939491.7502544466
 30
0.0
  0
SEQEND
  5
2016
  8
GRID_500X500M
  0
POLYLINE
  5
167D
  8
GRID_500X500M
 66
     1
 10
0.0
 20
0.0
 30
0.0
  0
VERTEX
  5
2017
  8
GRID_500X500M
 10
176000.0
 20
9941011.2009462919
 30
0.0
  0
VERTEX
  5
2018
  8
GRID_500X500M
 10
176000.0
 20
9943484.9251719005
 30
0.0
  0
SEQEND
  5
2019
  8
GRID_500X500M
  0
POLYLINE
  5
1681
  8
GRID_500X500M
 66
     1
 10
0.0
 20
0.0
 30
0.0
  0
VERTEX
  5
201A
  8
GRID_500X500M
 10
178860.9377502944
 20
9936500.0
 30
0.0
  0
VERTEX
  5
201B
  8
GRID_500X500M
 10
179822.6779375331
 20
9936500.0
 30
0.0
  0
SEQEND
  5
201C
  8
GRID_500X500M
  0
POLYLINE
  5
1685
  8
GRID_500X500M
 66
     1
 10
0.0
 20
0.0
 30
0.0
  0
VERTEX
  5
201D
  8
GRID_500X500M
 10
178683.2876004687
 20
9937000.0
 30
0.0
  0
VERTEX
  5
201E
  8
GRID_500X500M
 10
180524.5810399818
 20
9937000.0
 30
0.0
  0
SEQEND
  5
201F
  8
GRID_500X500M
  0
POLYLINE
  5
1689
  8
GRID_500X500M
 66
     1
 10
0.0
 20
0.0
 30
0.0
  0
VERTEX
  5
2020
  8
GRID_500X500M
 10
177512.5588962317
 20
9943000.0
 30
0.0
  0
VERTEX
  5
2021
  8
GRID_500X500M
 10
179896.65509138879
 20
9943000.0
 30
0.0
  0
SEQEND
  5
2022
  8
GRID_500X500M
  0
POLYLINE
  5
168D
  8
GRID_500X500M
 66
     1
 10
0.0
 20
0.0
 30
0.0
  0
VERTEX
  5
2023
  8
GRID_500X500M
 10
177537.7452429829
 20
9943500.0
 30
0.0
  0
VERTEX
  5
2024
  8
GRID_500X500M
 10
179851.46398093581
 20
9943500.0
 30
0.0
  0
SEQEND
  5
2025
  8
GRID_500X500M
  0
POLYLINE
  5
1691
  8
GRID_500X500M
 66
     1
 10
0.0
 20
0.0
 30
0.0
  0
VERTEX
  5
2026
  8
GRID_500X500M
 10
177643.51437991351
 20
9944000.0
 30
0.0
  0
VERTEX
  5
2027
  8
GRID_500X500M
 10
179935.35728244821
 20
9944000.0
 30
0.0
  0
SEQEND
  5
2028
  8
GRID_500X500M
  0
POLYLINE
  5
1695
  8
GRID_500X500M
 66
     1
 10
0.0
 20
0.0
 30
0.0
  0
VERTEX
  5
2029
  8
GRID_500X500M
 10
177976.65230273319
 20
9944500.0
 30
0.0
  0
VERTEX
  5
202A
  8
GRID_500X500M
 10
180078.76851507489
 20
9944500.0
 30
0.0
  0
SEQEND
  5
202B
  8
GRID_500X500M
  0
POLYLINE
  5
1699
  8
GRID_500X500M
 66
     1
 10
0.0
 20
0.0
 30
0.0
  0
VERTEX
  5
202C
  8
GRID_500X500M
 10
179096.7573150341
 20
9954000.0
 30
0.0
  0
VERTEX
  5
202D
  8
GRID_500X500M
 10
179696.77532289401
 20
9954000.0
 30
0.0
  0
SEQEND
  5
202E
  8
GRID_500X500M
  0
POLYLINE
  5
169D
  8
GRID_500X500M
 66
     1
 10
0.0
 20
0.0
 30
0.0
  0
VERTEX
  5
202F
  8
GRID_500X500M
 10
177500.0
 20
9944819.1975231543
 30
0.0
  0
VERTEX
  5
2030
  8
GRID_500X500M
 10
177500.0
 20
9951445.3759501223
 30
0.0
  0
SEQEND
  5
2031
  8
GRID_500X500M
  0
POLYLINE
  5
16A1
  8
GRID_500X500M
 66
     1
 10
0.0
 20
0.0
 30
0.0
  0
VERTEX
  5
2032
  8
GRID_500X500M
 10
178000.0
 20
9937214.7438356746
 30
0.0
  0
VERTEX
  5
2033
  8
GRID_500X500M
 10
178000.0
 20
9951667.9693517927
 30
0.0
  0
SEQEND
  5
2034
  8
GRID_500X500M
  0
POLYLINE
  5
16A5
  8
GRID_500X500M
 66
     1
 10
0.0
 20
0.0
 30
0.0
  0
VERTEX
  5
2035
  8
GRID_500X500M
 10
178500.0
 20
9937264.9490480293
 30
0.0
  0
VERTEX
  5
2036
  8
GRID_500X500M
 10
178500.0
 20
9951769.6208422557
 30
0.0
  0
SEQEND
  5
2037
  8
GRID_500X500M
  0
POLYLINE
  5
16A9
  8
GRID_500X500M
 66
     1
 10
0.0
 20
0.0
 30
0.0
  0
VERTEX
  5
2038
  8
GRID_500X500M
 10
179000.0
 20
9953723.7663414087
 30
0.0
  0
VERTEX
  5
2039
  8
GRID_500X500M
 10
179000.0
 20
9953889.1775439046
 30
0.0
  0
SEQEND
  5
203A
  8
GRID_500X500M
  0
POLYLINE
  5
16AD
  8
GRID_500X500M
 66
     1
 10
0.0
 20
0.0
 30
0.0
  0
VERTEX
  5
203B
  8
GRID_500X500M
 10
178607.769322051
 20
9936500.0
 30
0.0
  0
VERTEX
  5
203C
  8
GRID_500X500M
 10
178764.0646045194
 20
9936500.0
 30
0.0
  0
SEQEND
  5
203D
  8
GRID_500X500M
  0
POLYLINE
  5
16B1
  8
GRID_500X500M
 66
     1
 10
0.0
 20
0.0
 30
0.0
  0
VERTEX
  5
203E
  8
GRID_500X500M
 10
179000.0
 20
9936008.6844090167
 30
0.0
  0
VERTEX
  5
203F
  8
GRID_500X500M
 10
179000.0
 20
9952513.2797293868
 30
0.0
  0
SEQEND
  5
2040
  8
GRID_500X500M
  0
POLYLINE
  5
16B5
  8
GRID_500X500M
 66
     1
 10
0.0
 20
0.0
 30
0.0
  0
VERTEX
  5
2041
  8
GRID_500X500M
 10
177500.0
 20
9937310.8302374482
 30
0.0
  0
VERTEX
  5
2042
  8
GRID_500X500M
 10
177500.0
 20
9942752.4442448616
 30
0.0
  0
SEQEND
  5
2043
  8
GRID_500X500M
  0
POLYLINE
  5
16B9
  8
GRID_500X500M
 66
     1
 10
0.0
 20
0.0
 30
0.0
  0
VERTEX
  5
2044
  8
GRID_500X500M
 10
177500.0
 20
9943025.1007301547
 30
0.0
  0
VERTEX
  5
2045
  8
GRID_500X500M
 10
177500.0
 20
9943399.2779784966
 30
0.0
  0
SEQEND
  5
2046
  8
GRID_500X500M
  0
POLYLINE
  5
16BD
  8
GRID_500X500M
 66
     1
 10
0.0
 20
0.0
 30
0.0
  0
VERTEX
  5
2047
  8
GRID_500X500M
 10
179500.0
 20
9953504.4238512721
 30
0.0
  0
VERTEX
  5
2048
  8
GRID_500X500M
 10
179500.0
 20
9954087.3623765521
 30
0.0
  0
SEQEND
  5
2049
  8
GRID_500X500M
  0
POLYLINE
  5
16C1
  8
GRID_500X500M
 66
     1
 10
0.0
 20
0.0
 30
0.0
  0
VERTEX
  5
204A
  8
GRID_500X500M
 10
180000.0
 20
9956214.1258077268
 30
0.0
  0
VERTEX
  5
204B
  8
GRID_500X500M
 10
180000.0
 20
9956719.5056272838
 30
0.0
  0
SEQEND
  5
204C
  8
GRID_500X500M
  0
POLYLINE
  5
16C5
  8
GRID_500X500M
 66
     1
 10
0.0
 20
0.0
 30
0.0
  0
VERTEX
  5
204D
  8
GRID_500X500M
 10
180500.0
 20
9955188.8011026643
 30
0.0
  0
VERTEX
  5
204E
  8
GRID_500X500M
 10
180500.0
 20
9956694.8303214516
 30
0.0
  0
SEQEND
  5
204F
  8
GRID_500X500M
  0
POLYLINE
  5
16C9
  8
GRID_500X500M
 66
     1
 10
0.0
 20
0.0
 30
0.0
  0
VERTEX
  5
2050
  8
GRID_500X500M
 10
181000.0
 20
9946633.7392207365
 30
0.0
  0
VERTEX
  5
2051
  8
GRID_500X500M
 10
181000.0
 20
9956927.8226200808
 30
0.0
  0
SEQEND
  5
2052
  8
GRID_500X500M
  0
POLYLINE
  5
16CD
  8
GRID_500X500M
 66
     1
 10
0.0
 20
0.0
 30
0.0
  0
VERTEX
  5
2053
  8
GRID_500X500M
 10
179979.51554232609
 20
9955500.0
 30
0.0
  0
VERTEX
  5
2054
  8
GRID_500X500M
 10
180238.2464349673
 20
9955500.0
 30
0.0
  0
SEQEND
  5
2055
  8
GRID_500X500M
  0
POLYLINE
  5
16D1
  8
GRID_500X500M
 66
     1
 10
0.0
 20
0.0
 30
0.0
  0
VERTEX
  5
2056
  8
GRID_500X500M
 10
180500.0
 20
9936743.6566323843
 30
0.0
  0
VERTEX
  5
2057
  8
GRID_500X500M
 10
180500.0
 20
9937114.3092005588
 30
0.0
  0
SEQEND
  5
2058
  8
GRID_500X500M
  0
POLYLINE
  5
16D5
  8
GRID_500X500M
 66
     1
 10
0.0
 20
0.0
 30
0.0
  0
VERTEX
  5
2059
  8
GRID_500X500M
 10
180500.0
 20
9937243.7664457448
 30
0.0
  0
VERTEX
  5
205A
  8
GRID_500X500M
 10
180500.0
 20
9938178.0824021772
 30
0.0
  0
SEQEND
  5
205B
  8
GRID_500X500M
  0
POLYLINE
  5
16D9
  8
GRID_500X500M
 66
     1
 10
0.0
 20
0.0
 30
0.0
  0
VERTEX
  5
205C
  8
GRID_500X500M
 10
180500.0
 20
9944794.4227475543
 30
0.0
  0
VERTEX
  5
205D
  8
GRID_500X500M
 10
180500.0
 20
9954015.5142485201
 30
0.0
  0
SEQEND
  5
205E
  8
GRID_500X500M
  0
POLYLINE
  5
16DD
  8
GRID_500X500M
 66
     1
 10
0.0
 20
0.0
 30
0.0
  0
VERTEX
  5
205F
  8
GRID_500X500M
 10
180000.0
 20
9936554.2363350727
 30
0.0
  0
VERTEX
  5
2060
  8
GRID_500X500M
 10
180000.0
 20
9940773.4872213993
 30
0.0
  0
SEQEND
  5
2061
  8
GRID_500X500M
  0
POLYLINE
  5
16E1
  8
GRID_500X500M
 66
     1
 10
0.0
 20
0.0
 30
0.0
  0
VERTEX
  5
2062
  8
GRID_500X500M
 10
180000.0
 20
9944420.0229518227
 30
0.0
  0
VERTEX
  5
2063
  8
GRID_500X500M
 10
180000.0
 20
9953966.8050979041
 30
0.0
  0
SEQEND
  5
2064
  8
GRID_500X500M
  0
POLYLINE
  5
16E5
  8
GRID_500X500M
 66
     1
 10
0.0
 20
0.0
 30
0.0
  0
VERTEX
  5
2065
  8
GRID_500X500M
 10
180000.0
 20
9955482.7646335009
 30
0.0
  0
VERTEX
  5
2066
  8
GRID_500X500M
 10
180000.0
 20
9956079.8939497229
 30
0.0
  0
SEQEND
  5
2067
  8
GRID_500X500M
  0
POLYLINE
  5
16E9
  8
GRID_500X500M
 66
     1
 10
0.0
 20
0.0
 30
0.0
  0
VERTEX
  5
2068
  8
GRID_500X500M
 10
179500.0
 20
9936364.2010574006
 30
0.0
  0
VERTEX
  5
2069
  8
GRID_500X500M
 10
179500.0
 20
9953387.2520906534
 30
0.0
  0
SEQEND
  5
206A
  8
GRID_500X500M
  0
POLYLINE
  5
16ED
  8
GRID_500X500M
 66
     1
 10
0.0
 20
0.0
 30
0.0
  0
VERTEX
  5
206B
  8
GRID_500X500M
 10
183481.672353667
 20
9957500.0
 30
0.0
  0
VERTEX
  5
206C
  8
GRID_500X500M
 10
186689.89872018481
 20
9957500.0
 30
0.0
  0
SEQEND
  5
206D
  8
GRID_500X500M
  0
POLYLINE
  5
16F1
  8
GRID_500X500M
 66
     1
 10
0.0
 20
0.0
 30
0.0
  0
VERTEX
  5
206E
  8
GRID_500X500M
 10
181500.0
 20
9947387.1631345768
 30
0.0
  0
VERTEX
  5
206F
  8
GRID_500X500M
 10
181500.0
 20
9957163.9690435361
 30
0.0
  0
SEQEND
  5
2070
  8
GRID_500X500M
  0
POLYLINE
  5
16F5
  8
GRID_500X500M
 66
     1
 10
0.0
 20
0.0
 30
0.0
  0
VERTEX
  5
2071
  8
GRID_500X500M
 10
182000.0
 20
9948471.3683341313
 30
0.0
  0
VERTEX
  5
2072
  8
GRID_500X500M
 10
182000.0
 20
9957312.2478828114
 30
0.0
  0
SEQEND
  5
2073
  8
GRID_500X500M
  0
POLYLINE
  5
16F9
  8
GRID_500X500M
 66
     1
 10
0.0
 20
0.0
 30
0.0
  0
VERTEX
  5
2074
  8
GRID_500X500M
 10
182500.0
 20
9949292.5772433057
 30
0.0
  0
VERTEX
  5
2075
  8
GRID_500X500M
 10
182500.0
 20
9957322.7357582692
 30
0.0
  0
SEQEND
  5
2076
  8
GRID_500X500M
  0
POLYLINE
  5
16FD
  8
GRID_500X500M
 66
     1
 10
0.0
 20
0.0
 30
0.0
  0
VERTEX
  5
2077
  8
GRID_500X500M
 10
183000.0
 20
9950149.0171379652
 30
0.0
  0
VERTEX
  5
2078
  8
GRID_500X500M
 10
183000.0
 20
9957222.8123273365
 30
0.0
  0
SEQEND
  5
2079
  8
GRID_500X500M
  0
POLYLINE
  5
1701
  8
GRID_500X500M
 66
     1
 10
0.0
 20
0.0
 30
0.0
  0
VERTEX
  5
207A
  8
GRID_500X500M
 10
183500.0
 20
9950748.9175152499
 30
0.0
  0
VERTEX
  5
207B
  8
GRID_500X500M
 10
183500.0
 20
9957535.5931658056
 30
0.0
  0
SEQEND
  5
207C
  8
GRID_500X500M
  0
POLYLINE
  5
1705
  8
GRID_500X500M
 66
     1
 10
0.0
 20
0.0
 30
0.0
  0
VERTEX
  5
207D
  8
GRID_500X500M
 10
184000.0
 20
9952521.9012305643
 30
0.0
  0
VERTEX
  5
207E
  8
GRID_500X500M
 10
184000.0
 20
9957855.7090408877
 30
0.0
  0
SEQEND
  5
207F
  8
GRID_500X500M
  0
POLYLINE
  5
1709
  8
GRID_500X500M
 66
     1
 10
0.0
 20
0.0
 30
0.0
  0
VERTEX
  5
2080
  8
GRID_500X500M
 10
184500.0
 20
9953104.5105375238
 30
0.0
  0
VERTEX
  5
2081
  8
GRID_500X500M
 10
184500.0
 20
9957854.7054511886
 30
0.0
  0
SEQEND
  5
2082
  8
GRID_500X500M
  0
POLYLINE
  5
170D
  8
GRID_500X500M
 66
     1
 10
0.0
 20
0.0
 30
0.0
  0
VERTEX
  5
2083
  8
GRID_500X500M
 10
185617.06277170239
 20
9958000.0
 30
0.0
  0
VERTEX
  5
2084
  8
GRID_500X500M
 10
186847.5641051507
 20
9958000.0
 30
0.0
  0
SEQEND
  5
2085
  8
GRID_500X500M
  0
POLYLINE
  5
1711
  8
GRID_500X500M
 66
     1
 10
0.0
 20
0.0
 30
0.0
  0
VERTEX
  5
2086
  8
GRID_500X500M
 10
185000.0
 20
9954383.814876562
 30
0.0
  0
VERTEX
  5
2087
  8
GRID_500X500M
 10
185000.0
 20
9957760.2975000329
 30
0.0
  0
SEQEND
  5
2088
  8
GRID_500X500M
  0
POLYLINE
  5
1715
  8
GRID_500X500M
 66
     1
 10
0.0
 20
0.0
 30
0.0
  0
VERTEX
  5
2089
  8
GRID_500X500M
 10
185500.0
 20
9955336.3325951546
 30
0.0
  0
VERTEX
  5
208A
  8
GRID_500X500M
 10
185500.0
 20
9957939.3190986272
 30
0.0
  0
SEQEND
  5
208B
  8
GRID_500X500M
  0
POLYLINE
  5
1719
  8
GRID_500X500M
 66
     1
 10
0.0
 20
0.0
 30
0.0
  0
VERTEX
  5
208C
  8
GRID_500X500M
 10
186000.0
 20
9955569.7033155132
 30
0.0
  0
VERTEX
  5
208D
  8
GRID_500X500M
 10
186000.0
 20
9958107.5756846219
 30
0.0
  0
SEQEND
  5
208E
  8
GRID_500X500M
  0
POLYLINE
  5
171D
  8
GRID_500X500M
 66
     1
 10
0.0
 20
0.0
 30
0.0
  0
VERTEX
  5
208F
  8
GRID_500X500M
 10
186500.0
 20
9956327.3730923533
 30
0.0
  0
VERTEX
  5
2090
  8
GRID_500X500M
 10
186500.0
 20
9958175.7136272117
 30
0.0
  0
SEQEND
  5
2091
  8
GRID_500X500M
  0
ENDSEC
  0
EOF
