  0
SECTION
  2
HEADER
  9
$ACADVER
  1
AC1009
  9
$INSBASE
 10
0.0
 20
0.0
 30
0.0
  9
$EXTMIN
 10
629.28355071249405
 20
4661.0635917973914
 30
-0.0015257624927045
  9
$EXTMAX
 10
668.69182060122421
 20
4695.8594217613927
 30
3.0006409308414841
  9
$LIMMIN
 10
0.0
 20
0.0
  9
$LIMMAX
 10
12.0
 20
9.0
  9
$ORTHOMODE
 70
     0
  9
$REGENMODE
 70
     1
  9
$FILLMODE
 70
     1
  9
$QTEXTMODE
 70
     0
  9
$MIRRTEXT
 70
     1
  9
$DRAGMODE
 70
     2
  9
$LTSCALE
 40
1.0
  9
$OSMODE
 70
   613
  9
$ATTMODE
 70
     1
  9
$TEXTSIZE
 40
0.5
  9
$TRACEWID
 40
0.05
  9
$TEXTSTYLE
  7
STANDARD
  9
$CLAYER
  8
CONTOURS
  9
$CELTYPE
  6
BYLAYER
  9
$CECOLOR
 62
   256
  9
$DIMSCALE
 40
1.0
  9
$DIMASZ
 40
0.18
  9
$DIMEXO
 40
0.0625
  9
$DIMDLI
 40
0.38
  9
$DIMRND
 40
0.0
  9
$DIMDLE
 40
0.0
  9
$DIMEXE
 40
0.18
  9
$DIMTP
 40
0.0
  9
$DIMTM
 40
0.0
  9
$DIMTXT
 40
0.18
  9
$DIMCEN
 40
0.09
  9
$DIMTSZ
 40
0.0
  9
$DIMTOL
 70
     0
  9
$DIMLIM
 70
     0
  9
$DIMTIH
 70
     1
  9
$DIMTOH
 70
     1
  9
$DIMSE1
 70
     0
  9
$DIMSE2
 70
     0
  9
$DIMTAD
 70
     0
  9
$DIMZIN
 70
     0
  9
$DIMBLK
  1

  9
$DIMASO
 70
     1
  9
$DIMSHO
 70
     1
  9
$DIMPOST
  1

  9
$DIMAPOST
  1

  9
$DIMALT
 70
     0
  9
$DIMALTD
 70
     2
  9
$DIMALTF
 40
25.399999999999999
  9
$DIMLFAC
 40
1.0
  9
$DIMTOFL
 70
     0
  9
$DIMTVP
 40
0.0
  9
$DIMTIX
 70
     0
  9
$DIMSOXD
 70
     0
  9
$DIMSAH
 70
     0
  9
$DIMBLK1
  1

  9
$DIMBLK2
  1

  9
$DIMSTYLE
  2
STANDARD
  9
$DIMCLRD
 70
     0
  9
$DIMCLRE
 70
     0
  9
$DIMCLRT
 70
     0
  9
$DIMTFAC
 40
1.0
  9
$DIMGAP
 40
0.09
  9
$LUNITS
 70
     2
  9
$LUPREC
 70
     4
  9
$SKETCHINC
 40
0.1
  9
$FILLETRAD
 40
0.5
  9
$AUNITS
 70
     0
  9
$AUPREC
 70
     0
  9
$MENU
  1
.
  9
$ELEVATION
 40
0.0
  9
$PELEVATION
 40
0.0
  9
$THICKNESS
 40
0.0
  9
$LIMCHECK
 70
     0
  9
$BLIPMODE
 70
     0
  9
$CHAMFERA
 40
0.5
  9
$CHAMFERB
 40
0.5
  9
$SKPOLY
 70
     0
  9
$TDCREATE
 40
2454381.8473497801
  9
$TDUPDATE
 40
2455808.6667543752
  9
$TDINDWG
 40
0.1937419444
  9
$TDUSRTIMER
 40
0.1937419444
  9
$USRTIMER
 70
     1
  9
$ANGBASE
 50
0.0
  9
$ANGDIR
 70
     1
  9
$PDMODE
 70
    66
  9
$PDSIZE
 40
0.0
  9
$PLINEWID
 40
0.0
  9
$COORDS
 70
     1
  9
$SPLFRAME
 70
     0
  9
$SPLINETYPE
 70
     6
  9
$SPLINESEGS
 70
     8
  9
$ATTDIA
 70
     0
  9
$ATTREQ
 70
     1
  9
$HANDLING
 70
     1
  9
$HANDSEED
  5
BC1
  9
$SURFTAB1
 70
     6
  9
$SURFTAB2
 70
     6
  9
$SURFTYPE
 70
     6
  9
$SURFU
 70
     6
  9
$SURFV
 70
     6
  9
$UCSNAME
  2

  9
$UCSORG
 10
0.0
 20
0.0
 30
0.0
  9
$UCSXDIR
 10
1.0
 20
0.0
 30
0.0
  9
$UCSYDIR
 10
0.0
 20
1.0
 30
0.0
  9
$PUCSNAME
  2

  9
$PUCSORG
 10
0.0
 20
0.0
 30
0.0
  9
$PUCSXDIR
 10
1.0
 20
0.0
 30
0.0
  9
$PUCSYDIR
 10
0.0
 20
1.0
 30
0.0
  9
$USERI1
 70
     0
  9
$USERI2
 70
     0
  9
$USERI3
 70
     0
  9
$USERI4
 70
     0
  9
$USERI5
 70
     0
  9
$USERR1
 40
0.0
  9
$USERR2
 40
0.0
  9
$USERR3
 40
0.0
  9
$USERR4
 40
0.0
  9
$USERR5
 40
0.0
  9
$WORLDVIEW
 70
     1
  9
$SHADEDGE
 70
     3
  9
$SHADEDIF
 70
    70
  9
$TILEMODE
 70
     1
  9
$MAXACTVP
 70
    64
  9
$PLIMCHECK
 70
     0
  9
$PEXTMIN
 10
0.0
 20
0.0
 30
0.0
  9
$PEXTMAX
 10
0.0
 20
0.0
 30
0.0
  9
$PLIMMIN
 10
0.0
 20
0.0
  9
$PLIMMAX
 10
12.0
 20
9.0
  9
$UNITMODE
 70
     0
  9
$VISRETAIN
 70
     1
  9
$PLINEGEN
 70
     0
  9
$PSLTSCALE
 70
     1
  0
ENDSEC
  0
SECTION
  2
TABLES
  0
TABLE
  2
VPORT
 70
     1
  0
VPORT
  2
*ACTIVE
 70
     0
 10
0.0
 20
0.0
 11
1.0
 21
1.0
 12
648.98768565685907
 22
4678.461506779392
 13
0.0
 23
0.0
 14
0.5
 24
0.5
 15
0.5
 25
0.5
 16
0.0
 26
0.0
 36
1.0
 17
0.0
 27
0.0
 37
0.0
 40
35.052625757094567
 41
1.336206896551724
 42
50.0
 43
0.0
 44
0.0
 50
0.0
 51
0.0
 71
     0
 72
   100
 73
     1
 74
     2
 75
     0
 76
     0
 77
     0
 78
     0
  0
ENDTAB
  0
TABLE
  2
LTYPE
 70
     1
  0
LTYPE
  2
CONTINUOUS
 70
     0
  3
Solid line
 72
    65
 73
     0
 40
0.0
  0
ENDTAB
  0
TABLE
  2
LAYER
 70
     3
  0
LAYER
  2
0
 70
     0
 62
    -7
  6
CONTINUOUS
  0
LAYER
  2
CONTOURS
 70
     0
 62
    -5
  6
CONTINUOUS
  0
LAYER
  2
CLUSTERS
 70
     0
 62
     6
  6
CONTINUOUS
  0
ENDTAB
  0
TABLE
  2
STYLE
 70
     3
  0
STYLE
  2
STANDARD
 70
     0
 40
0.0
 41
1.0
 50
0.0
 71
     0
 42
0.5
  3
txt
  4

  0
STYLE
  2
ANNOTATIVE
 70
     0
 40
0.0
 41
1.0
 50
0.0
 71
     0
 42
0.2
  3
txt
  4

  0
STYLE
  2
LEGEND
 70
     0
 40
0.0
 41
1.0
 50
0.0
 71
     0
 42
0.5
  3
txt
  4

  0
ENDTAB
  0
TABLE
  2
VIEW
 70
     0
  0
ENDTAB
  0
TABLE
  2
UCS
 70
     0
  0
ENDTAB
  0
TABLE
  2
APPID
 70
     7
  0
APPID
  2
ACAD
 70
     0
  0
APPID
  2
ACADANNOTATIVE
 70
     0
  0
APPID
  2
ADE
 70
     0
  0
APPID
  2
ACMAPDMDISPLAYSTYLEREGAPP
 70
     0
  0
APPID
  2
MAPGWS
 70
     0
  0
APPID
  2
DCO15
 70
     0
  0
APPID
  2
ACAD_MLEADERVER
 70
     0
  0
ENDTAB
  0
TABLE
  2
DIMSTYLE
 70
     2
  0
DIMSTYLE
  2
STANDARD
 70
     0
  3

  4

  5

  6

  7

 40
1.0
 41
0.18
 42
0.0625
 43
0.38
 44
0.18
 45
0.0
 46
0.0
 47
0.0
 48
0.0
140
0.18
141
0.09
142
0.0
143
25.399999999999999
144
1.0
145
0.0
146
1.0
147
0.09
 71
     0
 72
     0
 73
     1
 74
     1
 75
     0
 76
     0
 77
     0
 78
     0
170
     0
171
     2
172
     0
173
     0
174
     0
175
     0
176
     0
177
     0
178
     0
  0
DIMSTYLE
  2
ANNOTATIVE
 70
     0
  3

  4

  5

  6

  7

 40
1.0
 41
0.18
 42
0.0625
 43
0.38
 44
0.18
 45
0.0
 46
0.0
 47
0.0
 48
0.0
140
0.18
141
0.09
142
0.0
143
25.399999999999999
144
1.0
145
0.0
146
1.0
147
0.09
 71
     0
 72
     0
 73
     1
 74
     1
 75
     0
 76
     0
 77
     0
 78
     0
170
     0
171
     2
172
     0
173
     0
174
     0
175
     0
176
     0
177
     0
178
     0
  0
ENDTAB
  0
ENDSEC
  0
SECTION
  2
BLOCKS
  0
BLOCK
  8
0
  2
$MODEL_SPACE
 70
     0
 10
0.0
 20
0.0
 30
0.0
  3
$MODEL_SPACE
  1

  0
ENDBLK
  5
61A
  8
0
  0
BLOCK
 67
     1
  8
0
  2
$PAPER_SPACE
 70
     0
 10
0.0
 20
0.0
 30
0.0
  3
$PAPER_SPACE
  1

  0
ENDBLK
  5
616
 67
     1
  8
0
  0
ENDSEC
  0
SECTION
  2
ENTITIES
  0
POLYLINE
  5
28
  8
CLUSTERS
 66
     1
 10
0.0
 20
0.0
 30
0.0
 70
     1
  0
VERTEX
  5
655
  8
CLUSTERS
 10
632.81638986171936
 20
4694.6792888993059
 30
0.0
  0
VERTEX
  5
656
  8
CLUSTERS
 10
632.85812496125152
 20
4694.7835619521748
 30
0.0
  0
VERTEX
  5
657
  8
CLUSTERS
 10
632.93116121874527
 20
4694.7939892781033
 30
0.0
  0
VERTEX
  5
658
  8
CLUSTERS
 10
633.02506491488032
 20
4694.7522799743938
 30
0.0
  0
VERTEX
  5
659
  8
CLUSTERS
 10
633.04593235352149
 20
4694.6688615733783
 30
0.0
  0
VERTEX
  5
65A
  8
CLUSTERS
 10
632.98333003759785
 20
4694.6271522696716
 30
0.0
  0
SEQEND
  5
65B
  8
CLUSTERS
  0
POLYLINE
  5
2A
  8
CLUSTERS
 66
     1
 10
0.0
 20
0.0
 30
3.0
 70
   129
  0
VERTEX
  5
65C
  8
CLUSTERS
 10
634.26874507000002
 20
4695.384248209999
 30
3.0
  0
VERTEX
  5
65D
  8
CLUSTERS
 10
634.23212821100003
 20
4695.4844868699993
 30
3.0
  0
VERTEX
  5
65E
  8
CLUSTERS
 10
634.22004357299977
 20
4695.575033619999
 30
3.0
  0
VERTEX
  5
65F
  8
CLUSTERS
 10
634.11982570800001
 20
4695.5049444499991
 30
3.0
  0
VERTEX
  5
660
  8
CLUSTERS
 10
634.04348608099986
 20
4695.5847255400004
 30
3.0
  0
VERTEX
  5
661
  8
CLUSTERS
 10
634.021336335
 20
4695.6849641999979
 30
3.0
  0
VERTEX
  5
662
  8
CLUSTERS
 10
634.11982570800001
 20
4695.7764540600001
 30
3.0
  0
VERTEX
  5
663
  8
CLUSTERS
 10
634.22004357299977
 20
4695.7282391199997
 30
3.0
  0
VERTEX
  5
664
  8
CLUSTERS
 10
634.26422111500017
 20
4695.6849641999979
 30
3.0
  0
VERTEX
  5
665
  8
CLUSTERS
 10
634.22890884900005
 20
4695.5847255400004
 30
3.0
  0
VERTEX
  5
666
  8
CLUSTERS
 10
634.32026143799987
 20
4695.5715572299987
 30
3.0
  0
VERTEX
  5
667
  8
CLUSTERS
 10
634.42047930299998
 20
4695.5792805399979
 30
3.0
  0
VERTEX
  5
668
  8
CLUSTERS
 10
634.52069716799997
 20
4695.5481900900013
 30
3.0
  0
VERTEX
  5
669
  8
CLUSTERS
 10
634.58538006799995
 20
4695.4844868699993
 30
3.0
  0
VERTEX
  5
66A
  8
CLUSTERS
 10
634.53218639399995
 20
4695.384248209999
 30
3.0
  0
VERTEX
  5
66B
  8
CLUSTERS
 10
634.52069716799997
 20
4695.3717288799999
 30
3.0
  0
VERTEX
  5
66C
  8
CLUSTERS
 10
634.42047930299998
 20
4695.2941310599999
 30
3.0
  0
VERTEX
  5
66D
  8
CLUSTERS
 10
634.32026143799987
 20
4695.3317166699999
 30
3.0
  0
VERTEX
  5
66E
  8
CLUSTERS
 10
634.26874507000002
 20
4695.384248209999
 30
3.0
  0
SEQEND
  5
66F
  8
CLUSTERS
  0
POLYLINE
  5
2B
  8
CLUSTERS
 66
     1
 10
0.0
 20
0.0
 30
3.0
 70
   129
  0
VERTEX
  5
670
  8
CLUSTERS
 10
633.16570565199993
 20
4694.9832935599989
 30
3.0
  0
VERTEX
  5
671
  8
CLUSTERS
 10
633.21786492399985
 20
4695.0727631799991
 30
3.0
  0
VERTEX
  5
672
  8
CLUSTERS
 10
633.22574771599977
 20
4695.0835322199991
 30
3.0
  0
VERTEX
  5
673
  8
CLUSTERS
 10
633.26754046400004
 20
4695.1837708800003
 30
3.0
  0
VERTEX
  5
674
  8
CLUSTERS
 10
633.31808278899985
 20
4695.2063707099987
 30
3.0
  0
VERTEX
  5
675
  8
CLUSTERS
 10
633.34404682499996
 20
4695.1837708800003
 30
3.0
  0
VERTEX
  5
676
  8
CLUSTERS
 10
633.38924926200002
 20
4695.0835322199991
 30
3.0
  0
VERTEX
  5
677
  8
CLUSTERS
 10
633.41383818400004
 20
4694.9832935599989
 30
3.0
  0
VERTEX
  5
678
  8
CLUSTERS
 10
633.31808278899985
 20
4694.8865368899988
 30
3.0
  0
VERTEX
  5
679
  8
CLUSTERS
 10
633.21786492399985
 20
4694.9223203000001
 30
3.0
  0
VERTEX
  5
67A
  8
CLUSTERS
 10
633.16570565199993
 20
4694.9832935599989
 30
3.0
  0
SEQEND
  5
67B
  8
CLUSTERS
  0
POLYLINE
  5
2C
  8
CLUSTERS
 66
     1
 10
0.0
 20
0.0
 30
3.0
 70
   129
  0
VERTEX
  5
67C
  8
CLUSTERS
 10
633.54526559500005
 20
4694.8830548899996
 30
3.0
  0
VERTEX
  5
67D
  8
CLUSTERS
 10
633.61873638300005
 20
4694.9506626599996
 30
3.0
  0
VERTEX
  5
67E
  8
CLUSTERS
 10
633.71041518000004
 20
4694.9832935599989
 30
3.0
  0
VERTEX
  5
67F
  8
CLUSTERS
 10
633.67460144799998
 20
4695.0835322199991
 30
3.0
  0
VERTEX
  5
680
  8
CLUSTERS
 10
633.71895424800005
 20
4695.1282476999977
 30
3.0
  0
VERTEX
  5
681
  8
CLUSTERS
 10
633.81917211300004
 20
4695.1686653400002
 30
3.0
  0
VERTEX
  5
682
  8
CLUSTERS
 10
633.91938997800003
 20
4695.1773243199987
 30
3.0
  0
VERTEX
  5
683
  8
CLUSTERS
 10
633.92664086499985
 20
4695.1837708800003
 30
3.0
  0
VERTEX
  5
684
  8
CLUSTERS
 10
633.92098211300004
 20
4695.2840095499987
 30
3.0
  0
VERTEX
  5
685
  8
CLUSTERS
 10
634.0196078429999
 20
4695.3839774400003
 30
3.0
  0
VERTEX
  5
686
  8
CLUSTERS
 10
634.11982570800001
 20
4695.3778861800001
 30
3.0
  0
VERTEX
  5
687
  8
CLUSTERS
 10
634.21793935400001
 20
4695.2840095499987
 30
3.0
  0
VERTEX
  5
688
  8
CLUSTERS
 10
634.19142646699993
 20
4695.1837708800003
 30
3.0
  0
VERTEX
  5
689
  8
CLUSTERS
 10
634.11982570800001
 20
4695.11878024
 30
3.0
  0
VERTEX
  5
68A
  8
CLUSTERS
 10
634.0196078429999
 20
4695.0876851900002
 30
3.0
  0
VERTEX
  5
68B
  8
CLUSTERS
 10
634.01593070000001
 20
4695.0835322199991
 30
3.0
  0
VERTEX
  5
68C
  8
CLUSTERS
 10
633.96014117300001
 20
4694.9832935599989
 30
3.0
  0
VERTEX
  5
68D
  8
CLUSTERS
 10
633.91938997800003
 20
4694.9447692399999
 30
3.0
  0
VERTEX
  5
68E
  8
CLUSTERS
 10
633.81917211300004
 20
4694.8917456600002
 30
3.0
  0
VERTEX
  5
68F
  8
CLUSTERS
 10
633.71895424800005
 20
4694.9681819799998
 30
3.0
  0
VERTEX
  5
690
  8
CLUSTERS
 10
633.69870341299975
 20
4694.8830548899996
 30
3.0
  0
VERTEX
  5
691
  8
CLUSTERS
 10
633.61873638300005
 20
4694.8041962499992
 30
3.0
  0
VERTEX
  5
692
  8
CLUSTERS
 10
633.54526559500005
 20
4694.8830548899996
 30
3.0
  0
SEQEND
  5
693
  8
CLUSTERS
  0
POLYLINE
  5
2D
  8
CLUSTERS
 66
     1
 10
0.0
 20
0.0
 30
3.0
 70
   129
  0
VERTEX
  5
694
  8
CLUSTERS
 10
651.96420978900005
 20
4694.0811455800022
 30
3.0
  0
VERTEX
  5
695
  8
CLUSTERS
 10
651.96003301600001
 20
4694.1813842499996
 30
3.0
  0
VERTEX
  5
696
  8
CLUSTERS
 10
651.95860566399995
 20
4694.1871261899996
 30
3.0
  0
VERTEX
  5
697
  8
CLUSTERS
 10
651.87207615499995
 20
4694.2816229099999
 30
3.0
  0
VERTEX
  5
698
  8
CLUSTERS
 10
651.86316673199997
 20
4694.381861580001
 30
3.0
  0
VERTEX
  5
699
  8
CLUSTERS
 10
651.95860566399995
 20
4694.47668101
 30
3.0
  0
VERTEX
  5
69A
  8
CLUSTERS
 10
652.05882352900005
 20
4694.4804258599997
 30
3.0
  0
VERTEX
  5
69B
  8
CLUSTERS
 10
652.15771112799996
 20
4694.381861580001
 30
3.0
  0
VERTEX
  5
69C
  8
CLUSTERS
 10
652.15620035300003
 20
4694.2816229099999
 30
3.0
  0
VERTEX
  5
69D
  8
CLUSTERS
 10
652.15566795699976
 20
4694.1813842499996
 30
3.0
  0
VERTEX
  5
69E
  8
CLUSTERS
 10
652.15244956100003
 20
4694.0811455800022
 30
3.0
  0
VERTEX
  5
69F
  8
CLUSTERS
 10
652.05882352900005
 20
4693.9845308699987
 30
3.0
  0
VERTEX
  5
6A0
  8
CLUSTERS
 10
651.96420978900005
 20
4694.0811455800022
 30
3.0
  0
SEQEND
  5
6A1
  8
CLUSTERS
  0
POLYLINE
  5
2E
  8
CLUSTERS
 66
     1
 10
0.0
 20
0.0
 30
3.0
 70
   129
  0
VERTEX
  5
6A2
  8
CLUSTERS
 10
633.40910061
 20
4693.7804295899987
 30
3.0
  0
VERTEX
  5
6A3
  8
CLUSTERS
 10
633.41610370299998
 20
4693.8806682599989
 30
3.0
  0
VERTEX
  5
6A4
  8
CLUSTERS
 10
633.349377538
 20
4693.9809069200001
 30
3.0
  0
VERTEX
  5
6A5
  8
CLUSTERS
 10
633.41830065399995
 20
4694.0336273700004
 30
3.0
  0
VERTEX
  5
6A6
  8
CLUSTERS
 10
633.51851851900005
 20
4694.0438893299988
 30
3.0
  0
VERTEX
  5
6A7
  8
CLUSTERS
 10
633.54478426000003
 20
4694.0811455800022
 30
3.0
  0
VERTEX
  5
6A8
  8
CLUSTERS
 10
633.61873638300005
 20
4694.1543127699997
 30
3.0
  0
VERTEX
  5
6A9
  8
CLUSTERS
 10
633.71895424800005
 20
4694.1585634800012
 30
3.0
  0
VERTEX
  5
6AA
  8
CLUSTERS
 10
633.80407274900006
 20
4694.0811455800022
 30
3.0
  0
VERTEX
  5
6AB
  8
CLUSTERS
 10
633.78147381099996
 20
4693.9809069200001
 30
3.0
  0
VERTEX
  5
6AC
  8
CLUSTERS
 10
633.71895424800005
 20
4693.9189717099998
 30
3.0
  0
VERTEX
  5
6AD
  8
CLUSTERS
 10
633.61873638300005
 20
4693.895925329999
 30
3.0
  0
VERTEX
  5
6AE
  8
CLUSTERS
 10
633.51851851900005
 20
4693.8833378899999
 30
3.0
  0
VERTEX
  5
6AF
  8
CLUSTERS
 10
633.45125664199986
 20
4693.8806682599989
 30
3.0
  0
VERTEX
  5
6B0
  8
CLUSTERS
 10
633.49395208099986
 20
4693.7804295899987
 30
3.0
  0
VERTEX
  5
6B1
  8
CLUSTERS
 10
633.41830065399995
 20
4693.7703362599996
 30
3.0
  0
VERTEX
  5
6B2
  8
CLUSTERS
 10
633.40910061
 20
4693.7804295899987
 30
3.0
  0
SEQEND
  5
6B3
  8
CLUSTERS
  0
POLYLINE
  5
2F
  8
CLUSTERS
 66
     1
 10
0.0
 20
0.0
 30
3.0
 70
   129
  0
VERTEX
  5
6B4
  8
CLUSTERS
 10
662.73136077200002
 20
4693.5799522699999
 30
3.0
  0
VERTEX
  5
6B5
  8
CLUSTERS
 10
662.69140189899986
 20
4693.6801909300002
 30
3.0
  0
VERTEX
  5
6B6
  8
CLUSTERS
 10
662.68191721100004
 20
4693.7403723599991
 30
3.0
  0
VERTEX
  5
6B7
  8
CLUSTERS
 10
662.58169934599994
 20
4693.7642818100003
 30
3.0
  0
VERTEX
  5
6B8
  8
CLUSTERS
 10
662.56651986500003
 20
4693.7804295899987
 30
3.0
  0
VERTEX
  5
6B9
  8
CLUSTERS
 10
662.58169934599994
 20
4693.7943452400004
 30
3.0
  0
VERTEX
  5
6BA
  8
CLUSTERS
 10
662.68191721100004
 20
4693.8069100100001
 30
3.0
  0
VERTEX
  5
6BB
  8
CLUSTERS
 10
662.78213507600003
 20
4693.7893530299998
 30
3.0
  0
VERTEX
  5
6BC
  8
CLUSTERS
 10
662.88235294099991
 20
4693.8705260099978
 30
3.0
  0
VERTEX
  5
6BD
  8
CLUSTERS
 10
662.98097086300004
 20
4693.7804295899987
 30
3.0
  0
VERTEX
  5
6BE
  8
CLUSTERS
 10
662.9810944809999
 20
4693.6801909300002
 30
3.0
  0
VERTEX
  5
6BF
  8
CLUSTERS
 10
662.96057493499995
 20
4693.5799522699999
 30
3.0
  0
VERTEX
  5
6C0
  8
CLUSTERS
 10
662.88235294099991
 20
4693.5044686800002
 30
3.0
  0
VERTEX
  5
6C1
  8
CLUSTERS
 10
662.78213507600003
 20
4693.5313168499979
 30
3.0
  0
VERTEX
  5
6C2
  8
CLUSTERS
 10
662.73136077200002
 20
4693.5799522699999
 30
3.0
  0
SEQEND
  5
6C3
  8
CLUSTERS
  0
POLYLINE
  5
30
  8
CLUSTERS
 66
     1
 10
0.0
 20
0.0
 30
3.0
 70
   129
  0
VERTEX
  5
6C4
  8
CLUSTERS
 10
649.86377972299977
 20
4693.5799522699999
 30
3.0
  0
VERTEX
  5
6C5
  8
CLUSTERS
 10
649.86433142099975
 20
4693.6801909300002
 30
3.0
  0
VERTEX
  5
6C6
  8
CLUSTERS
 10
649.85403050100001
 20
4693.68571823
 30
3.0
  0
VERTEX
  5
6C7
  8
CLUSTERS
 10
649.76227734799977
 20
4693.7804295899987
 30
3.0
  0
VERTEX
  5
6C8
  8
CLUSTERS
 10
649.76085339799999
 20
4693.8806682599989
 30
3.0
  0
VERTEX
  5
6C9
  8
CLUSTERS
 10
649.85403050100001
 20
4693.9733131800003
 30
3.0
  0
VERTEX
  5
6CA
  8
CLUSTERS
 10
649.95424836599989
 20
4693.9691566900001
 30
3.0
  0
VERTEX
  5
6CB
  8
CLUSTERS
 10
650.04304623400003
 20
4693.8806682599989
 30
3.0
  0
VERTEX
  5
6CC
  8
CLUSTERS
 10
650.04213297499984
 20
4693.7804295899987
 30
3.0
  0
VERTEX
  5
6CD
  8
CLUSTERS
 10
650.05446623099999
 20
4693.7655209200002
 30
3.0
  0
VERTEX
  5
6CE
  8
CLUSTERS
 10
650.13919652000004
 20
4693.6801909300002
 30
3.0
  0
VERTEX
  5
6CF
  8
CLUSTERS
 10
650.14808783399985
 20
4693.5799522699999
 30
3.0
  0
VERTEX
  5
6D0
  8
CLUSTERS
 10
650.05446623099999
 20
4693.4833918000004
 30
3.0
  0
VERTEX
  5
6D1
  8
CLUSTERS
 10
649.95424836599989
 20
4693.4868131699977
 30
3.0
  0
VERTEX
  5
6D2
  8
CLUSTERS
 10
649.86377972299977
 20
4693.5799522699999
 30
3.0
  0
SEQEND
  5
6D3
  8
CLUSTERS
  0
POLYLINE
  5
31
  8
CLUSTERS
 66
     1
 10
0.0
 20
0.0
 30
3.0
 70
   129
  0
VERTEX
  5
6D4
  8
CLUSTERS
 10
650.99890001699998
 20
4691.9761336499978
 30
3.0
  0
VERTEX
  5
6D5
  8
CLUSTERS
 10
650.95642701500003
 20
4692.0144099199979
 30
3.0
  0
VERTEX
  5
6D6
  8
CLUSTERS
 10
650.89864026500004
 20
4692.076372319998
 30
3.0
  0
VERTEX
  5
6D7
  8
CLUSTERS
 10
650.85931756399975
 20
4692.1766109800001
 30
3.0
  0
VERTEX
  5
6D8
  8
CLUSTERS
 10
650.85620915000004
 20
4692.1842349500002
 30
3.0
  0
VERTEX
  5
6D9
  8
CLUSTERS
 10
650.78414495599975
 20
4692.2768496400004
 30
3.0
  0
VERTEX
  5
6DA
  8
CLUSTERS
 10
650.76850009299994
 20
4692.3770883099978
 30
3.0
  0
VERTEX
  5
6DB
  8
CLUSTERS
 10
650.80026097099994
 20
4692.477326969999
 30
3.0
  0
VERTEX
  5
6DC
  8
CLUSTERS
 10
650.85620915000004
 20
4692.5568755499999
 30
3.0
  0
VERTEX
  5
6DD
  8
CLUSTERS
 10
650.85674939800003
 20
4692.5775656300002
 30
3.0
  0
VERTEX
  5
6DE
  8
CLUSTERS
 10
650.85891833100004
 20
4692.6778043000004
 30
3.0
  0
VERTEX
  5
6DF
  8
CLUSTERS
 10
650.95642701500003
 20
4692.7743344500013
 30
3.0
  0
VERTEX
  5
6E0
  8
CLUSTERS
 10
651.05664488000002
 20
4692.7713830800012
 30
3.0
  0
VERTEX
  5
6E1
  8
CLUSTERS
 10
651.15117791599994
 20
4692.6778043000004
 30
3.0
  0
VERTEX
  5
6E2
  8
CLUSTERS
 10
651.15581094300001
 20
4692.5775656300002
 30
3.0
  0
VERTEX
  5
6E3
  8
CLUSTERS
 10
651.1568627449999
 20
4692.5705468799979
 30
3.0
  0
VERTEX
  5
6E4
  8
CLUSTERS
 10
651.25708061
 20
4692.509114049999
 30
3.0
  0
VERTEX
  5
6E5
  8
CLUSTERS
 10
651.29217803500001
 20
4692.477326969999
 30
3.0
  0
VERTEX
  5
6E6
  8
CLUSTERS
 10
651.35729847499977
 20
4692.4083280599989
 30
3.0
  0
VERTEX
  5
6E7
  8
CLUSTERS
 10
651.38392819000001
 20
4692.3770883099978
 30
3.0
  0
VERTEX
  5
6E8
  8
CLUSTERS
 10
651.4401800469999
 20
4692.2768496400004
 30
3.0
  0
VERTEX
  5
6E9
  8
CLUSTERS
 10
651.44702276800001
 20
4692.1766109800001
 30
3.0
  0
VERTEX
  5
6EA
  8
CLUSTERS
 10
651.42650976200002
 20
4692.076372319998
 30
3.0
  0
VERTEX
  5
6EB
  8
CLUSTERS
 10
651.35729847499977
 20
4691.9983190700004
 30
3.0
  0
VERTEX
  5
6EC
  8
CLUSTERS
 10
651.33407280899996
 20
4691.9761336499978
 30
3.0
  0
VERTEX
  5
6ED
  8
CLUSTERS
 10
651.25708061
 20
4691.9108563500004
 30
3.0
  0
VERTEX
  5
6EE
  8
CLUSTERS
 10
651.1568627449999
 20
4691.8863771599999
 30
3.0
  0
VERTEX
  5
6EF
  8
CLUSTERS
 10
651.05664488000002
 20
4691.9268906899997
 30
3.0
  0
VERTEX
  5
6F0
  8
CLUSTERS
 10
650.99890001699998
 20
4691.9761336499978
 30
3.0
  0
SEQEND
  5
6F1
  8
CLUSTERS
  0
POLYLINE
  5
32
  8
CLUSTERS
 66
     1
 10
0.0
 20
0.0
 30
3.0
 70
   129
  0
VERTEX
  5
6F2
  8
CLUSTERS
 10
634.44467006800005
 20
4691.9761336499978
 30
3.0
  0
VERTEX
  5
6F3
  8
CLUSTERS
 10
634.43063373199993
 20
4692.076372319998
 30
3.0
  0
VERTEX
  5
6F4
  8
CLUSTERS
 10
634.46737980300009
 20
4692.1766109800001
 30
3.0
  0
VERTEX
  5
6F5
  8
CLUSTERS
 10
634.52069716799997
 20
4692.2560185399998
 30
3.0
  0
VERTEX
  5
6F6
  8
CLUSTERS
 10
634.53154600199991
 20
4692.2768496400004
 30
3.0
  0
VERTEX
  5
6F7
  8
CLUSTERS
 10
634.52108690299997
 20
4692.3770883099978
 30
3.0
  0
VERTEX
  5
6F8
  8
CLUSTERS
 10
634.56151371199985
 20
4692.477326969999
 30
3.0
  0
VERTEX
  5
6F9
  8
CLUSTERS
 10
634.62091503299996
 20
4692.5357293799998
 30
3.0
  0
VERTEX
  5
6FA
  8
CLUSTERS
 10
634.72113289800006
 20
4692.5256554799989
 30
3.0
  0
VERTEX
  5
6FB
  8
CLUSTERS
 10
634.77245194999978
 20
4692.477326969999
 30
3.0
  0
VERTEX
  5
6FC
  8
CLUSTERS
 10
634.78463899699989
 20
4692.3770883099978
 30
3.0
  0
VERTEX
  5
6FD
  8
CLUSTERS
 10
634.72113289800006
 20
4692.3007870199999
 30
3.0
  0
VERTEX
  5
6FE
  8
CLUSTERS
 10
634.70504651500005
 20
4692.2768496400004
 30
3.0
  0
VERTEX
  5
6FF
  8
CLUSTERS
 10
634.62091503299996
 20
4692.1964060399978
 30
3.0
  0
VERTEX
  5
700
  8
CLUSTERS
 10
634.58612357100003
 20
4692.1766109800001
 30
3.0
  0
VERTEX
  5
701
  8
CLUSTERS
 10
634.62091503299996
 20
4692.1608362400002
 30
3.0
  0
VERTEX
  5
702
  8
CLUSTERS
 10
634.70896155000003
 20
4692.076372319998
 30
3.0
  0
VERTEX
  5
703
  8
CLUSTERS
 10
634.703207195
 20
4691.9761336499978
 30
3.0
  0
VERTEX
  5
704
  8
CLUSTERS
 10
634.62091503299996
 20
4691.8952312399988
 30
3.0
  0
VERTEX
  5
705
  8
CLUSTERS
 10
634.52069716799997
 20
4691.8967872100011
 30
3.0
  0
VERTEX
  5
706
  8
CLUSTERS
 10
634.44467006800005
 20
4691.9761336499978
 30
3.0
  0
SEQEND
  5
707
  8
CLUSTERS
  0
POLYLINE
  5
33
  8
CLUSTERS
 66
     1
 10
0.0
 20
0.0
 30
3.0
 70
   129
  0
VERTEX
  5
708
  8
CLUSTERS
 10
645.58041043399999
 20
4691.8758949900002
 30
3.0
  0
VERTEX
  5
709
  8
CLUSTERS
 10
645.54466230900005
 20
4691.8809555099997
 30
3.0
  0
VERTEX
  5
70A
  8
CLUSTERS
 10
645.44444444400006
 20
4691.8811867900004
 30
3.0
  0
VERTEX
  5
70B
  8
CLUSTERS
 10
645.35078457999987
 20
4691.9761336499978
 30
3.0
  0
VERTEX
  5
70C
  8
CLUSTERS
 10
645.35786090699992
 20
4692.076372319998
 30
3.0
  0
VERTEX
  5
70D
  8
CLUSTERS
 10
645.44444444400006
 20
4692.16275769
 30
3.0
  0
VERTEX
  5
70E
  8
CLUSTERS
 10
645.54466230900005
 20
4692.1432028199979
 30
3.0
  0
VERTEX
  5
70F
  8
CLUSTERS
 10
645.61185484500004
 20
4692.076372319998
 30
3.0
  0
VERTEX
  5
710
  8
CLUSTERS
 10
645.63864152799988
 20
4691.9761336499978
 30
3.0
  0
VERTEX
  5
711
  8
CLUSTERS
 10
645.64488017400004
 20
4691.9351270099978
 30
3.0
  0
VERTEX
  5
712
  8
CLUSTERS
 10
645.74509803899991
 20
4691.9505839399999
 30
3.0
  0
VERTEX
  5
713
  8
CLUSTERS
 10
645.81987337600003
 20
4691.8758949900002
 30
3.0
  0
VERTEX
  5
714
  8
CLUSTERS
 10
645.74509803899991
 20
4691.7932631699996
 30
3.0
  0
VERTEX
  5
715
  8
CLUSTERS
 10
645.64488017400004
 20
4691.81798058
 30
3.0
  0
VERTEX
  5
716
  8
CLUSTERS
 10
645.58041043399999
 20
4691.8758949900002
 30
3.0
  0
SEQEND
  5
717
  8
CLUSTERS
  0
POLYLINE
  5
34
  8
CLUSTERS
 66
     1
 10
0.0
 20
0.0
 30
3.0
 70
   129
  0
VERTEX
  5
718
  8
CLUSTERS
 10
643.11681411400002
 20
4691.5751789999986
 30
3.0
  0
VERTEX
  5
719
  8
CLUSTERS
 10
643.03921568600003
 20
4691.5785497899988
 30
3.0
  0
VERTEX
  5
71A
  8
CLUSTERS
 10
642.94351911299975
 20
4691.6754176599989
 30
3.0
  0
VERTEX
  5
71B
  8
CLUSTERS
 10
642.93964097399976
 20
4691.7756563199991
 30
3.0
  0
VERTEX
  5
71C
  8
CLUSTERS
 10
642.943024358
 20
4691.8758949900002
 30
3.0
  0
VERTEX
  5
71D
  8
CLUSTERS
 10
643.03921568600003
 20
4691.9717978899989
 30
3.0
  0
VERTEX
  5
71E
  8
CLUSTERS
 10
643.13943355100002
 20
4691.9723572000003
 30
3.0
  0
VERTEX
  5
71F
  8
CLUSTERS
 10
643.23748348900006
 20
4691.8758949900002
 30
3.0
  0
VERTEX
  5
720
  8
CLUSTERS
 10
643.23965141600002
 20
4691.8750226599977
 30
3.0
  0
VERTEX
  5
721
  8
CLUSTERS
 10
643.33986928099989
 20
4691.8153466399999
 30
3.0
  0
VERTEX
  5
722
  8
CLUSTERS
 10
643.34286844300004
 20
4691.8758949900002
 30
3.0
  0
VERTEX
  5
723
  8
CLUSTERS
 10
643.440087146
 20
4691.9725086500002
 30
3.0
  0
VERTEX
  5
724
  8
CLUSTERS
 10
643.54030501099976
 20
4691.9707388099987
 30
3.0
  0
VERTEX
  5
725
  8
CLUSTERS
 10
643.63574676600001
 20
4691.8758949900002
 30
3.0
  0
VERTEX
  5
726
  8
CLUSTERS
 10
643.63873527199985
 20
4691.7756563199991
 30
3.0
  0
VERTEX
  5
727
  8
CLUSTERS
 10
643.57668368400005
 20
4691.6754176599989
 30
3.0
  0
VERTEX
  5
728
  8
CLUSTERS
 10
643.54030501099976
 20
4691.6407242699997
 30
3.0
  0
VERTEX
  5
729
  8
CLUSTERS
 10
643.440087146
 20
4691.5912438300002
 30
3.0
  0
VERTEX
  5
72A
  8
CLUSTERS
 10
643.33986928099989
 20
4691.5852419900002
 30
3.0
  0
VERTEX
  5
72B
  8
CLUSTERS
 10
643.27611440800001
 20
4691.5751789999986
 30
3.0
  0
VERTEX
  5
72C
  8
CLUSTERS
 10
643.23965141600002
 20
4691.5469409500001
 30
3.0
  0
VERTEX
  5
72D
  8
CLUSTERS
 10
643.13943355100002
 20
4691.5606361600012
 30
3.0
  0
VERTEX
  5
72E
  8
CLUSTERS
 10
643.11681411400002
 20
4691.5751789999986
 30
3.0
  0
SEQEND
  5
72F
  8
CLUSTERS
  0
POLYLINE
  5
35
  8
CLUSTERS
 66
     1
 10
0.0
 20
0.0
 30
3.0
 70
   129
  0
VERTEX
  5
730
  8
CLUSTERS
 10
635.00498900900004
 20
4691.3747016699999
 30
3.0
  0
VERTEX
  5
731
  8
CLUSTERS
 10
634.92156862699994
 20
4691.3969690599997
 30
3.0
  0
VERTEX
  5
732
  8
CLUSTERS
 10
634.84613243399986
 20
4691.4749403300002
 30
3.0
  0
VERTEX
  5
733
  8
CLUSTERS
 10
634.82413908299998
 20
4691.5751789999986
 30
3.0
  0
VERTEX
  5
734
  8
CLUSTERS
 10
634.92156862699994
 20
4691.6727786299998
 30
3.0
  0
VERTEX
  5
735
  8
CLUSTERS
 10
635.02178649199993
 20
4691.6415143599988
 30
3.0
  0
VERTEX
  5
736
  8
CLUSTERS
 10
635.10433947199999
 20
4691.5751789999986
 30
3.0
  0
VERTEX
  5
737
  8
CLUSTERS
 10
635.12200435699992
 20
4691.57457032
 30
3.0
  0
VERTEX
  5
738
  8
CLUSTERS
 10
635.22222222199991
 20
4691.5724601600004
 30
3.0
  0
VERTEX
  5
739
  8
CLUSTERS
 10
635.32244008700002
 20
4691.5008913000001
 30
3.0
  0
VERTEX
  5
73A
  8
CLUSTERS
 10
635.36435930100004
 20
4691.4749403300002
 30
3.0
  0
VERTEX
  5
73B
  8
CLUSTERS
 10
635.32244008700002
 20
4691.4360434999999
 30
3.0
  0
VERTEX
  5
73C
  8
CLUSTERS
 10
635.28928019099999
 20
4691.3747016699999
 30
3.0
  0
VERTEX
  5
73D
  8
CLUSTERS
 10
635.22222222199991
 20
4691.3241541899997
 30
3.0
  0
VERTEX
  5
73E
  8
CLUSTERS
 10
635.12200435699992
 20
4691.303515229999
 30
3.0
  0
VERTEX
  5
73F
  8
CLUSTERS
 10
635.02178649199993
 20
4691.3603485000003
 30
3.0
  0
VERTEX
  5
740
  8
CLUSTERS
 10
635.00498900900004
 20
4691.3747016699999
 30
3.0
  0
SEQEND
  5
741
  8
CLUSTERS
  0
POLYLINE
  5
36
  8
CLUSTERS
 66
     1
 10
0.0
 20
0.0
 30
3.0
 70
   129
  0
VERTEX
  5
742
  8
CLUSTERS
 10
640.89657293199991
 20
4691.1742243400004
 30
3.0
  0
VERTEX
  5
743
  8
CLUSTERS
 10
640.93464052299987
 20
4691.2129447400011
 30
3.0
  0
VERTEX
  5
744
  8
CLUSTERS
 10
640.96381025000005
 20
4691.2744630099996
 30
3.0
  0
VERTEX
  5
745
  8
CLUSTERS
 10
640.94597451300001
 20
4691.3747016699999
 30
3.0
  0
VERTEX
  5
746
  8
CLUSTERS
 10
641.03485838799998
 20
4691.4635160400003
 30
3.0
  0
VERTEX
  5
747
  8
CLUSTERS
 10
641.13172333
 20
4691.3747016699999
 30
3.0
  0
VERTEX
  5
748
  8
CLUSTERS
 10
641.10707922099994
 20
4691.2744630099996
 30
3.0
  0
VERTEX
  5
749
  8
CLUSTERS
 10
641.09812518000001
 20
4691.1742243400004
 30
3.0
  0
VERTEX
  5
74A
  8
CLUSTERS
 10
641.03485838799998
 20
4691.0896277800011
 30
3.0
  0
VERTEX
  5
74B
  8
CLUSTERS
 10
640.93464052299987
 20
4691.1090466599999
 30
3.0
  0
VERTEX
  5
74C
  8
CLUSTERS
 10
640.89657293199991
 20
4691.1742243400004
 30
3.0
  0
SEQEND
  5
74D
  8
CLUSTERS
  0
POLYLINE
  5
37
  8
CLUSTERS
 66
     1
 10
0.0
 20
0.0
 30
3.0
 70
   129
  0
VERTEX
  5
74E
  8
CLUSTERS
 10
638.54307173400002
 20
4690.8735083499996
 30
3.0
  0
VERTEX
  5
74F
  8
CLUSTERS
 10
638.53067985500002
 20
4690.9737470199998
 30
3.0
  0
VERTEX
  5
750
  8
CLUSTERS
 10
638.54213202000005
 20
4691.0739856800001
 30
3.0
  0
VERTEX
  5
751
  8
CLUSTERS
 10
638.62962962999995
 20
4691.1720960000002
 30
3.0
  0
VERTEX
  5
752
  8
CLUSTERS
 10
638.62999300800004
 20
4691.1742243400004
 30
3.0
  0
VERTEX
  5
753
  8
CLUSTERS
 10
638.62970688899998
 20
4691.2744630099996
 30
3.0
  0
VERTEX
  5
754
  8
CLUSTERS
 10
638.63044270199975
 20
4691.3747016699999
 30
3.0
  0
VERTEX
  5
755
  8
CLUSTERS
 10
638.72984749499994
 20
4691.4740929
 30
3.0
  0
VERTEX
  5
756
  8
CLUSTERS
 10
638.83006535899995
 20
4691.4748321599991
 30
3.0
  0
VERTEX
  5
757
  8
CLUSTERS
 10
638.93028322400005
 20
4691.4720590899979
 30
3.0
  0
VERTEX
  5
758
  8
CLUSTERS
 10
639.03050108900004
 20
4691.4578148800001
 30
3.0
  0
VERTEX
  5
759
  8
CLUSTERS
 10
639.12827352999989
 20
4691.3747016699999
 30
3.0
  0
VERTEX
  5
75A
  8
CLUSTERS
 10
639.13071895400003
 20
4691.3731059800002
 30
3.0
  0
VERTEX
  5
75B
  8
CLUSTERS
 10
639.21655538799996
 20
4691.2744630099996
 30
3.0
  0
VERTEX
  5
75C
  8
CLUSTERS
 10
639.21429757500005
 20
4691.1742243400004
 30
3.0
  0
VERTEX
  5
75D
  8
CLUSTERS
 10
639.17913664100001
 20
4691.0739856800001
 30
3.0
  0
VERTEX
  5
75E
  8
CLUSTERS
 10
639.13071895400003
 20
4691.0182843299999
 30
3.0
  0
VERTEX
  5
75F
  8
CLUSTERS
 10
639.07244833499976
 20
4690.9737470199998
 30
3.0
  0
VERTEX
  5
760
  8
CLUSTERS
 10
639.03050108900004
 20
4690.9403531500002
 30
3.0
  0
VERTEX
  5
761
  8
CLUSTERS
 10
638.93028322400005
 20
4690.9164427300002
 30
3.0
  0
VERTEX
  5
762
  8
CLUSTERS
 10
638.83006535899995
 20
4690.92119043
 30
3.0
  0
VERTEX
  5
763
  8
CLUSTERS
 10
638.82004608
 20
4690.8735083499996
 30
3.0
  0
VERTEX
  5
764
  8
CLUSTERS
 10
638.72984749499994
 20
4690.7872649899991
 30
3.0
  0
VERTEX
  5
765
  8
CLUSTERS
 10
638.62962962999995
 20
4690.7866582899997
 30
3.0
  0
VERTEX
  5
766
  8
CLUSTERS
 10
638.54307173400002
 20
4690.8735083499996
 30
3.0
  0
SEQEND
  5
767
  8
CLUSTERS
  0
POLYLINE
  5
38
  8
CLUSTERS
 66
     1
 10
0.0
 20
0.0
 30
3.0
 70
   129
  0
VERTEX
  5
768
  8
CLUSTERS
 10
637.12677774999986
 20
4690.7732696900011
 30
3.0
  0
VERTEX
  5
769
  8
CLUSTERS
 10
637.12636165599997
 20
4690.7733519199992
 30
3.0
  0
VERTEX
  5
76A
  8
CLUSTERS
 10
637.02614379099987
 20
4690.7735729300002
 30
3.0
  0
VERTEX
  5
76B
  8
CLUSTERS
 10
636.92592592599976
 20
4690.7766635199996
 30
3.0
  0
VERTEX
  5
76C
  8
CLUSTERS
 10
636.825708061
 20
4690.8385335100002
 30
3.0
  0
VERTEX
  5
76D
  8
CLUSTERS
 10
636.79101860599985
 20
4690.8735083499996
 30
3.0
  0
VERTEX
  5
76E
  8
CLUSTERS
 10
636.73487373
 20
4690.9737470199998
 30
3.0
  0
VERTEX
  5
76F
  8
CLUSTERS
 10
636.7254901959999
 20
4690.9866642500001
 30
3.0
  0
VERTEX
  5
770
  8
CLUSTERS
 10
636.62527233100002
 20
4691.070086669999
 30
3.0
  0
VERTEX
  5
771
  8
CLUSTERS
 10
636.62158222100004
 20
4691.0739856800001
 30
3.0
  0
VERTEX
  5
772
  8
CLUSTERS
 10
636.5290645209999
 20
4691.1742243400004
 30
3.0
  0
VERTEX
  5
773
  8
CLUSTERS
 10
636.52696097800003
 20
4691.2744630099996
 30
3.0
  0
VERTEX
  5
774
  8
CLUSTERS
 10
636.62527233100002
 20
4691.3740971300003
 30
3.0
  0
VERTEX
  5
775
  8
CLUSTERS
 10
636.63609528999996
 20
4691.3747016699999
 30
3.0
  0
VERTEX
  5
776
  8
CLUSTERS
 10
636.7254901959999
 20
4691.4413837599986
 30
3.0
  0
VERTEX
  5
777
  8
CLUSTERS
 10
636.825708061
 20
4691.41436815
 30
3.0
  0
VERTEX
  5
778
  8
CLUSTERS
 10
636.88448281599995
 20
4691.3747016699999
 30
3.0
  0
VERTEX
  5
779
  8
CLUSTERS
 10
636.92592592599976
 20
4691.3730174100001
 30
3.0
  0
VERTEX
  5
77A
  8
CLUSTERS
 10
637.02614379099987
 20
4691.3733390899997
 30
3.0
  0
VERTEX
  5
77B
  8
CLUSTERS
 10
637.12636165599997
 20
4691.3632993499978
 30
3.0
  0
VERTEX
  5
77C
  8
CLUSTERS
 10
637.21942057299975
 20
4691.2744630099996
 30
3.0
  0
VERTEX
  5
77D
  8
CLUSTERS
 10
637.22657952099985
 20
4691.2516691399978
 30
3.0
  0
VERTEX
  5
77E
  8
CLUSTERS
 10
637.29231862899985
 20
4691.1742243400004
 30
3.0
  0
VERTEX
  5
77F
  8
CLUSTERS
 10
637.31491363500004
 20
4691.0739856800001
 30
3.0
  0
VERTEX
  5
780
  8
CLUSTERS
 10
637.32560356399995
 20
4690.9737470199998
 30
3.0
  0
VERTEX
  5
781
  8
CLUSTERS
 10
637.32679738599995
 20
4690.9734718999998
 30
3.0
  0
VERTEX
  5
782
  8
CLUSTERS
 10
637.42701525099994
 20
4690.8765449000002
 30
3.0
  0
VERTEX
  5
783
  8
CLUSTERS
 10
637.42951029999995
 20
4690.8735083499996
 30
3.0
  0
VERTEX
  5
784
  8
CLUSTERS
 10
637.42701525099994
 20
4690.86993609
 30
3.0
  0
VERTEX
  5
785
  8
CLUSTERS
 10
637.37854402899995
 20
4690.7732696900011
 30
3.0
  0
VERTEX
  5
786
  8
CLUSTERS
 10
637.32679738599995
 20
4690.7286641299988
 30
3.0
  0
VERTEX
  5
787
  8
CLUSTERS
 10
637.22657952099985
 20
4690.7034525600002
 30
3.0
  0
VERTEX
  5
788
  8
CLUSTERS
 10
637.12677774999986
 20
4690.7732696900011
 30
3.0
  0
SEQEND
  5
789
  8
CLUSTERS
  0
POLYLINE
  5
39
  8
CLUSTERS
 66
     1
 10
0.0
 20
0.0
 30
3.0
 70
   129
  0
VERTEX
  5
78A
  8
CLUSTERS
 10
635.92842146199985
 20
4690.6730310299999
 30
3.0
  0
VERTEX
  5
78B
  8
CLUSTERS
 10
636.02396514199995
 20
4690.7716992999995
 30
3.0
  0
VERTEX
  5
78C
  8
CLUSTERS
 10
636.040640693
 20
4690.7732696900011
 30
3.0
  0
VERTEX
  5
78D
  8
CLUSTERS
 10
636.02396514199995
 20
4690.7787338199987
 30
3.0
  0
VERTEX
  5
78E
  8
CLUSTERS
 10
635.92374727699985
 20
4690.8192273000004
 30
3.0
  0
VERTEX
  5
78F
  8
CLUSTERS
 10
635.82352941199986
 20
4690.8278697100004
 30
3.0
  0
VERTEX
  5
790
  8
CLUSTERS
 10
635.77028629999995
 20
4690.8735083499996
 30
3.0
  0
VERTEX
  5
791
  8
CLUSTERS
 10
635.72331154699975
 20
4690.94667476
 30
3.0
  0
VERTEX
  5
792
  8
CLUSTERS
 10
635.65832878699985
 20
4690.9737470199998
 30
3.0
  0
VERTEX
  5
793
  8
CLUSTERS
 10
635.62309368199999
 20
4690.975524919998
 30
3.0
  0
VERTEX
  5
794
  8
CLUSTERS
 10
635.52287581699989
 20
4691.0138212700003
 30
3.0
  0
VERTEX
  5
795
  8
CLUSTERS
 10
635.46124930999974
 20
4691.0739856800001
 30
3.0
  0
VERTEX
  5
796
  8
CLUSTERS
 10
635.42289010199988
 20
4691.1742243400004
 30
3.0
  0
VERTEX
  5
797
  8
CLUSTERS
 10
635.42265795200001
 20
4691.1806312999988
 30
3.0
  0
VERTEX
  5
798
  8
CLUSTERS
 10
635.400430562
 20
4691.2744630099996
 30
3.0
  0
VERTEX
  5
799
  8
CLUSTERS
 10
635.42265795200001
 20
4691.3358218399999
 30
3.0
  0
VERTEX
  5
79A
  8
CLUSTERS
 10
635.42643729199995
 20
4691.3747016699999
 30
3.0
  0
VERTEX
  5
79B
  8
CLUSTERS
 10
635.42458043399995
 20
4691.4749403300002
 30
3.0
  0
VERTEX
  5
79C
  8
CLUSTERS
 10
635.42688184799999
 20
4691.5751789999986
 30
3.0
  0
VERTEX
  5
79D
  8
CLUSTERS
 10
635.46587774499994
 20
4691.6754176599989
 30
3.0
  0
VERTEX
  5
79E
  8
CLUSTERS
 10
635.43138846099976
 20
4691.7756563199991
 30
3.0
  0
VERTEX
  5
79F
  8
CLUSTERS
 10
635.42416668700002
 20
4691.8758949900002
 30
3.0
  0
VERTEX
  5
7A0
  8
CLUSTERS
 10
635.42265795200001
 20
4691.8982566799996
 30
3.0
  0
VERTEX
  5
7A1
  8
CLUSTERS
 10
635.32244008700002
 20
4691.9551251499979
 30
3.0
  0
VERTEX
  5
7A2
  8
CLUSTERS
 10
635.22222222199991
 20
4691.9366503999981
 30
3.0
  0
VERTEX
  5
7A3
  8
CLUSTERS
 10
635.17448989199977
 20
4691.9761336499978
 30
3.0
  0
VERTEX
  5
7A4
  8
CLUSTERS
 10
635.22222222199991
 20
4692.0364081300004
 30
3.0
  0
VERTEX
  5
7A5
  8
CLUSTERS
 10
635.32244008700002
 20
4691.9947164099985
 30
3.0
  0
VERTEX
  5
7A6
  8
CLUSTERS
 10
635.42265795200001
 20
4692.0705336700003
 30
3.0
  0
VERTEX
  5
7A7
  8
CLUSTERS
 10
635.42406809900001
 20
4692.076372319998
 30
3.0
  0
VERTEX
  5
7A8
  8
CLUSTERS
 10
635.52287581699989
 20
4692.1655484700013
 30
3.0
  0
VERTEX
  5
7A9
  8
CLUSTERS
 10
635.61077169299995
 20
4692.1766109800001
 30
3.0
  0
VERTEX
  5
7AA
  8
CLUSTERS
 10
635.62309368199999
 20
4692.1860126600004
 30
3.0
  0
VERTEX
  5
7AB
  8
CLUSTERS
 10
635.72331154699975
 20
4692.2266080700001
 30
3.0
  0
VERTEX
  5
7AC
  8
CLUSTERS
 10
635.82352941199986
 20
4692.1819061799997
 30
3.0
  0
VERTEX
  5
7AD
  8
CLUSTERS
 10
635.82980075900002
 20
4692.1766109800001
 30
3.0
  0
VERTEX
  5
7AE
  8
CLUSTERS
 10
635.92303517000005
 20
4692.076372319998
 30
3.0
  0
VERTEX
  5
7AF
  8
CLUSTERS
 10
635.92374727699985
 20
4692.0712703600002
 30
3.0
  0
VERTEX
  5
7B0
  8
CLUSTERS
 10
635.98675876000004
 20
4691.9761336499978
 30
3.0
  0
VERTEX
  5
7B1
  8
CLUSTERS
 10
635.96649005400002
 20
4691.8758949900002
 30
3.0
  0
VERTEX
  5
7B2
  8
CLUSTERS
 10
635.92374727699985
 20
4691.7860702799999
 30
3.0
  0
VERTEX
  5
7B3
  8
CLUSTERS
 10
635.92216403899999
 20
4691.7756563199991
 30
3.0
  0
VERTEX
  5
7B4
  8
CLUSTERS
 10
635.92374727699985
 20
4691.7408940400001
 30
3.0
  0
VERTEX
  5
7B5
  8
CLUSTERS
 10
635.93707243400002
 20
4691.6754176599989
 30
3.0
  0
VERTEX
  5
7B6
  8
CLUSTERS
 10
635.9406977299999
 20
4691.5751789999986
 30
3.0
  0
VERTEX
  5
7B7
  8
CLUSTERS
 10
635.97568588399986
 20
4691.4749403300002
 30
3.0
  0
VERTEX
  5
7B8
  8
CLUSTERS
 10
635.97245777499995
 20
4691.3747016699999
 30
3.0
  0
VERTEX
  5
7B9
  8
CLUSTERS
 10
636.02396514199995
 20
4691.3178153099989
 30
3.0
  0
VERTEX
  5
7BA
  8
CLUSTERS
 10
636.06046620199993
 20
4691.2744630099996
 30
3.0
  0
VERTEX
  5
7BB
  8
CLUSTERS
 10
636.12418300699994
 20
4691.1825755500004
 30
3.0
  0
VERTEX
  5
7BC
  8
CLUSTERS
 10
636.13114495499985
 20
4691.1742243400004
 30
3.0
  0
VERTEX
  5
7BD
  8
CLUSTERS
 10
636.12418300699994
 20
4691.1630073599999
 30
3.0
  0
VERTEX
  5
7BE
  8
CLUSTERS
 10
636.10152230199981
 20
4691.0739856800001
 30
3.0
  0
VERTEX
  5
7BF
  8
CLUSTERS
 10
636.08080580499995
 20
4690.9737470199998
 30
3.0
  0
VERTEX
  5
7C0
  8
CLUSTERS
 10
636.12418300699994
 20
4690.9672492700001
 30
3.0
  0
VERTEX
  5
7C1
  8
CLUSTERS
 10
636.21983918599994
 20
4690.8735083499996
 30
3.0
  0
VERTEX
  5
7C2
  8
CLUSTERS
 10
636.18863503499995
 20
4690.7732696900011
 30
3.0
  0
VERTEX
  5
7C3
  8
CLUSTERS
 10
636.12418300699994
 20
4690.6836989499998
 30
3.0
  0
VERTEX
  5
7C4
  8
CLUSTERS
 10
636.12324022899975
 20
4690.6730310299999
 30
3.0
  0
VERTEX
  5
7C5
  8
CLUSTERS
 10
636.02396514199995
 20
4690.57448922
 30
3.0
  0
VERTEX
  5
7C6
  8
CLUSTERS
 10
635.92842146199985
 20
4690.6730310299999
 30
3.0
  0
SEQEND
  5
7C7
  8
CLUSTERS
  0
POLYLINE
  5
3A
  8
CLUSTERS
 66
     1
 10
0.0
 20
0.0
 30
3.0
 70
   129
  0
VERTEX
  5
7C8
  8
CLUSTERS
 10
657.888081876
 20
4690.5727923599998
 30
3.0
  0
VERTEX
  5
7C9
  8
CLUSTERS
 10
657.90872838799976
 20
4690.6730310299999
 30
3.0
  0
VERTEX
  5
7CA
  8
CLUSTERS
 10
657.88853460899975
 20
4690.7732696900011
 30
3.0
  0
VERTEX
  5
7CB
  8
CLUSTERS
 10
657.97167755999976
 20
4690.8567198600012
 30
3.0
  0
VERTEX
  5
7CC
  8
CLUSTERS
 10
658.07189542499987
 20
4690.8724716999986
 30
3.0
  0
VERTEX
  5
7CD
  8
CLUSTERS
 10
658.17211328999997
 20
4690.8675368000004
 30
3.0
  0
VERTEX
  5
7CE
  8
CLUSTERS
 10
658.27233115499985
 20
4690.8686400799979
 30
3.0
  0
VERTEX
  5
7CF
  8
CLUSTERS
 10
658.36757199800002
 20
4690.7732696900011
 30
3.0
  0
VERTEX
  5
7D0
  8
CLUSTERS
 10
658.27233115499985
 20
4690.67557399
 30
3.0
  0
VERTEX
  5
7D1
  8
CLUSTERS
 10
658.17211328999997
 20
4690.6736236099978
 30
3.0
  0
VERTEX
  5
7D2
  8
CLUSTERS
 10
658.17200343499985
 20
4690.6730310299999
 30
3.0
  0
VERTEX
  5
7D3
  8
CLUSTERS
 10
658.16739942099991
 20
4690.5727923599998
 30
3.0
  0
VERTEX
  5
7D4
  8
CLUSTERS
 10
658.07189542499987
 20
4690.4764128899978
 30
3.0
  0
VERTEX
  5
7D5
  8
CLUSTERS
 10
657.97167755999976
 20
4690.4879052200004
 30
3.0
  0
VERTEX
  5
7D6
  8
CLUSTERS
 10
657.888081876
 20
4690.5727923599998
 30
3.0
  0
SEQEND
  5
7D7
  8
CLUSTERS
  0
POLYLINE
  5
3B
  8
CLUSTERS
 66
     1
 10
0.0
 20
0.0
 30
3.0
 70
   129
  0
VERTEX
  5
7D8
  8
CLUSTERS
 10
635.997833958
 20
4690.0715990500003
 30
3.0
  0
VERTEX
  5
7D9
  8
CLUSTERS
 10
635.96228065800005
 20
4690.1718377099987
 30
3.0
  0
VERTEX
  5
7DA
  8
CLUSTERS
 10
635.92427695499975
 20
4690.2720763699999
 30
3.0
  0
VERTEX
  5
7DB
  8
CLUSTERS
 10
635.92427866800006
 20
4690.3723150400001
 30
3.0
  0
VERTEX
  5
7DC
  8
CLUSTERS
 10
635.94000558499999
 20
4690.4725537000013
 30
3.0
  0
VERTEX
  5
7DD
  8
CLUSTERS
 10
636.02396514199995
 20
4690.5661316799979
 30
3.0
  0
VERTEX
  5
7DE
  8
CLUSTERS
 10
636.12418300699994
 20
4690.5653807699991
 30
3.0
  0
VERTEX
  5
7DF
  8
CLUSTERS
 10
636.21853057199985
 20
4690.4725537000013
 30
3.0
  0
VERTEX
  5
7E0
  8
CLUSTERS
 10
636.22435652399997
 20
4690.3723150400001
 30
3.0
  0
VERTEX
  5
7E1
  8
CLUSTERS
 10
636.20768867399977
 20
4690.2720763699999
 30
3.0
  0
VERTEX
  5
7E2
  8
CLUSTERS
 10
636.12418300699994
 20
4690.1776229699999
 30
3.0
  0
VERTEX
  5
7E3
  8
CLUSTERS
 10
636.11053403199992
 20
4690.1718377099987
 30
3.0
  0
VERTEX
  5
7E4
  8
CLUSTERS
 10
636.12418300699994
 20
4690.1553333299989
 30
3.0
  0
VERTEX
  5
7E5
  8
CLUSTERS
 10
636.17580474699992
 20
4690.0715990500003
 30
3.0
  0
VERTEX
  5
7E6
  8
CLUSTERS
 10
636.12418300699994
 20
4689.9955931299992
 30
3.0
  0
VERTEX
  5
7E7
  8
CLUSTERS
 10
636.02396514199995
 20
4690.0373313999999
 30
3.0
  0
VERTEX
  5
7E8
  8
CLUSTERS
 10
635.997833958
 20
4690.0715990500003
 30
3.0
  0
SEQEND
  5
7E9
  8
CLUSTERS
  0
POLYLINE
  5
3C
  8
CLUSTERS
 66
     1
 10
0.0
 20
0.0
 30
3.0
 70
   129
  0
VERTEX
  5
7EA
  8
CLUSTERS
 10
640.05600804400001
 20
4689.7708830499978
 30
3.0
  0
VERTEX
  5
7EB
  8
CLUSTERS
 10
640.05828327500001
 20
4689.8711217199989
 30
3.0
  0
VERTEX
  5
7EC
  8
CLUSTERS
 10
640.13289760300006
 20
4689.9457302800001
 30
3.0
  0
VERTEX
  5
7ED
  8
CLUSTERS
 10
640.23311546800005
 20
4689.9479224899997
 30
3.0
  0
VERTEX
  5
7EE
  8
CLUSTERS
 10
640.31047558499995
 20
4689.8711217199989
 30
3.0
  0
VERTEX
  5
7EF
  8
CLUSTERS
 10
640.31252578800002
 20
4689.7708830499978
 30
3.0
  0
VERTEX
  5
7F0
  8
CLUSTERS
 10
640.23311546800005
 20
4689.6912707199999
 30
3.0
  0
VERTEX
  5
7F1
  8
CLUSTERS
 10
640.13289760300006
 20
4689.6932399099987
 30
3.0
  0
VERTEX
  5
7F2
  8
CLUSTERS
 10
640.05600804400001
 20
4689.7708830499978
 30
3.0
  0
SEQEND
  5
7F3
  8
CLUSTERS
  0
POLYLINE
  5
3D
  8
CLUSTERS
 66
     1
 10
0.0
 20
0.0
 30
3.0
 70
   129
  0
VERTEX
  5
7F4
  8
CLUSTERS
 10
636.23052547999976
 20
4689.0692124099978
 30
3.0
  0
VERTEX
  5
7F5
  8
CLUSTERS
 10
636.23070217400004
 20
4689.169451069999
 30
3.0
  0
VERTEX
  5
7F6
  8
CLUSTERS
 10
636.32461873599993
 20
4689.2637621100002
 30
3.0
  0
VERTEX
  5
7F7
  8
CLUSTERS
 10
636.42483660100004
 20
4689.2686712200002
 30
3.0
  0
VERTEX
  5
7F8
  8
CLUSTERS
 10
636.52505446600003
 20
4689.2550109200001
 30
3.0
  0
VERTEX
  5
7F9
  8
CLUSTERS
 10
636.52518665599985
 20
4689.2696897400001
 30
3.0
  0
VERTEX
  5
7FA
  8
CLUSTERS
 10
636.62527233100002
 20
4689.36977415
 30
3.0
  0
VERTEX
  5
7FB
  8
CLUSTERS
 10
636.7254901959999
 20
4689.3695725300004
 30
3.0
  0
VERTEX
  5
7FC
  8
CLUSTERS
 10
636.825708061
 20
4689.3438118000004
 30
3.0
  0
VERTEX
  5
7FD
  8
CLUSTERS
 10
636.89637581599993
 20
4689.2696897400001
 30
3.0
  0
VERTEX
  5
7FE
  8
CLUSTERS
 10
636.84052600099994
 20
4689.169451069999
 30
3.0
  0
VERTEX
  5
7FF
  8
CLUSTERS
 10
636.825708061
 20
4689.1525910399996
 30
3.0
  0
VERTEX
  5
800
  8
CLUSTERS
 10
636.7254901959999
 20
4689.0707047100004
 30
3.0
  0
VERTEX
  5
801
  8
CLUSTERS
 10
636.62527233100002
 20
4689.0729675599978
 30
3.0
  0
VERTEX
  5
802
  8
CLUSTERS
 10
636.58126318799987
 20
4689.0692124099978
 30
3.0
  0
VERTEX
  5
803
  8
CLUSTERS
 10
636.52505446600003
 20
4689.0192646300002
 30
3.0
  0
VERTEX
  5
804
  8
CLUSTERS
 10
636.42483660100004
 20
4688.9690775299987
 30
3.0
  0
VERTEX
  5
805
  8
CLUSTERS
 10
636.32461873599993
 20
4688.9732717400002
 30
3.0
  0
VERTEX
  5
806
  8
CLUSTERS
 10
636.23052547999976
 20
4689.0692124099978
 30
3.0
  0
SEQEND
  5
807
  8
CLUSTERS
  0
POLYLINE
  5
3E
  8
CLUSTERS
 66
     1
 10
0.0
 20
0.0
 30
3.0
 70
   129
  0
VERTEX
  5
808
  8
CLUSTERS
 10
633.44853070599993
 20
4688.5680190900002
 30
3.0
  0
VERTEX
  5
809
  8
CLUSTERS
 10
633.42924783499996
 20
4688.6682577600004
 30
3.0
  0
VERTEX
  5
80A
  8
CLUSTERS
 10
633.46909086699975
 20
4688.768496419998
 30
3.0
  0
VERTEX
  5
80B
  8
CLUSTERS
 10
633.43785477099993
 20
4688.8687350800001
 30
3.0
  0
VERTEX
  5
80C
  8
CLUSTERS
 10
633.51851851900005
 20
4688.9318559999992
 30
3.0
  0
VERTEX
  5
80D
  8
CLUSTERS
 10
633.58610802699991
 20
4688.8687350800001
 30
3.0
  0
VERTEX
  5
80E
  8
CLUSTERS
 10
633.56565732800004
 20
4688.768496419998
 30
3.0
  0
VERTEX
  5
80F
  8
CLUSTERS
 10
633.61873638300005
 20
4688.7632071099997
 30
3.0
  0
VERTEX
  5
810
  8
CLUSTERS
 10
633.71811954400005
 20
4688.6682577600004
 30
3.0
  0
VERTEX
  5
811
  8
CLUSTERS
 10
633.61873638300005
 20
4688.5703940200001
 30
3.0
  0
VERTEX
  5
812
  8
CLUSTERS
 10
633.60613548900005
 20
4688.5680190900002
 30
3.0
  0
VERTEX
  5
813
  8
CLUSTERS
 10
633.51851851900005
 20
4688.4968394599991
 30
3.0
  0
VERTEX
  5
814
  8
CLUSTERS
 10
633.44853070599993
 20
4688.5680190900002
 30
3.0
  0
SEQEND
  5
815
  8
CLUSTERS
  0
POLYLINE
  5
3F
  8
CLUSTERS
 66
     1
 10
0.0
 20
0.0
 30
3.0
 70
   129
  0
VERTEX
  5
816
  8
CLUSTERS
 10
638.83149770599994
 20
4687.6658711199998
 30
3.0
  0
VERTEX
  5
817
  8
CLUSTERS
 10
638.83006535899995
 20
4687.6672056500001
 30
3.0
  0
VERTEX
  5
818
  8
CLUSTERS
 10
638.73196226699974
 20
4687.76610979
 30
3.0
  0
VERTEX
  5
819
  8
CLUSTERS
 10
638.73179776500001
 20
4687.8663484500003
 30
3.0
  0
VERTEX
  5
81A
  8
CLUSTERS
 10
638.76950573300007
 20
4687.9665871099996
 30
3.0
  0
VERTEX
  5
81B
  8
CLUSTERS
 10
638.83006535899995
 20
4688.0284447100003
 30
3.0
  0
VERTEX
  5
81C
  8
CLUSTERS
 10
638.93028322400005
 20
4688.0535514699977
 30
3.0
  0
VERTEX
  5
81D
  8
CLUSTERS
 10
638.97548072300003
 20
4688.0668257799998
 30
3.0
  0
VERTEX
  5
81E
  8
CLUSTERS
 10
638.93028322400005
 20
4688.0683300800001
 30
3.0
  0
VERTEX
  5
81F
  8
CLUSTERS
 10
638.83263968199992
 20
4688.1670644400001
 30
3.0
  0
VERTEX
  5
820
  8
CLUSTERS
 10
638.83432308399995
 20
4688.2673031000004
 30
3.0
  0
VERTEX
  5
821
  8
CLUSTERS
 10
638.83193428000004
 20
4688.3675417699988
 30
3.0
  0
VERTEX
  5
822
  8
CLUSTERS
 10
638.93028322400005
 20
4688.4659646999989
 30
3.0
  0
VERTEX
  5
823
  8
CLUSTERS
 10
639.03050108900004
 20
4688.4667535799999
 30
3.0
  0
VERTEX
  5
824
  8
CLUSTERS
 10
639.13071895400003
 20
4688.46368652
 30
3.0
  0
VERTEX
  5
825
  8
CLUSTERS
 10
639.23093681900002
 20
4688.4557812700004
 30
3.0
  0
VERTEX
  5
826
  8
CLUSTERS
 10
639.31946048400005
 20
4688.3675417699988
 30
3.0
  0
VERTEX
  5
827
  8
CLUSTERS
 10
639.23093681900002
 20
4688.2708303400013
 30
3.0
  0
VERTEX
  5
828
  8
CLUSTERS
 10
639.23048665999988
 20
4688.2673031000004
 30
3.0
  0
VERTEX
  5
829
  8
CLUSTERS
 10
639.227017854
 20
4688.1670644400001
 30
3.0
  0
VERTEX
  5
82A
  8
CLUSTERS
 10
639.13071895400003
 20
4688.0694148900011
 30
3.0
  0
VERTEX
  5
82B
  8
CLUSTERS
 10
639.089885041
 20
4688.0668257799998
 30
3.0
  0
VERTEX
  5
82C
  8
CLUSTERS
 10
639.03050108900004
 20
4688.02425829
 30
3.0
  0
VERTEX
  5
82D
  8
CLUSTERS
 10
639.01034576899985
 20
4687.9665871099996
 30
3.0
  0
VERTEX
  5
82E
  8
CLUSTERS
 10
639.03050108900004
 20
4687.9522862800004
 30
3.0
  0
VERTEX
  5
82F
  8
CLUSTERS
 10
639.11486380400004
 20
4687.8663484500003
 30
3.0
  0
VERTEX
  5
830
  8
CLUSTERS
 10
639.12134393199995
 20
4687.76610979
 30
3.0
  0
VERTEX
  5
831
  8
CLUSTERS
 10
639.07915586299998
 20
4687.6658711199998
 30
3.0
  0
VERTEX
  5
832
  8
CLUSTERS
 10
639.03050108900004
 20
4687.6159705199989
 30
3.0
  0
VERTEX
  5
833
  8
CLUSTERS
 10
638.93028322400005
 20
4687.5674950000002
 30
3.0
  0
VERTEX
  5
834
  8
CLUSTERS
 10
638.83149770599994
 20
4687.6658711199998
 30
3.0
  0
SEQEND
  5
835
  8
CLUSTERS
  0
POLYLINE
  5
40
  8
CLUSTERS
 66
     1
 10
0.0
 20
0.0
 30
3.0
 70
   129
  0
VERTEX
  5
836
  8
CLUSTERS
 10
640.335784375
 20
4686.66348449
 30
3.0
  0
VERTEX
  5
837
  8
CLUSTERS
 10
640.43355119800003
 20
4686.7612982299988
 30
3.0
  0
VERTEX
  5
838
  8
CLUSTERS
 10
640.45164860699992
 20
4686.7637231500003
 30
3.0
  0
VERTEX
  5
839
  8
CLUSTERS
 10
640.53376906300002
 20
4686.8506793300003
 30
3.0
  0
VERTEX
  5
83A
  8
CLUSTERS
 10
640.60063201000003
 20
4686.8639618099996
 30
3.0
  0
VERTEX
  5
83B
  8
CLUSTERS
 10
640.6339869279999
 20
4686.888785369998
 30
3.0
  0
VERTEX
  5
83C
  8
CLUSTERS
 10
640.65884635099985
 20
4686.8639618099996
 30
3.0
  0
VERTEX
  5
83D
  8
CLUSTERS
 10
640.71127791200001
 20
4686.7637231500003
 30
3.0
  0
VERTEX
  5
83E
  8
CLUSTERS
 10
640.6339869279999
 20
4686.6862171599996
 30
3.0
  0
VERTEX
  5
83F
  8
CLUSTERS
 10
640.56719404399985
 20
4686.66348449
 30
3.0
  0
VERTEX
  5
840
  8
CLUSTERS
 10
640.53376906300002
 20
4686.6298042799981
 30
3.0
  0
VERTEX
  5
841
  8
CLUSTERS
 10
640.43355119800003
 20
4686.5654836900003
 30
3.0
  0
VERTEX
  5
842
  8
CLUSTERS
 10
640.335784375
 20
4686.66348449
 30
3.0
  0
SEQEND
  5
843
  8
CLUSTERS
  0
POLYLINE
  5
41
  8
CLUSTERS
 66
     1
 10
0.0
 20
0.0
 30
3.0
 70
   129
  0
VERTEX
  5
844
  8
CLUSTERS
 10
641.26973518300008
 20
4686.5632458199989
 30
3.0
  0
VERTEX
  5
845
  8
CLUSTERS
 10
641.23529411799996
 20
4686.5648333099998
 30
3.0
  0
VERTEX
  5
846
  8
CLUSTERS
 10
641.13507625299997
 20
4686.5825687799988
 30
3.0
  0
VERTEX
  5
847
  8
CLUSTERS
 10
641.05459602099995
 20
4686.66348449
 30
3.0
  0
VERTEX
  5
848
  8
CLUSTERS
 10
641.06191118499987
 20
4686.7637231500003
 30
3.0
  0
VERTEX
  5
849
  8
CLUSTERS
 10
641.13507625299997
 20
4686.8375391400004
 30
3.0
  0
VERTEX
  5
84A
  8
CLUSTERS
 10
641.15831041699994
 20
4686.8639618099996
 30
3.0
  0
VERTEX
  5
84B
  8
CLUSTERS
 10
641.13773479199995
 20
4686.9642004799998
 30
3.0
  0
VERTEX
  5
84C
  8
CLUSTERS
 10
641.13689903599993
 20
4687.0644391400001
 30
3.0
  0
VERTEX
  5
84D
  8
CLUSTERS
 10
641.23529411799996
 20
4687.1643486900002
 30
3.0
  0
VERTEX
  5
84E
  8
CLUSTERS
 10
641.23588549099986
 20
4687.1646778000013
 30
3.0
  0
VERTEX
  5
84F
  8
CLUSTERS
 10
641.23529411799996
 20
4687.1658604300001
 30
3.0
  0
VERTEX
  5
850
  8
CLUSTERS
 10
641.14128516799997
 20
4687.2649164699997
 30
3.0
  0
VERTEX
  5
851
  8
CLUSTERS
 10
641.13507625299997
 20
4687.2729493899978
 30
3.0
  0
VERTEX
  5
852
  8
CLUSTERS
 10
641.04326474799996
 20
4687.3651551299999
 30
3.0
  0
VERTEX
  5
853
  8
CLUSTERS
 10
641.03808475199992
 20
4687.4653937900002
 30
3.0
  0
VERTEX
  5
854
  8
CLUSTERS
 10
641.03485838799998
 20
4687.4794213399991
 30
3.0
  0
VERTEX
  5
855
  8
CLUSTERS
 10
640.94962755500001
 20
4687.5656324600013
 30
3.0
  0
VERTEX
  5
856
  8
CLUSTERS
 10
640.93644628100003
 20
4687.6658711199998
 30
3.0
  0
VERTEX
  5
857
  8
CLUSTERS
 10
640.950196581
 20
4687.76610979
 30
3.0
  0
VERTEX
  5
858
  8
CLUSTERS
 10
641.03485838799998
 20
4687.8509550999997
 30
3.0
  0
VERTEX
  5
859
  8
CLUSTERS
 10
641.13507625299997
 20
4687.8654956199998
 30
3.0
  0
VERTEX
  5
85A
  8
CLUSTERS
 10
641.23529411799996
 20
4687.8636421600004
 30
3.0
  0
VERTEX
  5
85B
  8
CLUSTERS
 10
641.33307353500004
 20
4687.76610979
 30
3.0
  0
VERTEX
  5
85C
  8
CLUSTERS
 10
641.33483979200003
 20
4687.6658711199998
 30
3.0
  0
VERTEX
  5
85D
  8
CLUSTERS
 10
641.33551198300006
 20
4687.597862749999
 30
3.0
  0
VERTEX
  5
85E
  8
CLUSTERS
 10
641.35780581699976
 20
4687.5656324600013
 30
3.0
  0
VERTEX
  5
85F
  8
CLUSTERS
 10
641.33551198300006
 20
4687.5409395499992
 30
3.0
  0
VERTEX
  5
860
  8
CLUSTERS
 10
641.32982586900005
 20
4687.4653937900002
 30
3.0
  0
VERTEX
  5
861
  8
CLUSTERS
 10
641.33551198300006
 20
4687.4585320899987
 30
3.0
  0
VERTEX
  5
862
  8
CLUSTERS
 10
641.42821361699976
 20
4687.3651551299999
 30
3.0
  0
VERTEX
  5
863
  8
CLUSTERS
 10
641.42035098999997
 20
4687.2649164699997
 30
3.0
  0
VERTEX
  5
864
  8
CLUSTERS
 10
641.43572984699995
 20
4687.2350658699997
 30
3.0
  0
VERTEX
  5
865
  8
CLUSTERS
 10
641.50601835700002
 20
4687.1646778000013
 30
3.0
  0
VERTEX
  5
866
  8
CLUSTERS
 10
641.53594771199994
 20
4687.1554350799997
 30
3.0
  0
VERTEX
  5
867
  8
CLUSTERS
 10
641.62676335499975
 20
4687.0644391400001
 30
3.0
  0
VERTEX
  5
868
  8
CLUSTERS
 10
641.62651408699992
 20
4686.9642004799998
 30
3.0
  0
VERTEX
  5
869
  8
CLUSTERS
 10
641.53594771199994
 20
4686.8719748999993
 30
3.0
  0
VERTEX
  5
86A
  8
CLUSTERS
 10
641.534403602
 20
4686.8639618099996
 30
3.0
  0
VERTEX
  5
86B
  8
CLUSTERS
 10
641.43572984699995
 20
4686.7652111799998
 30
3.0
  0
VERTEX
  5
86C
  8
CLUSTERS
 10
641.39149090499996
 20
4686.7637231500003
 30
3.0
  0
VERTEX
  5
86D
  8
CLUSTERS
 10
641.43572984699995
 20
4686.7619505399998
 30
3.0
  0
VERTEX
  5
86E
  8
CLUSTERS
 10
641.53386310899998
 20
4686.66348449
 30
3.0
  0
VERTEX
  5
86F
  8
CLUSTERS
 10
641.43572984699995
 20
4686.5652276700002
 30
3.0
  0
VERTEX
  5
870
  8
CLUSTERS
 10
641.40113177499995
 20
4686.5632458199989
 30
3.0
  0
VERTEX
  5
871
  8
CLUSTERS
 10
641.33551198300006
 20
4686.5013696799997
 30
3.0
  0
VERTEX
  5
872
  8
CLUSTERS
 10
641.26973518300008
 20
4686.5632458199989
 30
3.0
  0
SEQEND
  5
873
  8
CLUSTERS
  0
POLYLINE
  5
42
  8
CLUSTERS
 66
     1
 10
0.0
 20
0.0
 30
3.0
 70
   129
  0
VERTEX
  5
874
  8
CLUSTERS
 10
642.04283256400004
 20
4686.1622911699978
 30
3.0
  0
VERTEX
  5
875
  8
CLUSTERS
 10
642.05447212299975
 20
4686.2625298299999
 30
3.0
  0
VERTEX
  5
876
  8
CLUSTERS
 10
642.13725490199988
 20
4686.3454037999991
 30
3.0
  0
VERTEX
  5
877
  8
CLUSTERS
 10
642.19578050699988
 20
4686.3627685000001
 30
3.0
  0
VERTEX
  5
878
  8
CLUSTERS
 10
642.23747276699999
 20
4686.4042082799988
 30
3.0
  0
VERTEX
  5
879
  8
CLUSTERS
 10
642.33769063199975
 20
4686.4530374300002
 30
3.0
  0
VERTEX
  5
87A
  8
CLUSTERS
 10
642.43790849699985
 20
4686.44303347
 30
3.0
  0
VERTEX
  5
87B
  8
CLUSTERS
 10
642.51820262199988
 20
4686.3627685000001
 30
3.0
  0
VERTEX
  5
87C
  8
CLUSTERS
 10
642.50083612299977
 20
4686.2625298299999
 30
3.0
  0
VERTEX
  5
87D
  8
CLUSTERS
 10
642.43790849699985
 20
4686.1993984199999
 30
3.0
  0
VERTEX
  5
87E
  8
CLUSTERS
 10
642.33769063199975
 20
4686.19824685
 30
3.0
  0
VERTEX
  5
87F
  8
CLUSTERS
 10
642.336982057
 20
4686.1622911699978
 30
3.0
  0
VERTEX
  5
880
  8
CLUSTERS
 10
642.23747276699999
 20
4686.0627762800004
 30
3.0
  0
VERTEX
  5
881
  8
CLUSTERS
 10
642.13725490199988
 20
4686.06765507
 30
3.0
  0
VERTEX
  5
882
  8
CLUSTERS
 10
642.04283256400004
 20
4686.1622911699978
 30
3.0
  0
SEQEND
  5
883
  8
CLUSTERS
  0
POLYLINE
  5
43
  8
CLUSTERS
 66
     1
 10
0.0
 20
0.0
 30
3.0
 70
   129
  0
VERTEX
  5
884
  8
CLUSTERS
 10
629.51769755400005
 20
4685.4606205299979
 30
3.0
  0
VERTEX
  5
885
  8
CLUSTERS
 10
629.51132818899987
 20
4685.56085919
 30
3.0
  0
VERTEX
  5
886
  8
CLUSTERS
 10
629.50980392199995
 20
4685.5656712399996
 30
3.0
  0
VERTEX
  5
887
  8
CLUSTERS
 10
629.40958605699996
 20
4685.5699623500004
 30
3.0
  0
VERTEX
  5
888
  8
CLUSTERS
 10
629.32088505900003
 20
4685.6610978500003
 30
3.0
  0
VERTEX
  5
889
  8
CLUSTERS
 10
629.31561302699981
 20
4685.7613365200004
 30
3.0
  0
VERTEX
  5
88A
  8
CLUSTERS
 10
629.37447431999999
 20
4685.8615751799998
 30
3.0
  0
VERTEX
  5
88B
  8
CLUSTERS
 10
629.40958605699996
 20
4685.896495529998
 30
3.0
  0
VERTEX
  5
88C
  8
CLUSTERS
 10
629.50980392199995
 20
4685.9111271600004
 30
3.0
  0
VERTEX
  5
88D
  8
CLUSTERS
 10
629.57327136799995
 20
4685.8615751799998
 30
3.0
  0
VERTEX
  5
88E
  8
CLUSTERS
 10
629.61002178599995
 20
4685.8416086400002
 30
3.0
  0
VERTEX
  5
88F
  8
CLUSTERS
 10
629.680735196
 20
4685.7613365200004
 30
3.0
  0
VERTEX
  5
890
  8
CLUSTERS
 10
629.67253484599985
 20
4685.6610978500003
 30
3.0
  0
VERTEX
  5
891
  8
CLUSTERS
 10
629.71023965099994
 20
4685.64824219
 30
3.0
  0
VERTEX
  5
892
  8
CLUSTERS
 10
629.79369902300004
 20
4685.56085919
 30
3.0
  0
VERTEX
  5
893
  8
CLUSTERS
 10
629.77327875499998
 20
4685.4606205299979
 30
3.0
  0
VERTEX
  5
894
  8
CLUSTERS
 10
629.71023965099994
 20
4685.3936445500003
 30
3.0
  0
VERTEX
  5
895
  8
CLUSTERS
 10
629.61002178599995
 20
4685.36685708
 30
3.0
  0
VERTEX
  5
896
  8
CLUSTERS
 10
629.51769755400005
 20
4685.4606205299979
 30
3.0
  0
SEQEND
  5
897
  8
CLUSTERS
  0
POLYLINE
  5
44
  8
CLUSTERS
 66
     1
 10
0.0
 20
0.0
 30
3.0
 70
   129
  0
VERTEX
  5
898
  8
CLUSTERS
 10
637.52728193899998
 20
4685.2601431999992
 30
3.0
  0
VERTEX
  5
899
  8
CLUSTERS
 10
637.52723311499994
 20
4685.2602007400001
 30
3.0
  0
VERTEX
  5
89A
  8
CLUSTERS
 10
637.45283541799995
 20
4685.3603818600004
 30
3.0
  0
VERTEX
  5
89B
  8
CLUSTERS
 10
637.52723311499994
 20
4685.4265977699988
 30
3.0
  0
VERTEX
  5
89C
  8
CLUSTERS
 10
637.62745098000005
 20
4685.4174477200004
 30
3.0
  0
VERTEX
  5
89D
  8
CLUSTERS
 10
637.68494049100002
 20
4685.3603818600004
 30
3.0
  0
VERTEX
  5
89E
  8
CLUSTERS
 10
637.69782186600003
 20
4685.2601431999992
 30
3.0
  0
VERTEX
  5
89F
  8
CLUSTERS
 10
637.62745098000005
 20
4685.1901305000001
 30
3.0
  0
VERTEX
  5
8A0
  8
CLUSTERS
 10
637.52728193899998
 20
4685.2601431999992
 30
3.0
  0
SEQEND
  5
8A1
  8
CLUSTERS
  0
POLYLINE
  5
45
  8
CLUSTERS
 66
     1
 10
0.0
 20
0.0
 30
3.0
 70
   129
  0
VERTEX
  5
8A2
  8
CLUSTERS
 10
646.45163311199985
 20
4683.054892600001
 30
3.0
  0
VERTEX
  5
8A3
  8
CLUSTERS
 10
646.47668602199997
 20
4683.1551312600004
 30
3.0
  0
VERTEX
  5
8A4
  8
CLUSTERS
 10
646.54684095899995
 20
4683.2252998399999
 30
3.0
  0
VERTEX
  5
8A5
  8
CLUSTERS
 10
646.61700010599998
 20
4683.1551312600004
 30
3.0
  0
VERTEX
  5
8A6
  8
CLUSTERS
 10
646.64705882400006
 20
4683.1502821999984
 30
3.0
  0
VERTEX
  5
8A7
  8
CLUSTERS
 10
646.74560728899996
 20
4683.054892600001
 30
3.0
  0
VERTEX
  5
8A8
  8
CLUSTERS
 10
646.64705882400006
 20
4682.9595031299987
 30
3.0
  0
VERTEX
  5
8A9
  8
CLUSTERS
 10
646.54684095899995
 20
4682.9596647400003
 30
3.0
  0
VERTEX
  5
8AA
  8
CLUSTERS
 10
646.45163311199985
 20
4683.054892600001
 30
3.0
  0
SEQEND
  5
8AB
  8
CLUSTERS
  0
POLYLINE
  5
46
  8
CLUSTERS
 66
     1
 10
0.0
 20
0.0
 30
3.0
 70
   129
  0
VERTEX
  5
8AC
  8
CLUSTERS
 10
647.99999986499995
 20
4681.7517899799977
 30
3.0
  0
VERTEX
  5
8AD
  8
CLUSTERS
 10
647.95466333100001
 20
4681.852028639998
 30
3.0
  0
VERTEX
  5
8AE
  8
CLUSTERS
 10
648.05010893199994
 20
4681.9474940700002
 30
3.0
  0
VERTEX
  5
8AF
  8
CLUSTERS
 10
648.15032679699993
 20
4681.9484120200004
 30
3.0
  0
VERTEX
  5
8B0
  8
CLUSTERS
 10
648.21045708400004
 20
4681.9522673000001
 30
3.0
  0
VERTEX
  5
8B1
  8
CLUSTERS
 10
648.15032679699993
 20
4681.9603946799989
 30
3.0
  0
VERTEX
  5
8B2
  8
CLUSTERS
 10
648.05823467599998
 20
4682.0525059700003
 30
3.0
  0
VERTEX
  5
8B3
  8
CLUSTERS
 10
648.15032679699993
 20
4682.1446172100004
 30
3.0
  0
VERTEX
  5
8B4
  8
CLUSTERS
 10
648.25054466199992
 20
4682.1369175199998
 30
3.0
  0
VERTEX
  5
8B5
  8
CLUSTERS
 10
648.33493869199992
 20
4682.0525059700003
 30
3.0
  0
VERTEX
  5
8B6
  8
CLUSTERS
 10
648.35076252699992
 20
4682.0023867099981
 30
3.0
  0
VERTEX
  5
8B7
  8
CLUSTERS
 10
648.40087144599977
 20
4681.9522673000001
 30
3.0
  0
VERTEX
  5
8B8
  8
CLUSTERS
 10
648.37581698799977
 20
4681.852028639998
 30
3.0
  0
VERTEX
  5
8B9
  8
CLUSTERS
 10
648.35076252699992
 20
4681.8269689799999
 30
3.0
  0
VERTEX
  5
8BA
  8
CLUSTERS
 10
648.30065314000001
 20
4681.852028639998
 30
3.0
  0
VERTEX
  5
8BB
  8
CLUSTERS
 10
648.25054466199992
 20
4681.8854409899977
 30
3.0
  0
VERTEX
  5
8BC
  8
CLUSTERS
 10
648.24922603000005
 20
4681.852028639998
 30
3.0
  0
VERTEX
  5
8BD
  8
CLUSTERS
 10
648.24605730899998
 20
4681.7517899799977
 30
3.0
  0
VERTEX
  5
8BE
  8
CLUSTERS
 10
648.15032679699993
 20
4681.6560396099994
 30
3.0
  0
VERTEX
  5
8BF
  8
CLUSTERS
 10
648.05010893199994
 20
4681.7016705200003
 30
3.0
  0
VERTEX
  5
8C0
  8
CLUSTERS
 10
647.99999986499995
 20
4681.7517899799977
 30
3.0
  0
SEQEND
  5
8C1
  8
CLUSTERS
  0
POLYLINE
  5
47
  8
CLUSTERS
 66
     1
 10
0.0
 20
0.0
 30
3.0
 70
   129
  0
VERTEX
  5
8C2
  8
CLUSTERS
 10
633.52447396000002
 20
4681.7517899799977
 30
3.0
  0
VERTEX
  5
8C3
  8
CLUSTERS
 10
633.51851851900005
 20
4681.7657828499987
 30
3.0
  0
VERTEX
  5
8C4
  8
CLUSTERS
 10
633.41830065399995
 20
4681.8082424999984
 30
3.0
  0
VERTEX
  5
8C5
  8
CLUSTERS
 10
633.37522783300005
 20
4681.852028639998
 30
3.0
  0
VERTEX
  5
8C6
  8
CLUSTERS
 10
633.32705763699994
 20
4681.9522673000001
 30
3.0
  0
VERTEX
  5
8C7
  8
CLUSTERS
 10
633.41830065399995
 20
4682.0440694600002
 30
3.0
  0
VERTEX
  5
8C8
  8
CLUSTERS
 10
633.51851851900005
 20
4682.0469796199986
 30
3.0
  0
VERTEX
  5
8C9
  8
CLUSTERS
 10
633.61873638300005
 20
4682.0165438000004
 30
3.0
  0
VERTEX
  5
8CA
  8
CLUSTERS
 10
633.71895424800005
 20
4682.0519588300003
 30
3.0
  0
VERTEX
  5
8CB
  8
CLUSTERS
 10
633.81917211300004
 20
4682.0475700899988
 30
3.0
  0
VERTEX
  5
8CC
  8
CLUSTERS
 10
633.91938997800003
 20
4681.9685977299996
 30
3.0
  0
VERTEX
  5
8CD
  8
CLUSTERS
 10
633.93558695399997
 20
4681.9522673000001
 30
3.0
  0
VERTEX
  5
8CE
  8
CLUSTERS
 10
634.01626451800007
 20
4681.852028639998
 30
3.0
  0
VERTEX
  5
8CF
  8
CLUSTERS
 10
633.96988696599999
 20
4681.7517899799977
 30
3.0
  0
VERTEX
  5
8D0
  8
CLUSTERS
 10
633.91938997800003
 20
4681.6997740400011
 30
3.0
  0
VERTEX
  5
8D1
  8
CLUSTERS
 10
633.81917211300004
 20
4681.6535147300001
 30
3.0
  0
VERTEX
  5
8D2
  8
CLUSTERS
 10
633.71895424800005
 20
4681.6535717300003
 30
3.0
  0
VERTEX
  5
8D3
  8
CLUSTERS
 10
633.61873638300005
 20
4681.6573537699987
 30
3.0
  0
VERTEX
  5
8D4
  8
CLUSTERS
 10
633.52447396000002
 20
4681.7517899799977
 30
3.0
  0
SEQEND
  5
8D5
  8
CLUSTERS
  0
POLYLINE
  5
48
  8
CLUSTERS
 66
     1
 10
0.0
 20
0.0
 30
3.0
 70
   129
  0
VERTEX
  5
8D6
  8
CLUSTERS
 10
645.64679238600002
 20
4680.2482100200023
 30
3.0
  0
VERTEX
  5
8D7
  8
CLUSTERS
 10
645.64511727599995
 20
4680.3484486899997
 30
3.0
  0
VERTEX
  5
8D8
  8
CLUSTERS
 10
645.65852718500003
 20
4680.44868735
 30
3.0
  0
VERTEX
  5
8D9
  8
CLUSTERS
 10
645.74509803899991
 20
4680.5352729799997
 30
3.0
  0
VERTEX
  5
8DA
  8
CLUSTERS
 10
645.75300324800003
 20
4680.5489260100012
 30
3.0
  0
VERTEX
  5
8DB
  8
CLUSTERS
 10
645.75420094200001
 20
4680.6491646799996
 30
3.0
  0
VERTEX
  5
8DC
  8
CLUSTERS
 10
645.84531590400002
 20
4680.7403233799987
 30
3.0
  0
VERTEX
  5
8DD
  8
CLUSTERS
 10
645.84547627799975
 20
4680.7494033399998
 30
3.0
  0
VERTEX
  5
8DE
  8
CLUSTERS
 10
645.94553376900001
 20
4680.84948153
 30
3.0
  0
VERTEX
  5
8DF
  8
CLUSTERS
 10
646.04575163399988
 20
4680.8493373399979
 30
3.0
  0
VERTEX
  5
8E0
  8
CLUSTERS
 10
646.14596949899999
 20
4680.84877865
 30
3.0
  0
VERTEX
  5
8E1
  8
CLUSTERS
 10
646.24618736399975
 20
4680.8483998399997
 30
3.0
  0
VERTEX
  5
8E2
  8
CLUSTERS
 10
646.34516316300005
 20
4680.7494033399998
 30
3.0
  0
VERTEX
  5
8E3
  8
CLUSTERS
 10
646.32637101800003
 20
4680.6491646799996
 30
3.0
  0
VERTEX
  5
8E4
  8
CLUSTERS
 10
646.24618736399975
 20
4680.5689589800004
 30
3.0
  0
VERTEX
  5
8E5
  8
CLUSTERS
 10
646.14596949899999
 20
4680.549132449999
 30
3.0
  0
VERTEX
  5
8E6
  8
CLUSTERS
 10
646.14480718599975
 20
4680.5489260100012
 30
3.0
  0
VERTEX
  5
8E7
  8
CLUSTERS
 10
646.12450515499995
 20
4680.44868735
 30
3.0
  0
VERTEX
  5
8E8
  8
CLUSTERS
 10
646.04575163399988
 20
4680.3699180599997
 30
3.0
  0
VERTEX
  5
8E9
  8
CLUSTERS
 10
646.00821572400002
 20
4680.3484486899997
 30
3.0
  0
VERTEX
  5
8EA
  8
CLUSTERS
 10
645.94553376900001
 20
4680.2857086999984
 30
3.0
  0
VERTEX
  5
8EB
  8
CLUSTERS
 10
645.94513854000002
 20
4680.2482100200023
 30
3.0
  0
VERTEX
  5
8EC
  8
CLUSTERS
 10
645.84531590400002
 20
4680.1483668000001
 30
3.0
  0
VERTEX
  5
8ED
  8
CLUSTERS
 10
645.74509803899991
 20
4680.1498845100004
 30
3.0
  0
VERTEX
  5
8EE
  8
CLUSTERS
 10
645.64679238600002
 20
4680.2482100200023
 30
3.0
  0
SEQEND
  5
8EF
  8
CLUSTERS
  0
POLYLINE
  5
49
  8
CLUSTERS
 66
     1
 10
0.0
 20
0.0
 30
3.0
 70
   129
  0
VERTEX
  5
8F0
  8
CLUSTERS
 10
632.02628523600004
 20
4680.2482100200023
 30
3.0
  0
VERTEX
  5
8F1
  8
CLUSTERS
 10
632.02329951599995
 20
4680.3484486899997
 30
3.0
  0
VERTEX
  5
8F2
  8
CLUSTERS
 10
632.11546840999995
 20
4680.4416871200001
 30
3.0
  0
VERTEX
  5
8F3
  8
CLUSTERS
 10
632.21513683599994
 20
4680.44868735
 30
3.0
  0
VERTEX
  5
8F4
  8
CLUSTERS
 10
632.21568627500005
 20
4680.44920576
 30
3.0
  0
VERTEX
  5
8F5
  8
CLUSTERS
 10
632.31590413900005
 20
4680.50273655
 30
3.0
  0
VERTEX
  5
8F6
  8
CLUSTERS
 10
632.32929513800002
 20
4680.5489260100012
 30
3.0
  0
VERTEX
  5
8F7
  8
CLUSTERS
 10
632.31590413900005
 20
4680.5694865400001
 30
3.0
  0
VERTEX
  5
8F8
  8
CLUSTERS
 10
632.24487228299995
 20
4680.6491646799996
 30
3.0
  0
VERTEX
  5
8F9
  8
CLUSTERS
 10
632.21568627500005
 20
4680.7178255099998
 30
3.0
  0
VERTEX
  5
8FA
  8
CLUSTERS
 10
632.19391323299976
 20
4680.7494033399998
 30
3.0
  0
VERTEX
  5
8FB
  8
CLUSTERS
 10
632.21568627500005
 20
4680.7715801599998
 30
3.0
  0
VERTEX
  5
8FC
  8
CLUSTERS
 10
632.31590413900005
 20
4680.8366644899997
 30
3.0
  0
VERTEX
  5
8FD
  8
CLUSTERS
 10
632.41436010999985
 20
4680.7494033399998
 30
3.0
  0
VERTEX
  5
8FE
  8
CLUSTERS
 10
632.41612200400004
 20
4680.7194666300002
 30
3.0
  0
VERTEX
  5
8FF
  8
CLUSTERS
 10
632.42422632599994
 20
4680.7494033399998
 30
3.0
  0
VERTEX
  5
900
  8
CLUSTERS
 10
632.51633986900003
 20
4680.8119095000002
 30
3.0
  0
VERTEX
  5
901
  8
CLUSTERS
 10
632.61655773400003
 20
4680.83565533
 30
3.0
  0
VERTEX
  5
902
  8
CLUSTERS
 10
632.71677559900002
 20
4680.8345348900002
 30
3.0
  0
VERTEX
  5
903
  8
CLUSTERS
 10
632.81699346399989
 20
4680.7977517400013
 30
3.0
  0
VERTEX
  5
904
  8
CLUSTERS
 10
632.82854903299994
 20
4680.8496420000001
 30
3.0
  0
VERTEX
  5
905
  8
CLUSTERS
 10
632.917211329
 20
4680.9364873300001
 30
3.0
  0
VERTEX
  5
906
  8
CLUSTERS
 10
633.01742919399976
 20
4680.9483597799999
 30
3.0
  0
VERTEX
  5
907
  8
CLUSTERS
 10
633.11764705899986
 20
4680.9086438000004
 30
3.0
  0
VERTEX
  5
908
  8
CLUSTERS
 10
633.17222206899976
 20
4680.8496420000001
 30
3.0
  0
VERTEX
  5
909
  8
CLUSTERS
 10
633.12651628599986
 20
4680.7494033399998
 30
3.0
  0
VERTEX
  5
90A
  8
CLUSTERS
 10
633.11764705899986
 20
4680.7398352799992
 30
3.0
  0
VERTEX
  5
90B
  8
CLUSTERS
 10
633.01742919399976
 20
4680.6533106899997
 30
3.0
  0
VERTEX
  5
90C
  8
CLUSTERS
 10
632.917211329
 20
4680.6547945399989
 30
3.0
  0
VERTEX
  5
90D
  8
CLUSTERS
 10
632.91392871400001
 20
4680.6491646799996
 30
3.0
  0
VERTEX
  5
90E
  8
CLUSTERS
 10
632.89737798099998
 20
4680.5489260100012
 30
3.0
  0
VERTEX
  5
90F
  8
CLUSTERS
 10
632.81699346399989
 20
4680.4641752199996
 30
3.0
  0
VERTEX
  5
910
  8
CLUSTERS
 10
632.74403439100001
 20
4680.44868735
 30
3.0
  0
VERTEX
  5
911
  8
CLUSTERS
 10
632.71677559900002
 20
4680.42688774
 30
3.0
  0
VERTEX
  5
912
  8
CLUSTERS
 10
632.67558153100003
 20
4680.3484486899997
 30
3.0
  0
VERTEX
  5
913
  8
CLUSTERS
 10
632.61655773400003
 20
4680.289019509999
 30
3.0
  0
VERTEX
  5
914
  8
CLUSTERS
 10
632.52220238999985
 20
4680.2482100200023
 30
3.0
  0
VERTEX
  5
915
  8
CLUSTERS
 10
632.51633986900003
 20
4680.24362535
 30
3.0
  0
VERTEX
  5
916
  8
CLUSTERS
 10
632.41612200400004
 20
4680.2146787000001
 30
3.0
  0
VERTEX
  5
917
  8
CLUSTERS
 10
632.31590413900005
 20
4680.2296431799978
 30
3.0
  0
VERTEX
  5
918
  8
CLUSTERS
 10
632.21568627500005
 20
4680.1593690399995
 30
3.0
  0
VERTEX
  5
919
  8
CLUSTERS
 10
632.11546840999995
 20
4680.1584440599991
 30
3.0
  0
VERTEX
  5
91A
  8
CLUSTERS
 10
632.02628523600004
 20
4680.2482100200023
 30
3.0
  0
SEQEND
  5
91B
  8
CLUSTERS
  0
POLYLINE
  5
4A
  8
CLUSTERS
 66
     1
 10
0.0
 20
0.0
 30
3.0
 70
   129
  0
VERTEX
  5
91C
  8
CLUSTERS
 10
668.25422244200001
 20
4678.6443914099991
 30
3.0
  0
VERTEX
  5
91D
  8
CLUSTERS
 10
668.19389978200002
 20
4678.6586242900003
 30
3.0
  0
VERTEX
  5
91E
  8
CLUSTERS
 10
668.112477324
 20
4678.7446300700003
 30
3.0
  0
VERTEX
  5
91F
  8
CLUSTERS
 10
668.10629195399974
 20
4678.8448687399978
 30
3.0
  0
VERTEX
  5
920
  8
CLUSTERS
 10
668.19389978200002
 20
4678.9399284700012
 30
3.0
  0
VERTEX
  5
921
  8
CLUSTERS
 10
668.21886916199992
 20
4678.945107399999
 30
3.0
  0
VERTEX
  5
922
  8
CLUSTERS
 10
668.29411764699989
 20
4679.0311922299998
 30
3.0
  0
VERTEX
  5
923
  8
CLUSTERS
 10
668.34285986899988
 20
4679.0453460600002
 30
3.0
  0
VERTEX
  5
924
  8
CLUSTERS
 10
668.29411764699989
 20
4679.0486170900003
 30
3.0
  0
VERTEX
  5
925
  8
CLUSTERS
 10
668.19494327999985
 20
4679.1455847300003
 30
3.0
  0
VERTEX
  5
926
  8
CLUSTERS
 10
668.19389978200002
 20
4679.1502683599992
 30
3.0
  0
VERTEX
  5
927
  8
CLUSTERS
 10
668.13615278500004
 20
4679.2458233899997
 30
3.0
  0
VERTEX
  5
928
  8
CLUSTERS
 10
668.15313529499986
 20
4679.34606205
 30
3.0
  0
VERTEX
  5
929
  8
CLUSTERS
 10
668.19389978200002
 20
4679.4028824899979
 30
3.0
  0
VERTEX
  5
92A
  8
CLUSTERS
 10
668.20958693400007
 20
4679.4463007200002
 30
3.0
  0
VERTEX
  5
92B
  8
CLUSTERS
 10
668.29411764699989
 20
4679.5250785500002
 30
3.0
  0
VERTEX
  5
92C
  8
CLUSTERS
 10
668.394335512
 20
4679.5404508000001
 30
3.0
  0
VERTEX
  5
92D
  8
CLUSTERS
 10
668.49455337699976
 20
4679.5357798599998
 30
3.0
  0
VERTEX
  5
92E
  8
CLUSTERS
 10
668.59298372699993
 20
4679.4463007200002
 30
3.0
  0
VERTEX
  5
92F
  8
CLUSTERS
 10
668.59477124199987
 20
4679.4416724700013
 30
3.0
  0
VERTEX
  5
930
  8
CLUSTERS
 10
668.66540562099999
 20
4679.34606205
 30
3.0
  0
VERTEX
  5
931
  8
CLUSTERS
 10
668.67380922300003
 20
4679.2458233899997
 30
3.0
  0
VERTEX
  5
932
  8
CLUSTERS
 10
668.62661455499995
 20
4679.1455847300003
 30
3.0
  0
VERTEX
  5
933
  8
CLUSTERS
 10
668.59477124199987
 20
4679.11019872
 30
3.0
  0
VERTEX
  5
934
  8
CLUSTERS
 10
668.49455337699976
 20
4679.047259859999
 30
3.0
  0
VERTEX
  5
935
  8
CLUSTERS
 10
668.45032059599976
 20
4679.0453460600002
 30
3.0
  0
VERTEX
  5
936
  8
CLUSTERS
 10
668.45339764599998
 20
4678.945107399999
 30
3.0
  0
VERTEX
  5
937
  8
CLUSTERS
 10
668.49414337699977
 20
4678.8448687399978
 30
3.0
  0
VERTEX
  5
938
  8
CLUSTERS
 10
668.49455337699976
 20
4678.8401621100002
 30
3.0
  0
VERTEX
  5
939
  8
CLUSTERS
 10
668.57521359999976
 20
4678.7446300700003
 30
3.0
  0
VERTEX
  5
93A
  8
CLUSTERS
 10
668.49455337699976
 20
4678.6598997000001
 30
3.0
  0
VERTEX
  5
93B
  8
CLUSTERS
 10
668.43597985700001
 20
4678.6443914099991
 30
3.0
  0
VERTEX
  5
93C
  8
CLUSTERS
 10
668.394335512
 20
4678.6094919999987
 30
3.0
  0
VERTEX
  5
93D
  8
CLUSTERS
 10
668.29411764699989
 20
4678.6132783599987
 30
3.0
  0
VERTEX
  5
93E
  8
CLUSTERS
 10
668.25422244200001
 20
4678.6443914099991
 30
3.0
  0
SEQEND
  5
93F
  8
CLUSTERS
  0
POLYLINE
  5
4B
  8
CLUSTERS
 66
     1
 10
0.0
 20
0.0
 30
3.0
 70
   129
  0
VERTEX
  5
940
  8
CLUSTERS
 10
652.87255698199976
 20
4678.4439140799977
 30
3.0
  0
VERTEX
  5
941
  8
CLUSTERS
 10
652.87254025100003
 20
4678.544152739998
 30
3.0
  0
VERTEX
  5
942
  8
CLUSTERS
 10
652.86056644899975
 20
4678.56907632
 30
3.0
  0
VERTEX
  5
943
  8
CLUSTERS
 10
652.76034858399998
 20
4678.5641324400003
 30
3.0
  0
VERTEX
  5
944
  8
CLUSTERS
 10
652.68006255199987
 20
4678.6443914099991
 30
3.0
  0
VERTEX
  5
945
  8
CLUSTERS
 10
652.66170159000001
 20
4678.7446300700003
 30
3.0
  0
VERTEX
  5
946
  8
CLUSTERS
 10
652.66160370199998
 20
4678.8448687399978
 30
3.0
  0
VERTEX
  5
947
  8
CLUSTERS
 10
652.76034858399998
 20
4678.9407124500012
 30
3.0
  0
VERTEX
  5
948
  8
CLUSTERS
 10
652.86056644899975
 20
4678.9372291500003
 30
3.0
  0
VERTEX
  5
949
  8
CLUSTERS
 10
652.95290462699995
 20
4678.8448687399978
 30
3.0
  0
VERTEX
  5
94A
  8
CLUSTERS
 10
652.95811606799998
 20
4678.7446300700003
 30
3.0
  0
VERTEX
  5
94B
  8
CLUSTERS
 10
652.93587430800005
 20
4678.6443914099991
 30
3.0
  0
VERTEX
  5
94C
  8
CLUSTERS
 10
652.96078431399985
 20
4678.6324198499988
 30
3.0
  0
VERTEX
  5
94D
  8
CLUSTERS
 10
653.06100217900007
 20
4678.633680259999
 30
3.0
  0
VERTEX
  5
94E
  8
CLUSTERS
 10
653.15049847199975
 20
4678.544152739998
 30
3.0
  0
VERTEX
  5
94F
  8
CLUSTERS
 10
653.15332041399995
 20
4678.4439140799977
 30
3.0
  0
VERTEX
  5
950
  8
CLUSTERS
 10
653.06100217900007
 20
4678.3515736500003
 30
3.0
  0
VERTEX
  5
951
  8
CLUSTERS
 10
652.96078431399985
 20
4678.3556814499989
 30
3.0
  0
VERTEX
  5
952
  8
CLUSTERS
 10
652.87255698199976
 20
4678.4439140799977
 30
3.0
  0
SEQEND
  5
953
  8
CLUSTERS
  0
POLYLINE
  5
4C
  8
CLUSTERS
 66
     1
 10
0.0
 20
0.0
 30
3.0
 70
   129
  0
VERTEX
  5
954
  8
CLUSTERS
 10
667.92589578100001
 20
4676.3389021499988
 30
3.0
  0
VERTEX
  5
955
  8
CLUSTERS
 10
667.92333046900001
 20
4676.43914081
 30
3.0
  0
VERTEX
  5
956
  8
CLUSTERS
 10
667.99346405199992
 20
4676.5077755900002
 30
3.0
  0
VERTEX
  5
957
  8
CLUSTERS
 10
668.08391725900003
 20
4676.5393794700003
 30
3.0
  0
VERTEX
  5
958
  8
CLUSTERS
 10
668.09368191700003
 20
4676.54649926
 30
3.0
  0
VERTEX
  5
959
  8
CLUSTERS
 10
668.19389978200002
 20
4676.5547185799987
 30
3.0
  0
VERTEX
  5
95A
  8
CLUSTERS
 10
668.20879833299978
 20
4676.5393794700003
 30
3.0
  0
VERTEX
  5
95B
  8
CLUSTERS
 10
668.24518650100003
 20
4676.43914081
 30
3.0
  0
VERTEX
  5
95C
  8
CLUSTERS
 10
668.19389978200002
 20
4676.34618443
 30
3.0
  0
VERTEX
  5
95D
  8
CLUSTERS
 10
668.18750099299996
 20
4676.3389021499988
 30
3.0
  0
VERTEX
  5
95E
  8
CLUSTERS
 10
668.09368191700003
 20
4676.2832949800013
 30
3.0
  0
VERTEX
  5
95F
  8
CLUSTERS
 10
667.99346405199992
 20
4676.2863998299999
 30
3.0
  0
VERTEX
  5
960
  8
CLUSTERS
 10
667.92589578100001
 20
4676.3389021499988
 30
3.0
  0
SEQEND
  5
961
  8
CLUSTERS
  0
POLYLINE
  5
4D
  8
CLUSTERS
 66
     1
 10
0.0
 20
0.0
 30
3.0
 70
   129
  0
VERTEX
  5
962
  8
CLUSTERS
 10
633.64655668300009
 20
4675.8377088300003
 30
3.0
  0
VERTEX
  5
963
  8
CLUSTERS
 10
633.61873638300005
 20
4675.8445644599988
 30
3.0
  0
VERTEX
  5
964
  8
CLUSTERS
 10
633.52852177299997
 20
4675.9379474899997
 30
3.0
  0
VERTEX
  5
965
  8
CLUSTERS
 10
633.520939011
 20
4676.0381861599999
 30
3.0
  0
VERTEX
  5
966
  8
CLUSTERS
 10
633.52088530399999
 20
4676.1384248200002
 30
3.0
  0
VERTEX
  5
967
  8
CLUSTERS
 10
633.52041180499998
 20
4676.2386634799977
 30
3.0
  0
VERTEX
  5
968
  8
CLUSTERS
 10
633.52345152099986
 20
4676.3389021499988
 30
3.0
  0
VERTEX
  5
969
  8
CLUSTERS
 10
633.61873638300005
 20
4676.4353487600001
 30
3.0
  0
VERTEX
  5
96A
  8
CLUSTERS
 10
633.71895424800005
 20
4676.4388741299999
 30
3.0
  0
VERTEX
  5
96B
  8
CLUSTERS
 10
633.81917211300004
 20
4676.4343104299987
 30
3.0
  0
VERTEX
  5
96C
  8
CLUSTERS
 10
633.91461057499998
 20
4676.3389021499988
 30
3.0
  0
VERTEX
  5
96D
  8
CLUSTERS
 10
633.89690016099985
 20
4676.2386634799977
 30
3.0
  0
VERTEX
  5
96E
  8
CLUSTERS
 10
633.87551488600002
 20
4676.1384248200002
 30
3.0
  0
VERTEX
  5
96F
  8
CLUSTERS
 10
633.81917211300004
 20
4676.0568628800002
 30
3.0
  0
VERTEX
  5
970
  8
CLUSTERS
 10
633.81671815599998
 20
4676.0381861599999
 30
3.0
  0
VERTEX
  5
971
  8
CLUSTERS
 10
633.80935395199992
 20
4675.9379474899997
 30
3.0
  0
VERTEX
  5
972
  8
CLUSTERS
 10
633.78398960900006
 20
4675.8377088300003
 30
3.0
  0
VERTEX
  5
973
  8
CLUSTERS
 10
633.71895424800005
 20
4675.7762259299989
 30
3.0
  0
VERTEX
  5
974
  8
CLUSTERS
 10
633.64655668300009
 20
4675.8377088300003
 30
3.0
  0
SEQEND
  5
975
  8
CLUSTERS
  0
POLYLINE
  5
4E
  8
CLUSTERS
 66
     1
 10
0.0
 20
0.0
 30
3.0
 70
   129
  0
VERTEX
  5
976
  8
CLUSTERS
 10
634.52220436799996
 20
4675.3365155099991
 30
3.0
  0
VERTEX
  5
977
  8
CLUSTERS
 10
634.52429914499999
 20
4675.4367541800002
 30
3.0
  0
VERTEX
  5
978
  8
CLUSTERS
 10
634.62091503299996
 20
4675.5346125299993
 30
3.0
  0
VERTEX
  5
979
  8
CLUSTERS
 10
634.62816292699995
 20
4675.5369928399978
 30
3.0
  0
VERTEX
  5
97A
  8
CLUSTERS
 10
634.72113289800006
 20
4675.6260948299996
 30
3.0
  0
VERTEX
  5
97B
  8
CLUSTERS
 10
634.81599912299998
 20
4675.5369928399978
 30
3.0
  0
VERTEX
  5
97C
  8
CLUSTERS
 10
634.82135076300005
 20
4675.5107413100004
 30
3.0
  0
VERTEX
  5
97D
  8
CLUSTERS
 10
634.83780879300002
 20
4675.5369928399978
 30
3.0
  0
VERTEX
  5
97E
  8
CLUSTERS
 10
634.84298020199992
 20
4675.6372314999999
 30
3.0
  0
VERTEX
  5
97F
  8
CLUSTERS
 10
634.92156862699994
 20
4675.7160830000003
 30
3.0
  0
VERTEX
  5
980
  8
CLUSTERS
 10
634.94937513900004
 20
4675.7374701700001
 30
3.0
  0
VERTEX
  5
981
  8
CLUSTERS
 10
635.02178649199993
 20
4675.8086999400002
 30
3.0
  0
VERTEX
  5
982
  8
CLUSTERS
 10
635.12200435699992
 20
4675.8243357199999
 30
3.0
  0
VERTEX
  5
983
  8
CLUSTERS
 10
635.21131506899997
 20
4675.7374701700001
 30
3.0
  0
VERTEX
  5
984
  8
CLUSTERS
 10
635.21995465199996
 20
4675.6372314999999
 30
3.0
  0
VERTEX
  5
985
  8
CLUSTERS
 10
635.19110869899998
 20
4675.5369928399978
 30
3.0
  0
VERTEX
  5
986
  8
CLUSTERS
 10
635.12200435699992
 20
4675.4701482199989
 30
3.0
  0
VERTEX
  5
987
  8
CLUSTERS
 10
635.02178649199993
 20
4675.4498416099977
 30
3.0
  0
VERTEX
  5
988
  8
CLUSTERS
 10
634.92156862699994
 20
4675.4682263699988
 30
3.0
  0
VERTEX
  5
989
  8
CLUSTERS
 10
634.87622162900004
 20
4675.4367541800002
 30
3.0
  0
VERTEX
  5
98A
  8
CLUSTERS
 10
634.82135076300005
 20
4675.3428517499988
 30
3.0
  0
VERTEX
  5
98B
  8
CLUSTERS
 10
634.82099742000003
 20
4675.3365155099991
 30
3.0
  0
VERTEX
  5
98C
  8
CLUSTERS
 10
634.72113289800006
 20
4675.2396026899978
 30
3.0
  0
VERTEX
  5
98D
  8
CLUSTERS
 10
634.62091503299996
 20
4675.2375998400003
 30
3.0
  0
VERTEX
  5
98E
  8
CLUSTERS
 10
634.52220436799996
 20
4675.3365155099991
 30
3.0
  0
SEQEND
  5
98F
  8
CLUSTERS
  0
POLYLINE
  5
4F
  8
CLUSTERS
 66
     1
 10
0.0
 20
0.0
 30
3.0
 70
   129
  0
VERTEX
  5
990
  8
CLUSTERS
 10
637.52732846599974
 20
4675.2362768499988
 30
3.0
  0
VERTEX
  5
991
  8
CLUSTERS
 10
637.52723311499994
 20
4675.27929339
 30
3.0
  0
VERTEX
  5
992
  8
CLUSTERS
 10
637.50398650699992
 20
4675.3365155099991
 30
3.0
  0
VERTEX
  5
993
  8
CLUSTERS
 10
637.52723311499994
 20
4675.3755251800003
 30
3.0
  0
VERTEX
  5
994
  8
CLUSTERS
 10
637.53767123099999
 20
4675.4367541800002
 30
3.0
  0
VERTEX
  5
995
  8
CLUSTERS
 10
637.62745098000005
 20
4675.5285298400013
 30
3.0
  0
VERTEX
  5
996
  8
CLUSTERS
 10
637.62990580799976
 20
4675.5369928399978
 30
3.0
  0
VERTEX
  5
997
  8
CLUSTERS
 10
637.62898801799997
 20
4675.6372314999999
 30
3.0
  0
VERTEX
  5
998
  8
CLUSTERS
 10
637.64881764500001
 20
4675.7374701700001
 30
3.0
  0
VERTEX
  5
999
  8
CLUSTERS
 10
637.72766884500004
 20
4675.8158595200011
 30
3.0
  0
VERTEX
  5
99A
  8
CLUSTERS
 10
637.82788671000003
 20
4675.8272751300001
 30
3.0
  0
VERTEX
  5
99B
  8
CLUSTERS
 10
637.91938874699974
 20
4675.7374701700001
 30
3.0
  0
VERTEX
  5
99C
  8
CLUSTERS
 10
637.92783369799997
 20
4675.6372314999999
 30
3.0
  0
VERTEX
  5
99D
  8
CLUSTERS
 10
637.92675592499995
 20
4675.5369928399978
 30
3.0
  0
VERTEX
  5
99E
  8
CLUSTERS
 10
637.92810457499979
 20
4675.5009751400003
 30
3.0
  0
VERTEX
  5
99F
  8
CLUSTERS
 10
637.96703182900001
 20
4675.4367541800002
 30
3.0
  0
VERTEX
  5
9A0
  8
CLUSTERS
 10
638.01777533300003
 20
4675.3365155099991
 30
3.0
  0
VERTEX
  5
9A1
  8
CLUSTERS
 10
638.022643905
 20
4675.2362768499988
 30
3.0
  0
VERTEX
  5
9A2
  8
CLUSTERS
 10
637.92810457499979
 20
4675.1418224799991
 30
3.0
  0
VERTEX
  5
9A3
  8
CLUSTERS
 10
637.82788671000003
 20
4675.1366387099988
 30
3.0
  0
VERTEX
  5
9A4
  8
CLUSTERS
 10
637.72766884500004
 20
4675.1361548499999
 30
3.0
  0
VERTEX
  5
9A5
  8
CLUSTERS
 10
637.62745098000005
 20
4675.1361339599998
 30
3.0
  0
VERTEX
  5
9A6
  8
CLUSTERS
 10
637.52732846599974
 20
4675.2362768499988
 30
3.0
  0
SEQEND
  5
9A7
  8
CLUSTERS
  0
POLYLINE
  5
50
  8
CLUSTERS
 66
     1
 10
0.0
 20
0.0
 30
3.0
 70
   129
  0
VERTEX
  5
9A8
  8
CLUSTERS
 10
632.42394382500004
 20
4674.1336515499997
 30
3.0
  0
VERTEX
  5
9A9
  8
CLUSTERS
 10
632.41612200400004
 20
4674.1344835099999
 30
3.0
  0
VERTEX
  5
9AA
  8
CLUSTERS
 10
632.31996756499996
 20
4674.23389021
 30
3.0
  0
VERTEX
  5
9AB
  8
CLUSTERS
 10
632.41612200400004
 20
4674.332764419999
 30
3.0
  0
VERTEX
  5
9AC
  8
CLUSTERS
 10
632.49680326199984
 20
4674.3341288800002
 30
3.0
  0
VERTEX
  5
9AD
  8
CLUSTERS
 10
632.51633986900003
 20
4674.3448047299999
 30
3.0
  0
VERTEX
  5
9AE
  8
CLUSTERS
 10
632.58971852599996
 20
4674.4343675399987
 30
3.0
  0
VERTEX
  5
9AF
  8
CLUSTERS
 10
632.51633986900003
 20
4674.4373011199996
 30
3.0
  0
VERTEX
  5
9B0
  8
CLUSTERS
 10
632.41612200400004
 20
4674.4491124300002
 30
3.0
  0
VERTEX
  5
9B1
  8
CLUSTERS
 10
632.33202869800004
 20
4674.5346062099989
 30
3.0
  0
VERTEX
  5
9B2
  8
CLUSTERS
 10
632.33539017400005
 20
4674.6348448700001
 30
3.0
  0
VERTEX
  5
9B3
  8
CLUSTERS
 10
632.41612200400004
 20
4674.7179598299999
 30
3.0
  0
VERTEX
  5
9B4
  8
CLUSTERS
 10
632.51633986900003
 20
4674.7344626800004
 30
3.0
  0
VERTEX
  5
9B5
  8
CLUSTERS
 10
632.61655773400003
 20
4674.73200782
 30
3.0
  0
VERTEX
  5
9B6
  8
CLUSTERS
 10
632.71677559900002
 20
4674.6425994199999
 30
3.0
  0
VERTEX
  5
9B7
  8
CLUSTERS
 10
632.72419162800009
 20
4674.6348448700001
 30
3.0
  0
VERTEX
  5
9B8
  8
CLUSTERS
 10
632.81699346399989
 20
4674.5589286000004
 30
3.0
  0
VERTEX
  5
9B9
  8
CLUSTERS
 10
632.84781876699992
 20
4674.5346062099989
 30
3.0
  0
VERTEX
  5
9BA
  8
CLUSTERS
 10
632.917211329
 20
4674.49918445
 30
3.0
  0
VERTEX
  5
9BB
  8
CLUSTERS
 10
632.97380103099977
 20
4674.4343675399987
 30
3.0
  0
VERTEX
  5
9BC
  8
CLUSTERS
 10
632.99095694300001
 20
4674.3341288800002
 30
3.0
  0
VERTEX
  5
9BD
  8
CLUSTERS
 10
632.95333306199996
 20
4674.23389021
 30
3.0
  0
VERTEX
  5
9BE
  8
CLUSTERS
 10
632.917211329
 20
4674.1951604899996
 30
3.0
  0
VERTEX
  5
9BF
  8
CLUSTERS
 10
632.81699346399989
 20
4674.1366248699997
 30
3.0
  0
VERTEX
  5
9C0
  8
CLUSTERS
 10
632.71677559900002
 20
4674.1347228200002
 30
3.0
  0
VERTEX
  5
9C1
  8
CLUSTERS
 10
632.61655773400003
 20
4674.15912914
 30
3.0
  0
VERTEX
  5
9C2
  8
CLUSTERS
 10
632.59726452199993
 20
4674.1336515499997
 30
3.0
  0
VERTEX
  5
9C3
  8
CLUSTERS
 10
632.51633986900003
 20
4674.0653427999987
 30
3.0
  0
VERTEX
  5
9C4
  8
CLUSTERS
 10
632.42394382500004
 20
4674.1336515499997
 30
3.0
  0
SEQEND
  5
9C5
  8
CLUSTERS
  0
POLYLINE
  5
51
  8
CLUSTERS
 66
     1
 10
0.0
 20
0.0
 30
3.0
 70
   129
  0
VERTEX
  5
9C6
  8
CLUSTERS
 10
650.96933059299988
 20
4673.4319809099998
 30
3.0
  0
VERTEX
  5
9C7
  8
CLUSTERS
 10
650.971177463
 20
4673.5322195700001
 30
3.0
  0
VERTEX
  5
9C8
  8
CLUSTERS
 10
651.05664488000002
 20
4673.6182338799999
 30
3.0
  0
VERTEX
  5
9C9
  8
CLUSTERS
 10
651.06367783999985
 20
4673.6324582300012
 30
3.0
  0
VERTEX
  5
9CA
  8
CLUSTERS
 10
651.1568627449999
 20
4673.7262577499996
 30
3.0
  0
VERTEX
  5
9CB
  8
CLUSTERS
 10
651.15920447400003
 20
4673.7326968999987
 30
3.0
  0
VERTEX
  5
9CC
  8
CLUSTERS
 10
651.25708061
 20
4673.8305333500002
 30
3.0
  0
VERTEX
  5
9CD
  8
CLUSTERS
 10
651.35729847499977
 20
4673.8299728399998
 30
3.0
  0
VERTEX
  5
9CE
  8
CLUSTERS
 10
651.45440742399978
 20
4673.7326968999987
 30
3.0
  0
VERTEX
  5
9CF
  8
CLUSTERS
 10
651.45586176400002
 20
4673.6324582300012
 30
3.0
  0
VERTEX
  5
9D0
  8
CLUSTERS
 10
651.35729847499977
 20
4673.5338520300002
 30
3.0
  0
VERTEX
  5
9D1
  8
CLUSTERS
 10
651.35216325299996
 20
4673.5322195700001
 30
3.0
  0
VERTEX
  5
9D2
  8
CLUSTERS
 10
651.26069288199994
 20
4673.4319809099998
 30
3.0
  0
VERTEX
  5
9D3
  8
CLUSTERS
 10
651.25708061
 20
4673.4283901700001
 30
3.0
  0
VERTEX
  5
9D4
  8
CLUSTERS
 10
651.1568627449999
 20
4673.337049509998
 30
3.0
  0
VERTEX
  5
9D5
  8
CLUSTERS
 10
651.05664488000002
 20
4673.344703419999
 30
3.0
  0
VERTEX
  5
9D6
  8
CLUSTERS
 10
650.96933059299988
 20
4673.4319809099998
 30
3.0
  0
SEQEND
  5
9D7
  8
CLUSTERS
  0
POLYLINE
  5
52
  8
CLUSTERS
 66
     1
 10
0.0
 20
0.0
 30
3.0
 70
   129
  0
VERTEX
  5
9D8
  8
CLUSTERS
 10
642.14205184199977
 20
4672.730310259999
 30
3.0
  0
VERTEX
  5
9D9
  8
CLUSTERS
 10
642.13725490199988
 20
4672.7310978899977
 30
3.0
  0
VERTEX
  5
9DA
  8
CLUSTERS
 10
642.037037037
 20
4672.7375814400002
 30
3.0
  0
VERTEX
  5
9DB
  8
CLUSTERS
 10
641.94318397300003
 20
4672.8305489300001
 30
3.0
  0
VERTEX
  5
9DC
  8
CLUSTERS
 10
641.93681917200001
 20
4672.8324109200003
 30
3.0
  0
VERTEX
  5
9DD
  8
CLUSTERS
 10
641.837837358
 20
4672.9307875900004
 30
3.0
  0
VERTEX
  5
9DE
  8
CLUSTERS
 10
641.83660130699991
 20
4672.9314989300001
 30
3.0
  0
VERTEX
  5
9DF
  8
CLUSTERS
 10
641.73747067300008
 20
4673.0310262499997
 30
3.0
  0
VERTEX
  5
9E0
  8
CLUSTERS
 10
641.81049615699999
 20
4673.1312649199999
 30
3.0
  0
VERTEX
  5
9E1
  8
CLUSTERS
 10
641.83660130699991
 20
4673.1601112899998
 30
3.0
  0
VERTEX
  5
9E2
  8
CLUSTERS
 10
641.90141458300002
 20
4673.2315035800011
 30
3.0
  0
VERTEX
  5
9E3
  8
CLUSTERS
 10
641.93681917200001
 20
4673.26274663
 30
3.0
  0
VERTEX
  5
9E4
  8
CLUSTERS
 10
642.037037037
 20
4673.3276652599989
 30
3.0
  0
VERTEX
  5
9E5
  8
CLUSTERS
 10
642.13725490199988
 20
4673.3292078900013
 30
3.0
  0
VERTEX
  5
9E6
  8
CLUSTERS
 10
642.23657004699999
 20
4673.2315035800011
 30
3.0
  0
VERTEX
  5
9E7
  8
CLUSTERS
 10
642.23747276699999
 20
4673.2305512599978
 30
3.0
  0
VERTEX
  5
9E8
  8
CLUSTERS
 10
642.33737060299995
 20
4673.1312649199999
 30
3.0
  0
VERTEX
  5
9E9
  8
CLUSTERS
 10
642.33769063199975
 20
4673.1265582399992
 30
3.0
  0
VERTEX
  5
9EA
  8
CLUSTERS
 10
642.40576982499999
 20
4673.0310262499997
 30
3.0
  0
VERTEX
  5
9EB
  8
CLUSTERS
 10
642.39837088199977
 20
4672.9307875900004
 30
3.0
  0
VERTEX
  5
9EC
  8
CLUSTERS
 10
642.43790849699985
 20
4672.91519978
 30
3.0
  0
VERTEX
  5
9ED
  8
CLUSTERS
 10
642.51968244599993
 20
4672.8305489300001
 30
3.0
  0
VERTEX
  5
9EE
  8
CLUSTERS
 10
642.53555952900001
 20
4672.730310259999
 30
3.0
  0
VERTEX
  5
9EF
  8
CLUSTERS
 10
642.43790849699985
 20
4672.6327633299989
 30
3.0
  0
VERTEX
  5
9F0
  8
CLUSTERS
 10
642.33769063199975
 20
4672.6306782900001
 30
3.0
  0
VERTEX
  5
9F1
  8
CLUSTERS
 10
642.23747276699999
 20
4672.6360368400001
 30
3.0
  0
VERTEX
  5
9F2
  8
CLUSTERS
 10
642.14205184199977
 20
4672.730310259999
 30
3.0
  0
SEQEND
  5
9F3
  8
CLUSTERS
  0
POLYLINE
  5
53
  8
CLUSTERS
 66
     1
 10
0.0
 20
0.0
 30
3.0
 70
   129
  0
VERTEX
  5
9F4
  8
CLUSTERS
 10
645.24403739900004
 20
4672.4295942700001
 30
3.0
  0
VERTEX
  5
9F5
  8
CLUSTERS
 10
645.24400871499995
 20
4672.4324350400002
 30
3.0
  0
VERTEX
  5
9F6
  8
CLUSTERS
 10
645.17108866399985
 20
4672.5298329400002
 30
3.0
  0
VERTEX
  5
9F7
  8
CLUSTERS
 10
645.21104931399998
 20
4672.6300715999987
 30
3.0
  0
VERTEX
  5
9F8
  8
CLUSTERS
 10
645.24400871499995
 20
4672.6657117200002
 30
3.0
  0
VERTEX
  5
9F9
  8
CLUSTERS
 10
645.34422658000005
 20
4672.7302437799999
 30
3.0
  0
VERTEX
  5
9FA
  8
CLUSTERS
 10
645.44444444400006
 20
4672.7097487499996
 30
3.0
  0
VERTEX
  5
9FB
  8
CLUSTERS
 10
645.45292534299995
 20
4672.730310259999
 30
3.0
  0
VERTEX
  5
9FC
  8
CLUSTERS
 10
645.54466230900005
 20
4672.8184205699999
 30
3.0
  0
VERTEX
  5
9FD
  8
CLUSTERS
 10
645.64488017400004
 20
4672.7842888100004
 30
3.0
  0
VERTEX
  5
9FE
  8
CLUSTERS
 10
645.69891224100002
 20
4672.730310259999
 30
3.0
  0
VERTEX
  5
9FF
  8
CLUSTERS
 10
645.74061716999995
 20
4672.6300715999987
 30
3.0
  0
VERTEX
  5
A00
  8
CLUSTERS
 10
645.74509803899991
 20
4672.5393589399991
 30
3.0
  0
VERTEX
  5
A01
  8
CLUSTERS
 10
645.75393943199992
 20
4672.5298329400002
 30
3.0
  0
VERTEX
  5
A02
  8
CLUSTERS
 10
645.74509803899991
 20
4672.52078927
 30
3.0
  0
VERTEX
  5
A03
  8
CLUSTERS
 10
645.70448404199999
 20
4672.4295942700001
 30
3.0
  0
VERTEX
  5
A04
  8
CLUSTERS
 10
645.64488017400004
 20
4672.3699645400002
 30
3.0
  0
VERTEX
  5
A05
  8
CLUSTERS
 10
645.57740516900003
 20
4672.4295942700001
 30
3.0
  0
VERTEX
  5
A06
  8
CLUSTERS
 10
645.54466230900005
 20
4672.4678069499987
 30
3.0
  0
VERTEX
  5
A07
  8
CLUSTERS
 10
645.48837692699999
 20
4672.4295942700001
 30
3.0
  0
VERTEX
  5
A08
  8
CLUSTERS
 10
645.44444444400006
 20
4672.3884324700002
 30
3.0
  0
VERTEX
  5
A09
  8
CLUSTERS
 10
645.34422658000005
 20
4672.3296461800001
 30
3.0
  0
VERTEX
  5
A0A
  8
CLUSTERS
 10
645.24403739900004
 20
4672.4295942700001
 30
3.0
  0
SEQEND
  5
A0B
  8
CLUSTERS
  0
POLYLINE
  5
54
  8
CLUSTERS
 66
     1
 10
0.0
 20
0.0
 30
3.0
 70
   129
  0
VERTEX
  5
A0C
  8
CLUSTERS
 10
637.92930980199992
 20
4672.2291169500004
 30
3.0
  0
VERTEX
  5
A0D
  8
CLUSTERS
 10
637.93400824599985
 20
4672.3293556099989
 30
3.0
  0
VERTEX
  5
A0E
  8
CLUSTERS
 10
637.96970798500001
 20
4672.4295942700001
 30
3.0
  0
VERTEX
  5
A0F
  8
CLUSTERS
 10
638.02832244000001
 20
4672.4889669499998
 30
3.0
  0
VERTEX
  5
A10
  8
CLUSTERS
 10
638.128540305
 20
4672.5025017099988
 30
3.0
  0
VERTEX
  5
A11
  8
CLUSTERS
 10
638.14416025299977
 20
4672.5298329400002
 30
3.0
  0
VERTEX
  5
A12
  8
CLUSTERS
 10
638.13133243000004
 20
4672.6300715999987
 30
3.0
  0
VERTEX
  5
A13
  8
CLUSTERS
 10
638.22875816999988
 20
4672.729354189999
 30
3.0
  0
VERTEX
  5
A14
  8
CLUSTERS
 10
638.23023112500005
 20
4672.730310259999
 30
3.0
  0
VERTEX
  5
A15
  8
CLUSTERS
 10
638.32897603499998
 20
4672.8279374599997
 30
3.0
  0
VERTEX
  5
A16
  8
CLUSTERS
 10
638.38164082000003
 20
4672.8305489300001
 30
3.0
  0
VERTEX
  5
A17
  8
CLUSTERS
 10
638.42919389999975
 20
4672.8637962499979
 30
3.0
  0
VERTEX
  5
A18
  8
CLUSTERS
 10
638.47359236099999
 20
4672.8305489300001
 30
3.0
  0
VERTEX
  5
A19
  8
CLUSTERS
 10
638.52941176499985
 20
4672.7871907400022
 30
3.0
  0
VERTEX
  5
A1A
  8
CLUSTERS
 10
638.57509004899975
 20
4672.730310259999
 30
3.0
  0
VERTEX
  5
A1B
  8
CLUSTERS
 10
638.55976830700001
 20
4672.6300715999987
 30
3.0
  0
VERTEX
  5
A1C
  8
CLUSTERS
 10
638.52941176499985
 20
4672.5972091200001
 30
3.0
  0
VERTEX
  5
A1D
  8
CLUSTERS
 10
638.42919389999975
 20
4672.5303513299978
 30
3.0
  0
VERTEX
  5
A1E
  8
CLUSTERS
 10
638.42378261800002
 20
4672.5298329400002
 30
3.0
  0
VERTEX
  5
A1F
  8
CLUSTERS
 10
638.32897603499998
 20
4672.4407774199999
 30
3.0
  0
VERTEX
  5
A20
  8
CLUSTERS
 10
638.22875816999988
 20
4672.4453877799979
 30
3.0
  0
VERTEX
  5
A21
  8
CLUSTERS
 10
638.20117632300003
 20
4672.4295942700001
 30
3.0
  0
VERTEX
  5
A22
  8
CLUSTERS
 10
638.18143463800004
 20
4672.3293556099989
 30
3.0
  0
VERTEX
  5
A23
  8
CLUSTERS
 10
638.128540305
 20
4672.2653045400002
 30
3.0
  0
VERTEX
  5
A24
  8
CLUSTERS
 10
638.111132957
 20
4672.2291169500004
 30
3.0
  0
VERTEX
  5
A25
  8
CLUSTERS
 10
638.02832244000001
 20
4672.1547619499988
 30
3.0
  0
VERTEX
  5
A26
  8
CLUSTERS
 10
637.92930980199992
 20
4672.2291169500004
 30
3.0
  0
SEQEND
  5
A27
  8
CLUSTERS
  0
POLYLINE
  5
55
  8
CLUSTERS
 66
     1
 10
0.0
 20
0.0
 30
3.0
 70
   129
  0
VERTEX
  5
A28
  8
CLUSTERS
 10
631.18609489899995
 20
4671.9284009499979
 30
3.0
  0
VERTEX
  5
A29
  8
CLUSTERS
 10
631.11400040699993
 20
4672.0286396199999
 30
3.0
  0
VERTEX
  5
A2A
  8
CLUSTERS
 10
631.11328976000004
 20
4672.0790560400001
 30
3.0
  0
VERTEX
  5
A2B
  8
CLUSTERS
 10
631.01307189500005
 20
4672.0382994499978
 30
3.0
  0
VERTEX
  5
A2C
  8
CLUSTERS
 10
630.91285403099994
 20
4672.0303892700003
 30
3.0
  0
VERTEX
  5
A2D
  8
CLUSTERS
 10
630.81263616599995
 20
4672.0514063899991
 30
3.0
  0
VERTEX
  5
A2E
  8
CLUSTERS
 10
630.73671455999977
 20
4672.1288782800002
 30
3.0
  0
VERTEX
  5
A2F
  8
CLUSTERS
 10
630.81263616599995
 20
4672.22687804
 30
3.0
  0
VERTEX
  5
A30
  8
CLUSTERS
 10
630.81283945899975
 20
4672.2291169500004
 30
3.0
  0
VERTEX
  5
A31
  8
CLUSTERS
 10
630.81263616599995
 20
4672.3073317099988
 30
3.0
  0
VERTEX
  5
A32
  8
CLUSTERS
 10
630.81053690600004
 20
4672.3293556099989
 30
3.0
  0
VERTEX
  5
A33
  8
CLUSTERS
 10
630.81263616599995
 20
4672.3346243999977
 30
3.0
  0
VERTEX
  5
A34
  8
CLUSTERS
 10
630.81989400099985
 20
4672.4295942700001
 30
3.0
  0
VERTEX
  5
A35
  8
CLUSTERS
 10
630.84171097800004
 20
4672.5298329400002
 30
3.0
  0
VERTEX
  5
A36
  8
CLUSTERS
 10
630.873843018
 20
4672.6300715999987
 30
3.0
  0
VERTEX
  5
A37
  8
CLUSTERS
 10
630.91285403099994
 20
4672.6767541600002
 30
3.0
  0
VERTEX
  5
A38
  8
CLUSTERS
 10
630.95445526900005
 20
4672.730310259999
 30
3.0
  0
VERTEX
  5
A39
  8
CLUSTERS
 10
631.01307189500005
 20
4672.7837778399999
 30
3.0
  0
VERTEX
  5
A3A
  8
CLUSTERS
 10
631.11328976000004
 20
4672.80312916
 30
3.0
  0
VERTEX
  5
A3B
  8
CLUSTERS
 10
631.21350762500003
 20
4672.7853625799989
 30
3.0
  0
VERTEX
  5
A3C
  8
CLUSTERS
 10
631.29048403800005
 20
4672.730310259999
 30
3.0
  0
VERTEX
  5
A3D
  8
CLUSTERS
 10
631.3137254899998
 20
4672.7264923800003
 30
3.0
  0
VERTEX
  5
A3E
  8
CLUSTERS
 10
631.408541754
 20
4672.6300715999987
 30
3.0
  0
VERTEX
  5
A3F
  8
CLUSTERS
 10
631.41394335500001
 20
4672.5307621499996
 30
3.0
  0
VERTEX
  5
A40
  8
CLUSTERS
 10
631.41427706599995
 20
4672.5298329400002
 30
3.0
  0
VERTEX
  5
A41
  8
CLUSTERS
 10
631.41394335500001
 20
4672.5292333400002
 30
3.0
  0
VERTEX
  5
A42
  8
CLUSTERS
 10
631.39057413900002
 20
4672.4295942700001
 30
3.0
  0
VERTEX
  5
A43
  8
CLUSTERS
 10
631.3137254899998
 20
4672.3445422499999
 30
3.0
  0
VERTEX
  5
A44
  8
CLUSTERS
 10
631.30799195899976
 20
4672.3293556099989
 30
3.0
  0
VERTEX
  5
A45
  8
CLUSTERS
 10
631.30398487599984
 20
4672.2291169500004
 30
3.0
  0
VERTEX
  5
A46
  8
CLUSTERS
 10
631.3137254899998
 20
4672.2263632000004
 30
3.0
  0
VERTEX
  5
A47
  8
CLUSTERS
 10
631.41394335500001
 20
4672.2161607600001
 30
3.0
  0
VERTEX
  5
A48
  8
CLUSTERS
 10
631.50470191199975
 20
4672.1288782800002
 30
3.0
  0
VERTEX
  5
A49
  8
CLUSTERS
 10
631.51416122000001
 20
4672.0975778000002
 30
3.0
  0
VERTEX
  5
A4A
  8
CLUSTERS
 10
631.56231400399975
 20
4672.0286396199999
 30
3.0
  0
VERTEX
  5
A4B
  8
CLUSTERS
 10
631.52586420000011
 20
4671.9284009499979
 30
3.0
  0
VERTEX
  5
A4C
  8
CLUSTERS
 10
631.51416122000001
 20
4671.9156835499989
 30
3.0
  0
VERTEX
  5
A4D
  8
CLUSTERS
 10
631.41394335500001
 20
4671.8319412399978
 30
3.0
  0
VERTEX
  5
A4E
  8
CLUSTERS
 10
631.3137254899998
 20
4671.8288473800003
 30
3.0
  0
VERTEX
  5
A4F
  8
CLUSTERS
 10
631.21350762500003
 20
4671.9017080499998
 30
3.0
  0
VERTEX
  5
A50
  8
CLUSTERS
 10
631.18609489899995
 20
4671.9284009499979
 30
3.0
  0
SEQEND
  5
A51
  8
CLUSTERS
  0
POLYLINE
  5
56
  8
CLUSTERS
 66
     1
 10
0.0
 20
0.0
 30
3.0
 70
   129
  0
VERTEX
  5
A52
  8
CLUSTERS
 10
653.85823398499986
 20
4671.627684959999
 30
3.0
  0
VERTEX
  5
A53
  8
CLUSTERS
 10
653.86274509799989
 20
4671.6358261699997
 30
3.0
  0
VERTEX
  5
A54
  8
CLUSTERS
 10
653.86513222600001
 20
4671.7279236300001
 30
3.0
  0
VERTEX
  5
A55
  8
CLUSTERS
 10
653.962962963
 20
4671.8254859500003
 30
3.0
  0
VERTEX
  5
A56
  8
CLUSTERS
 10
653.96838154099999
 20
4671.8281622900004
 30
3.0
  0
VERTEX
  5
A57
  8
CLUSTERS
 10
654.06318082799976
 20
4671.9206049699997
 30
3.0
  0
VERTEX
  5
A58
  8
CLUSTERS
 10
654.16339869299986
 20
4671.9141538000003
 30
3.0
  0
VERTEX
  5
A59
  8
CLUSTERS
 10
654.16490250499987
 20
4671.9284009499979
 30
3.0
  0
VERTEX
  5
A5A
  8
CLUSTERS
 10
654.16683292200003
 20
4672.0286396199999
 30
3.0
  0
VERTEX
  5
A5B
  8
CLUSTERS
 10
654.26361655800008
 20
4672.1256976200002
 30
3.0
  0
VERTEX
  5
A5C
  8
CLUSTERS
 10
654.36383442299996
 20
4672.1272451900004
 30
3.0
  0
VERTEX
  5
A5D
  8
CLUSTERS
 10
654.46178554199992
 20
4672.0286396199999
 30
3.0
  0
VERTEX
  5
A5E
  8
CLUSTERS
 10
654.46296228099993
 20
4671.9284009499979
 30
3.0
  0
VERTEX
  5
A5F
  8
CLUSTERS
 10
654.36383442299996
 20
4671.8292887400003
 30
3.0
  0
VERTEX
  5
A60
  8
CLUSTERS
 10
654.26361655800008
 20
4671.8301720600002
 30
3.0
  0
VERTEX
  5
A61
  8
CLUSTERS
 10
654.24537528099995
 20
4671.8281622900004
 30
3.0
  0
VERTEX
  5
A62
  8
CLUSTERS
 10
654.16339869299986
 20
4671.7446241099997
 30
3.0
  0
VERTEX
  5
A63
  8
CLUSTERS
 10
654.16121742999985
 20
4671.7279236300001
 30
3.0
  0
VERTEX
  5
A64
  8
CLUSTERS
 10
654.16274448399975
 20
4671.627684959999
 30
3.0
  0
VERTEX
  5
A65
  8
CLUSTERS
 10
654.06318082799976
 20
4671.5281178300002
 30
3.0
  0
VERTEX
  5
A66
  8
CLUSTERS
 10
653.962962963
 20
4671.5278527299979
 30
3.0
  0
VERTEX
  5
A67
  8
CLUSTERS
 10
653.86274509799989
 20
4671.6227042299979
 30
3.0
  0
VERTEX
  5
A68
  8
CLUSTERS
 10
653.85823398499986
 20
4671.627684959999
 30
3.0
  0
SEQEND
  5
A69
  8
CLUSTERS
  0
POLYLINE
  5
57
  8
CLUSTERS
 66
     1
 10
0.0
 20
0.0
 30
3.0
 70
   129
  0
VERTEX
  5
A6A
  8
CLUSTERS
 10
650.16441633699992
 20
4671.627684959999
 30
3.0
  0
VERTEX
  5
A6B
  8
CLUSTERS
 10
650.15468409599976
 20
4671.62903345
 30
3.0
  0
VERTEX
  5
A6C
  8
CLUSTERS
 10
650.05446623099999
 20
4671.6749656299999
 30
3.0
  0
VERTEX
  5
A6D
  8
CLUSTERS
 10
650.00182445400003
 20
4671.7279236300001
 30
3.0
  0
VERTEX
  5
A6E
  8
CLUSTERS
 10
650.05446623099999
 20
4671.7818387099987
 30
3.0
  0
VERTEX
  5
A6F
  8
CLUSTERS
 10
650.15468409599976
 20
4671.82659324
 30
3.0
  0
VERTEX
  5
A70
  8
CLUSTERS
 10
650.25297797199994
 20
4671.7279236300001
 30
3.0
  0
VERTEX
  5
A71
  8
CLUSTERS
 10
650.25490196099986
 20
4671.7145176100003
 30
3.0
  0
VERTEX
  5
A72
  8
CLUSTERS
 10
650.35506015299995
 20
4671.7279236300001
 30
3.0
  0
VERTEX
  5
A73
  8
CLUSTERS
 10
650.28148268899986
 20
4671.8281622900004
 30
3.0
  0
VERTEX
  5
A74
  8
CLUSTERS
 10
650.35511982599985
 20
4671.9014407499999
 30
3.0
  0
VERTEX
  5
A75
  8
CLUSTERS
 10
650.42794053599994
 20
4671.8281622900004
 30
3.0
  0
VERTEX
  5
A76
  8
CLUSTERS
 10
650.35517146500001
 20
4671.7279236300001
 30
3.0
  0
VERTEX
  5
A77
  8
CLUSTERS
 10
650.35511982599985
 20
4671.7278713399992
 30
3.0
  0
VERTEX
  5
A78
  8
CLUSTERS
 10
650.34010400099987
 20
4671.627684959999
 30
3.0
  0
VERTEX
  5
A79
  8
CLUSTERS
 10
650.25490196099986
 20
4671.5425628499997
 30
3.0
  0
VERTEX
  5
A7A
  8
CLUSTERS
 10
650.16441633699992
 20
4671.627684959999
 30
3.0
  0
SEQEND
  5
A7B
  8
CLUSTERS
  0
POLYLINE
  5
58
  8
CLUSTERS
 66
     1
 10
0.0
 20
0.0
 30
3.0
 70
   129
  0
VERTEX
  5
A7C
  8
CLUSTERS
 10
647.48251617300002
 20
4671.3269689699991
 30
3.0
  0
VERTEX
  5
A7D
  8
CLUSTERS
 10
647.45370121699978
 20
4671.4272076399993
 30
3.0
  0
VERTEX
  5
A7E
  8
CLUSTERS
 10
647.54901960799987
 20
4671.525310019998
 30
3.0
  0
VERTEX
  5
A7F
  8
CLUSTERS
 10
647.54933940699993
 20
4671.5274462999978
 30
3.0
  0
VERTEX
  5
A80
  8
CLUSTERS
 10
647.55177628800004
 20
4671.627684959999
 30
3.0
  0
VERTEX
  5
A81
  8
CLUSTERS
 10
647.57315802400001
 20
4671.7279236300001
 30
3.0
  0
VERTEX
  5
A82
  8
CLUSTERS
 10
647.64923747300008
 20
4671.80353904
 30
3.0
  0
VERTEX
  5
A83
  8
CLUSTERS
 10
647.73107287799996
 20
4671.7279236300001
 30
3.0
  0
VERTEX
  5
A84
  8
CLUSTERS
 10
647.74945533799996
 20
4671.72545438
 30
3.0
  0
VERTEX
  5
A85
  8
CLUSTERS
 10
647.84967320299995
 20
4671.7241388499997
 30
3.0
  0
VERTEX
  5
A86
  8
CLUSTERS
 10
647.94989106800006
 20
4671.725618129999
 30
3.0
  0
VERTEX
  5
A87
  8
CLUSTERS
 10
648.05010893199994
 20
4671.7251992700003
 30
3.0
  0
VERTEX
  5
A88
  8
CLUSTERS
 10
648.15032679699993
 20
4671.7269522899996
 30
3.0
  0
VERTEX
  5
A89
  8
CLUSTERS
 10
648.17927337900005
 20
4671.7279236300001
 30
3.0
  0
VERTEX
  5
A8A
  8
CLUSTERS
 10
648.25054466199992
 20
4671.7800353900002
 30
3.0
  0
VERTEX
  5
A8B
  8
CLUSTERS
 10
648.31667826800003
 20
4671.7279236300001
 30
3.0
  0
VERTEX
  5
A8C
  8
CLUSTERS
 10
648.35076252699992
 20
4671.7263181899998
 30
3.0
  0
VERTEX
  5
A8D
  8
CLUSTERS
 10
648.44829328599985
 20
4671.627684959999
 30
3.0
  0
VERTEX
  5
A8E
  8
CLUSTERS
 10
648.44499603600002
 20
4671.5274462999978
 30
3.0
  0
VERTEX
  5
A8F
  8
CLUSTERS
 10
648.35076252699992
 20
4671.4332249500003
 30
3.0
  0
VERTEX
  5
A90
  8
CLUSTERS
 10
648.25054466199992
 20
4671.42843498
 30
3.0
  0
VERTEX
  5
A91
  8
CLUSTERS
 10
648.15032679699993
 20
4671.4301980199998
 30
3.0
  0
VERTEX
  5
A92
  8
CLUSTERS
 10
648.05010893199994
 20
4671.4306391399978
 30
3.0
  0
VERTEX
  5
A93
  8
CLUSTERS
 10
648.04191195999999
 20
4671.4272076399993
 30
3.0
  0
VERTEX
  5
A94
  8
CLUSTERS
 10
647.94989106800006
 20
4671.3354382199977
 30
3.0
  0
VERTEX
  5
A95
  8
CLUSTERS
 10
647.84967320299995
 20
4671.3273506899977
 30
3.0
  0
VERTEX
  5
A96
  8
CLUSTERS
 10
647.84642847800001
 20
4671.3269689699991
 30
3.0
  0
VERTEX
  5
A97
  8
CLUSTERS
 10
647.74945533799996
 20
4671.2315078499987
 30
3.0
  0
VERTEX
  5
A98
  8
CLUSTERS
 10
647.64923747300008
 20
4671.22975752
 30
3.0
  0
VERTEX
  5
A99
  8
CLUSTERS
 10
647.54901960799987
 20
4671.2480262400004
 30
3.0
  0
VERTEX
  5
A9A
  8
CLUSTERS
 10
647.48251617300002
 20
4671.3269689699991
 30
3.0
  0
SEQEND
  5
A9B
  8
CLUSTERS
  0
POLYLINE
  5
59
  8
CLUSTERS
 66
     1
 10
0.0
 20
0.0
 30
3.0
 70
   129
  0
VERTEX
  5
A9C
  8
CLUSTERS
 10
647.30833780699993
 20
4670.7255369900004
 30
3.0
  0
VERTEX
  5
A9D
  8
CLUSTERS
 10
647.348583878
 20
4670.7993316100001
 30
3.0
  0
VERTEX
  5
A9E
  8
CLUSTERS
 10
647.34952334699994
 20
4670.8257756599996
 30
3.0
  0
VERTEX
  5
A9F
  8
CLUSTERS
 10
647.44880174299976
 20
4670.9235407200003
 30
3.0
  0
VERTEX
  5
AA0
  8
CLUSTERS
 10
647.49130676800007
 20
4670.926014319999
 30
3.0
  0
VERTEX
  5
AA1
  8
CLUSTERS
 10
647.44880174299976
 20
4670.928317429999
 30
3.0
  0
VERTEX
  5
AA2
  8
CLUSTERS
 10
647.35173173099975
 20
4671.0262529800002
 30
3.0
  0
VERTEX
  5
AA3
  8
CLUSTERS
 10
647.35075186300003
 20
4671.1264916500004
 30
3.0
  0
VERTEX
  5
AA4
  8
CLUSTERS
 10
647.44880174299976
 20
4671.2252271300003
 30
3.0
  0
VERTEX
  5
AA5
  8
CLUSTERS
 10
647.54901960799987
 20
4671.2256159500002
 30
3.0
  0
VERTEX
  5
AA6
  8
CLUSTERS
 10
647.64851434599996
 20
4671.1264916500004
 30
3.0
  0
VERTEX
  5
AA7
  8
CLUSTERS
 10
647.64923747300008
 20
4671.1257956899999
 30
3.0
  0
VERTEX
  5
AA8
  8
CLUSTERS
 10
647.74945533799996
 20
4671.1122418300001
 30
3.0
  0
VERTEX
  5
AA9
  8
CLUSTERS
 10
647.83379815499995
 20
4671.0262529800002
 30
3.0
  0
VERTEX
  5
AAA
  8
CLUSTERS
 10
647.8130888899999
 20
4670.926014319999
 30
3.0
  0
VERTEX
  5
AAB
  8
CLUSTERS
 10
647.74945533799996
 20
4670.86241703
 30
3.0
  0
VERTEX
  5
AAC
  8
CLUSTERS
 10
647.64923747300008
 20
4670.8330611499978
 30
3.0
  0
VERTEX
  5
AAD
  8
CLUSTERS
 10
647.54901960799987
 20
4670.87627634
 30
3.0
  0
VERTEX
  5
AAE
  8
CLUSTERS
 10
647.54564174400002
 20
4670.8257756599996
 30
3.0
  0
VERTEX
  5
AAF
  8
CLUSTERS
 10
647.53429689400002
 20
4670.7255369900004
 30
3.0
  0
VERTEX
  5
AB0
  8
CLUSTERS
 10
647.44880174299976
 20
4670.64037448
 30
3.0
  0
VERTEX
  5
AB1
  8
CLUSTERS
 10
647.348583878
 20
4670.6853048000003
 30
3.0
  0
VERTEX
  5
AB2
  8
CLUSTERS
 10
647.30833780699993
 20
4670.7255369900004
 30
3.0
  0
SEQEND
  5
AB3
  8
CLUSTERS
  0
POLYLINE
  5
5A
  8
CLUSTERS
 66
     1
 10
0.0
 20
0.0
 30
3.0
 70
   129
  0
VERTEX
  5
AB4
  8
CLUSTERS
 10
649.56542154299996
 20
4670.6252983300001
 30
3.0
  0
VERTEX
  5
AB5
  8
CLUSTERS
 10
649.55337690600004
 20
4670.6322878499996
 30
3.0
  0
VERTEX
  5
AB6
  8
CLUSTERS
 10
649.45997559499995
 20
4670.7255369900004
 30
3.0
  0
VERTEX
  5
AB7
  8
CLUSTERS
 10
649.45315904099994
 20
4670.7501695299979
 30
3.0
  0
VERTEX
  5
AB8
  8
CLUSTERS
 10
649.35294117599994
 20
4670.7506342799998
 30
3.0
  0
VERTEX
  5
AB9
  8
CLUSTERS
 10
649.27777409500004
 20
4670.8257756599996
 30
3.0
  0
VERTEX
  5
ABA
  8
CLUSTERS
 10
649.25928877599995
 20
4670.926014319999
 30
3.0
  0
VERTEX
  5
ABB
  8
CLUSTERS
 10
649.35294117599994
 20
4671.0092423100023
 30
3.0
  0
VERTEX
  5
ABC
  8
CLUSTERS
 10
649.45315904099994
 20
4670.9362828900003
 30
3.0
  0
VERTEX
  5
ABD
  8
CLUSTERS
 10
649.47268231600003
 20
4670.926014319999
 30
3.0
  0
VERTEX
  5
ABE
  8
CLUSTERS
 10
649.55337690600004
 20
4670.9250218599991
 30
3.0
  0
VERTEX
  5
ABF
  8
CLUSTERS
 10
649.64530657499995
 20
4670.926014319999
 30
3.0
  0
VERTEX
  5
AC0
  8
CLUSTERS
 10
649.65359477100003
 20
4670.9300921900003
 30
3.0
  0
VERTEX
  5
AC1
  8
CLUSTERS
 10
649.65777119899985
 20
4670.926014319999
 30
3.0
  0
VERTEX
  5
AC2
  8
CLUSTERS
 10
649.75099731299997
 20
4670.8257756599996
 30
3.0
  0
VERTEX
  5
AC3
  8
CLUSTERS
 10
649.74008879099995
 20
4670.7255369900004
 30
3.0
  0
VERTEX
  5
AC4
  8
CLUSTERS
 10
649.75381263600002
 20
4670.6996940099989
 30
3.0
  0
VERTEX
  5
AC5
  8
CLUSTERS
 10
649.82653752399995
 20
4670.6252983300001
 30
3.0
  0
VERTEX
  5
AC6
  8
CLUSTERS
 10
649.75381263600002
 20
4670.5453900499997
 30
3.0
  0
VERTEX
  5
AC7
  8
CLUSTERS
 10
649.65359477100003
 20
4670.5338404300001
 30
3.0
  0
VERTEX
  5
AC8
  8
CLUSTERS
 10
649.56542154299996
 20
4670.6252983300001
 30
3.0
  0
SEQEND
  5
AC9
  8
CLUSTERS
  0
POLYLINE
  5
5B
  8
CLUSTERS
 66
     1
 10
0.0
 20
0.0
 30
3.0
 70
   129
  0
VERTEX
  5
ACA
  8
CLUSTERS
 10
643.95861344099978
 20
4668.319809069998
 30
3.0
  0
VERTEX
  5
ACB
  8
CLUSTERS
 10
643.95392680799978
 20
4668.4200477300001
 30
3.0
  0
VERTEX
  5
ACC
  8
CLUSTERS
 10
643.956092431
 20
4668.5202863999984
 30
3.0
  0
VERTEX
  5
ACD
  8
CLUSTERS
 10
644.04139433599994
 20
4668.6077056200002
 30
3.0
  0
VERTEX
  5
ACE
  8
CLUSTERS
 10
644.12688850799975
 20
4668.5202863999984
 30
3.0
  0
VERTEX
  5
ACF
  8
CLUSTERS
 10
644.11303392699995
 20
4668.4200477300001
 30
3.0
  0
VERTEX
  5
AD0
  8
CLUSTERS
 10
644.124593129
 20
4668.319809069998
 30
3.0
  0
VERTEX
  5
AD1
  8
CLUSTERS
 10
644.04139433599994
 20
4668.2373063599998
 30
3.0
  0
VERTEX
  5
AD2
  8
CLUSTERS
 10
643.95861344099978
 20
4668.319809069998
 30
3.0
  0
SEQEND
  5
AD3
  8
CLUSTERS
  0
POLYLINE
  5
5C
  8
CLUSTERS
 66
     1
 10
0.0
 20
0.0
 30
3.0
 70
   129
  0
VERTEX
  5
AD4
  8
CLUSTERS
 10
648.45285373199999
 20
4667.5178997599987
 30
3.0
  0
VERTEX
  5
AD5
  8
CLUSTERS
 10
648.45151141300005
 20
4667.618138419999
 30
3.0
  0
VERTEX
  5
AD6
  8
CLUSTERS
 10
648.47930829400002
 20
4667.7183770899992
 30
3.0
  0
VERTEX
  5
AD7
  8
CLUSTERS
 10
648.55119825700001
 20
4667.7843769600022
 30
3.0
  0
VERTEX
  5
AD8
  8
CLUSTERS
 10
648.651416122
 20
4667.7751031899998
 30
3.0
  0
VERTEX
  5
AD9
  8
CLUSTERS
 10
648.70638050699995
 20
4667.7183770899992
 30
3.0
  0
VERTEX
  5
ADA
  8
CLUSTERS
 10
648.651416122
 20
4667.6425881900004
 30
3.0
  0
VERTEX
  5
ADB
  8
CLUSTERS
 10
648.65080273199999
 20
4667.618138419999
 30
3.0
  0
VERTEX
  5
ADC
  8
CLUSTERS
 10
648.64938786000005
 20
4667.5178997599987
 30
3.0
  0
VERTEX
  5
ADD
  8
CLUSTERS
 10
648.55119825700001
 20
4667.4201204299998
 30
3.0
  0
VERTEX
  5
ADE
  8
CLUSTERS
 10
648.45285373199999
 20
4667.5178997599987
 30
3.0
  0
SEQEND
  5
ADF
  8
CLUSTERS
  0
POLYLINE
  5
5D
  8
CLUSTERS
 66
     1
 10
0.0
 20
0.0
 30
3.0
 70
   129
  0
VERTEX
  5
AE0
  8
CLUSTERS
 10
654.77663129999985
 20
4666.8162291199997
 30
3.0
  0
VERTEX
  5
AE1
  8
CLUSTERS
 10
654.76542261099985
 20
4666.9164677799999
 30
3.0
  0
VERTEX
  5
AE2
  8
CLUSTERS
 10
654.794220978
 20
4667.0167064400002
 30
3.0
  0
VERTEX
  5
AE3
  8
CLUSTERS
 10
654.86492374699992
 20
4667.0899321200004
 30
3.0
  0
VERTEX
  5
AE4
  8
CLUSTERS
 10
654.87296085200001
 20
4667.1169451100004
 30
3.0
  0
VERTEX
  5
AE5
  8
CLUSTERS
 10
654.86785878599994
 20
4667.2171837699998
 30
3.0
  0
VERTEX
  5
AE6
  8
CLUSTERS
 10
654.91156039099985
 20
4667.3174224300001
 30
3.0
  0
VERTEX
  5
AE7
  8
CLUSTERS
 10
654.96514161200002
 20
4667.3748849100002
 30
3.0
  0
VERTEX
  5
AE8
  8
CLUSTERS
 10
655.03164267699992
 20
4667.3174224300001
 30
3.0
  0
VERTEX
  5
AE9
  8
CLUSTERS
 10
655.0653594769999
 20
4667.2359928799997
 30
3.0
  0
VERTEX
  5
AEA
  8
CLUSTERS
 10
655.07512108900005
 20
4667.2171837699998
 30
3.0
  0
VERTEX
  5
AEB
  8
CLUSTERS
 10
655.0653594769999
 20
4667.2055622099988
 30
3.0
  0
VERTEX
  5
AEC
  8
CLUSTERS
 10
655.05491612900005
 20
4667.1169451100004
 30
3.0
  0
VERTEX
  5
AED
  8
CLUSTERS
 10
655.06192522100002
 20
4667.0167064400002
 30
3.0
  0
VERTEX
  5
AEE
  8
CLUSTERS
 10
655.0653594769999
 20
4666.9681827000004
 30
3.0
  0
VERTEX
  5
AEF
  8
CLUSTERS
 10
655.09156176699992
 20
4666.9164677799999
 30
3.0
  0
VERTEX
  5
AF0
  8
CLUSTERS
 10
655.0653594769999
 20
4666.8633440699996
 30
3.0
  0
VERTEX
  5
AF1
  8
CLUSTERS
 10
655.06487560999994
 20
4666.8162291199997
 30
3.0
  0
VERTEX
  5
AF2
  8
CLUSTERS
 10
654.96514161200002
 20
4666.7170430300002
 30
3.0
  0
VERTEX
  5
AF3
  8
CLUSTERS
 10
654.86492374699992
 20
4666.7286900700001
 30
3.0
  0
VERTEX
  5
AF4
  8
CLUSTERS
 10
654.77663129999985
 20
4666.8162291199997
 30
3.0
  0
SEQEND
  5
AF5
  8
CLUSTERS
  0
POLYLINE
  5
5E
  8
CLUSTERS
 66
     1
 10
0.0
 20
0.0
 30
3.0
 70
   129
  0
VERTEX
  5
AF6
  8
CLUSTERS
 10
647.77582949299995
 20
4666.7159904500013
 30
3.0
  0
VERTEX
  5
AF7
  8
CLUSTERS
 10
647.84967320299995
 20
4666.7957829999978
 30
3.0
  0
VERTEX
  5
AF8
  8
CLUSTERS
 10
647.94989106800006
 20
4666.8103142600012
 30
3.0
  0
VERTEX
  5
AF9
  8
CLUSTERS
 10
647.95880236000005
 20
4666.8162291199997
 30
3.0
  0
VERTEX
  5
AFA
  8
CLUSTERS
 10
647.98666838700001
 20
4666.9164677799999
 30
3.0
  0
VERTEX
  5
AFB
  8
CLUSTERS
 10
648.05010893199994
 20
4667.0156835999987
 30
3.0
  0
VERTEX
  5
AFC
  8
CLUSTERS
 10
648.05027469699996
 20
4667.0167064400002
 30
3.0
  0
VERTEX
  5
AFD
  8
CLUSTERS
 10
648.15032679699993
 20
4667.1103800299989
 30
3.0
  0
VERTEX
  5
AFE
  8
CLUSTERS
 10
648.18077101799997
 20
4667.1169451100004
 30
3.0
  0
VERTEX
  5
AFF
  8
CLUSTERS
 10
648.15032679699993
 20
4667.1251787399997
 30
3.0
  0
VERTEX
  5
B00
  8
CLUSTERS
 10
648.06173819900005
 20
4667.2171837699998
 30
3.0
  0
VERTEX
  5
B01
  8
CLUSTERS
 10
648.07323578699993
 20
4667.3174224300001
 30
3.0
  0
VERTEX
  5
B02
  8
CLUSTERS
 10
648.15032679699993
 20
4667.397948589999
 30
3.0
  0
VERTEX
  5
B03
  8
CLUSTERS
 10
648.25054466199992
 20
4667.4141293099992
 30
3.0
  0
VERTEX
  5
B04
  8
CLUSTERS
 10
648.35076252699992
 20
4667.4090058800002
 30
3.0
  0
VERTEX
  5
B05
  8
CLUSTERS
 10
648.45098039199991
 20
4667.4147266099999
 30
3.0
  0
VERTEX
  5
B06
  8
CLUSTERS
 10
648.54422366699987
 20
4667.3174224300001
 30
3.0
  0
VERTEX
  5
B07
  8
CLUSTERS
 10
648.54628228800004
 20
4667.2171837699998
 30
3.0
  0
VERTEX
  5
B08
  8
CLUSTERS
 10
648.45098039199991
 20
4667.1213587399998
 30
3.0
  0
VERTEX
  5
B09
  8
CLUSTERS
 10
648.4459523459999
 20
4667.1169451100004
 30
3.0
  0
VERTEX
  5
B0A
  8
CLUSTERS
 10
648.35076252699992
 20
4667.0193119499991
 30
3.0
  0
VERTEX
  5
B0B
  8
CLUSTERS
 10
648.34353927400002
 20
4667.0167064400002
 30
3.0
  0
VERTEX
  5
B0C
  8
CLUSTERS
 10
648.35076252699992
 20
4666.9222938199991
 30
3.0
  0
VERTEX
  5
B0D
  8
CLUSTERS
 10
648.35319508899977
 20
4666.9164677799999
 30
3.0
  0
VERTEX
  5
B0E
  8
CLUSTERS
 10
648.35076252699992
 20
4666.9127221500012
 30
3.0
  0
VERTEX
  5
B0F
  8
CLUSTERS
 10
648.34760621400005
 20
4666.8162291199997
 30
3.0
  0
VERTEX
  5
B10
  8
CLUSTERS
 10
648.25054466199992
 20
4666.7197257799999
 30
3.0
  0
VERTEX
  5
B11
  8
CLUSTERS
 10
648.15032679699993
 20
4666.71644027
 30
3.0
  0
VERTEX
  5
B12
  8
CLUSTERS
 10
648.05010893199994
 20
4666.7315830500002
 30
3.0
  0
VERTEX
  5
B13
  8
CLUSTERS
 10
648.03950271600002
 20
4666.7159904500013
 30
3.0
  0
VERTEX
  5
B14
  8
CLUSTERS
 10
647.94989106800006
 20
4666.6166890900004
 30
3.0
  0
VERTEX
  5
B15
  8
CLUSTERS
 10
647.84967320299995
 20
4666.6422034899988
 30
3.0
  0
VERTEX
  5
B16
  8
CLUSTERS
 10
647.77582949299995
 20
4666.7159904500013
 30
3.0
  0
SEQEND
  5
B17
  8
CLUSTERS
  0
POLYLINE
  5
5F
  8
CLUSTERS
 66
     1
 10
0.0
 20
0.0
 30
3.0
 70
   129
  0
VERTEX
  5
B18
  8
CLUSTERS
 10
642.142969085
 20
4665.7136038199997
 30
3.0
  0
VERTEX
  5
B19
  8
CLUSTERS
 10
642.13725490199988
 20
4665.8074650899998
 30
3.0
  0
VERTEX
  5
B1A
  8
CLUSTERS
 10
642.13245311599985
 20
4665.8138424799999
 30
3.0
  0
VERTEX
  5
B1B
  8
CLUSTERS
 10
642.13725490199988
 20
4665.8259268399988
 30
3.0
  0
VERTEX
  5
B1C
  8
CLUSTERS
 10
642.14077682000004
 20
4665.9140811500001
 30
3.0
  0
VERTEX
  5
B1D
  8
CLUSTERS
 10
642.23747276699999
 20
4666.0067719799999
 30
3.0
  0
VERTEX
  5
B1E
  8
CLUSTERS
 10
642.33769063199975
 20
4665.9733348999998
 30
3.0
  0
VERTEX
  5
B1F
  8
CLUSTERS
 10
642.35808346800002
 20
4666.0143198100004
 30
3.0
  0
VERTEX
  5
B20
  8
CLUSTERS
 10
642.43790849699985
 20
4666.0994325700003
 30
3.0
  0
VERTEX
  5
B21
  8
CLUSTERS
 10
642.53812636199984
 20
4666.0934345300002
 30
3.0
  0
VERTEX
  5
B22
  8
CLUSTERS
 10
642.60999578099995
 20
4666.0143198100004
 30
3.0
  0
VERTEX
  5
B23
  8
CLUSTERS
 10
642.53812636199984
 20
4665.9177815100002
 30
3.0
  0
VERTEX
  5
B24
  8
CLUSTERS
 10
642.43790849699985
 20
4665.9196909599996
 30
3.0
  0
VERTEX
  5
B25
  8
CLUSTERS
 10
642.42404759399994
 20
4665.9140811500001
 30
3.0
  0
VERTEX
  5
B26
  8
CLUSTERS
 10
642.43064026599995
 20
4665.8138424799999
 30
3.0
  0
VERTEX
  5
B27
  8
CLUSTERS
 10
642.33769063199975
 20
4665.7177052400002
 30
3.0
  0
VERTEX
  5
B28
  8
CLUSTERS
 10
642.33456234800008
 20
4665.7136038199997
 30
3.0
  0
VERTEX
  5
B29
  8
CLUSTERS
 10
642.23747276699999
 20
4665.6203409999989
 30
3.0
  0
VERTEX
  5
B2A
  8
CLUSTERS
 10
642.142969085
 20
4665.7136038199997
 30
3.0
  0
SEQEND
  5
B2B
  8
CLUSTERS
  0
POLYLINE
  5
60
  8
CLUSTERS
 66
     1
 10
0.0
 20
0.0
 30
3.0
 70
   129
  0
VERTEX
  5
B2C
  8
CLUSTERS
 10
645.489112224
 20
4665.3126491599987
 30
3.0
  0
VERTEX
  5
B2D
  8
CLUSTERS
 10
645.44444444400006
 20
4665.3167174399978
 30
3.0
  0
VERTEX
  5
B2E
  8
CLUSTERS
 10
645.34777415400004
 20
4665.4128878299998
 30
3.0
  0
VERTEX
  5
B2F
  8
CLUSTERS
 10
645.34641281999995
 20
4665.5131264900001
 30
3.0
  0
VERTEX
  5
B30
  8
CLUSTERS
 10
645.37470805299995
 20
4665.6133651600003
 30
3.0
  0
VERTEX
  5
B31
  8
CLUSTERS
 10
645.44444444400006
 20
4665.67974968
 30
3.0
  0
VERTEX
  5
B32
  8
CLUSTERS
 10
645.54466230900005
 20
4665.6865721300001
 30
3.0
  0
VERTEX
  5
B33
  8
CLUSTERS
 10
645.57943693800007
 20
4665.7136038199997
 30
3.0
  0
VERTEX
  5
B34
  8
CLUSTERS
 10
645.64488017400004
 20
4665.7782001100004
 30
3.0
  0
VERTEX
  5
B35
  8
CLUSTERS
 10
645.70548535499995
 20
4665.7136038199997
 30
3.0
  0
VERTEX
  5
B36
  8
CLUSTERS
 10
645.71991677499977
 20
4665.6133651600003
 30
3.0
  0
VERTEX
  5
B37
  8
CLUSTERS
 10
645.69997752699987
 20
4665.5131264900001
 30
3.0
  0
VERTEX
  5
B38
  8
CLUSTERS
 10
645.73930291699992
 20
4665.4128878299998
 30
3.0
  0
VERTEX
  5
B39
  8
CLUSTERS
 10
645.72582758999999
 20
4665.3126491599987
 30
3.0
  0
VERTEX
  5
B3A
  8
CLUSTERS
 10
645.64488017400004
 20
4665.2330846100003
 30
3.0
  0
VERTEX
  5
B3B
  8
CLUSTERS
 10
645.54466230900005
 20
4665.2618698200013
 30
3.0
  0
VERTEX
  5
B3C
  8
CLUSTERS
 10
645.489112224
 20
4665.3126491599987
 30
3.0
  0
SEQEND
  5
B3D
  8
CLUSTERS
  0
POLYLINE
  5
61
  8
CLUSTERS
 66
     1
 10
0.0
 20
0.0
 30
3.0
 70
   129
  0
VERTEX
  5
B3E
  8
CLUSTERS
 10
646.94964083900004
 20
4664.9116945100004
 30
3.0
  0
VERTEX
  5
B3F
  8
CLUSTERS
 10
646.94771241800004
 20
4664.9399675499999
 30
3.0
  0
VERTEX
  5
B40
  8
CLUSTERS
 10
646.89175938300002
 20
4665.011933169998
 30
3.0
  0
VERTEX
  5
B41
  8
CLUSTERS
 10
646.84749455300005
 20
4665.0959640399979
 30
3.0
  0
VERTEX
  5
B42
  8
CLUSTERS
 10
646.83348605100002
 20
4665.1121718399991
 30
3.0
  0
VERTEX
  5
B43
  8
CLUSTERS
 10
646.74820341300006
 20
4665.2124105000003
 30
3.0
  0
VERTEX
  5
B44
  8
CLUSTERS
 10
646.75165556900004
 20
4665.3126491599987
 30
3.0
  0
VERTEX
  5
B45
  8
CLUSTERS
 10
646.83326081899986
 20
4665.4128878299998
 30
3.0
  0
VERTEX
  5
B46
  8
CLUSTERS
 10
646.84749455300005
 20
4665.4261697999991
 30
3.0
  0
VERTEX
  5
B47
  8
CLUSTERS
 10
646.94771241800004
 20
4665.4848261799998
 30
3.0
  0
VERTEX
  5
B48
  8
CLUSTERS
 10
647.04793028300003
 20
4665.4200621299988
 30
3.0
  0
VERTEX
  5
B49
  8
CLUSTERS
 10
647.05775829200002
 20
4665.4128878299998
 30
3.0
  0
VERTEX
  5
B4A
  8
CLUSTERS
 10
647.14814814800002
 20
4665.3603729999977
 30
3.0
  0
VERTEX
  5
B4B
  8
CLUSTERS
 10
647.2483660129999
 20
4665.3572165100004
 30
3.0
  0
VERTEX
  5
B4C
  8
CLUSTERS
 10
647.2935229389999
 20
4665.4128878299998
 30
3.0
  0
VERTEX
  5
B4D
  8
CLUSTERS
 10
647.348583878
 20
4665.4621391199998
 30
3.0
  0
VERTEX
  5
B4E
  8
CLUSTERS
 10
647.35988359999976
 20
4665.5131264900001
 30
3.0
  0
VERTEX
  5
B4F
  8
CLUSTERS
 10
647.43531564199998
 20
4665.6133651600003
 30
3.0
  0
VERTEX
  5
B50
  8
CLUSTERS
 10
647.37154265699996
 20
4665.7136038199997
 30
3.0
  0
VERTEX
  5
B51
  8
CLUSTERS
 10
647.44880174299976
 20
4665.8057621600001
 30
3.0
  0
VERTEX
  5
B52
  8
CLUSTERS
 10
647.45510949299978
 20
4665.8138424799999
 30
3.0
  0
VERTEX
  5
B53
  8
CLUSTERS
 10
647.54901960799987
 20
4665.8958315
 30
3.0
  0
VERTEX
  5
B54
  8
CLUSTERS
 10
647.64923747300008
 20
4665.8926560299979
 30
3.0
  0
VERTEX
  5
B55
  8
CLUSTERS
 10
647.73274534400002
 20
4665.8138424799999
 30
3.0
  0
VERTEX
  5
B56
  8
CLUSTERS
 10
647.74838142300007
 20
4665.7136038199997
 30
3.0
  0
VERTEX
  5
B57
  8
CLUSTERS
 10
647.73100503299975
 20
4665.6133651600003
 30
3.0
  0
VERTEX
  5
B58
  8
CLUSTERS
 10
647.64923747300008
 20
4665.5300935499999
 30
3.0
  0
VERTEX
  5
B59
  8
CLUSTERS
 10
647.63939138699993
 20
4665.5131264900001
 30
3.0
  0
VERTEX
  5
B5A
  8
CLUSTERS
 10
647.62031612099986
 20
4665.4128878299998
 30
3.0
  0
VERTEX
  5
B5B
  8
CLUSTERS
 10
647.54901960799987
 20
4665.3340374700001
 30
3.0
  0
VERTEX
  5
B5C
  8
CLUSTERS
 10
647.52011521400004
 20
4665.3126491599987
 30
3.0
  0
VERTEX
  5
B5D
  8
CLUSTERS
 10
647.54866918599976
 20
4665.2124105000003
 30
3.0
  0
VERTEX
  5
B5E
  8
CLUSTERS
 10
647.54901960799987
 20
4665.2065869799999
 30
3.0
  0
VERTEX
  5
B5F
  8
CLUSTERS
 10
647.59207441800004
 20
4665.1121718399991
 30
3.0
  0
VERTEX
  5
B60
  8
CLUSTERS
 10
647.57635632300003
 20
4665.011933169998
 30
3.0
  0
VERTEX
  5
B61
  8
CLUSTERS
 10
647.54901960799987
 20
4664.9709382600004
 30
3.0
  0
VERTEX
  5
B62
  8
CLUSTERS
 10
647.52623213100003
 20
4664.9116945100004
 30
3.0
  0
VERTEX
  5
B63
  8
CLUSTERS
 10
647.44880174299976
 20
4664.8390195700003
 30
3.0
  0
VERTEX
  5
B64
  8
CLUSTERS
 10
647.348583878
 20
4664.8167291600002
 30
3.0
  0
VERTEX
  5
B65
  8
CLUSTERS
 10
647.2483660129999
 20
4664.8164997499989
 30
3.0
  0
VERTEX
  5
B66
  8
CLUSTERS
 10
647.14814814800002
 20
4664.8117196200001
 30
3.0
  0
VERTEX
  5
B67
  8
CLUSTERS
 10
647.04793028300003
 20
4664.81449703
 30
3.0
  0
VERTEX
  5
B68
  8
CLUSTERS
 10
646.94964083900004
 20
4664.9116945100004
 30
3.0
  0
SEQEND
  5
B69
  8
CLUSTERS
  0
POLYLINE
  5
62
  8
CLUSTERS
 66
     1
 10
0.0
 20
0.0
 30
3.0
 70
   129
  0
VERTEX
  5
B6A
  8
CLUSTERS
 10
641.04118686100003
 20
4664.3102625299989
 30
3.0
  0
VERTEX
  5
B6B
  8
CLUSTERS
 10
641.03610299399975
 20
4664.4105011900001
 30
3.0
  0
VERTEX
  5
B6C
  8
CLUSTERS
 10
641.03485838799998
 20
4664.4139113399979
 30
3.0
  0
VERTEX
  5
B6D
  8
CLUSTERS
 10
640.94185630699997
 20
4664.5107398600003
 30
3.0
  0
VERTEX
  5
B6E
  8
CLUSTERS
 10
640.94854411300003
 20
4664.6109785199978
 30
3.0
  0
VERTEX
  5
B6F
  8
CLUSTERS
 10
641.03485838799998
 20
4664.7072391199999
 30
3.0
  0
VERTEX
  5
B70
  8
CLUSTERS
 10
641.13507625299997
 20
4664.664094759999
 30
3.0
  0
VERTEX
  5
B71
  8
CLUSTERS
 10
641.22275178300004
 20
4664.6109785199978
 30
3.0
  0
VERTEX
  5
B72
  8
CLUSTERS
 10
641.23529411799996
 20
4664.6084072499989
 30
3.0
  0
VERTEX
  5
B73
  8
CLUSTERS
 10
641.32611475699991
 20
4664.5107398600003
 30
3.0
  0
VERTEX
  5
B74
  8
CLUSTERS
 10
641.33204530800003
 20
4664.4105011900001
 30
3.0
  0
VERTEX
  5
B75
  8
CLUSTERS
 10
641.27955771799975
 20
4664.3102625299989
 30
3.0
  0
VERTEX
  5
B76
  8
CLUSTERS
 10
641.23529411799996
 20
4664.2676068399996
 30
3.0
  0
VERTEX
  5
B77
  8
CLUSTERS
 10
641.13507625299997
 20
4664.217478829999
 30
3.0
  0
VERTEX
  5
B78
  8
CLUSTERS
 10
641.04118686100003
 20
4664.3102625299989
 30
3.0
  0
SEQEND
  5
B79
  8
CLUSTERS
  0
POLYLINE
  5
63
  8
CLUSTERS
 66
     1
 10
0.0
 20
0.0
 30
3.0
 70
   129
  0
VERTEX
  5
B7A
  8
CLUSTERS
 10
640.46000682099975
 20
4661.3031026299977
 30
3.0
  0
VERTEX
  5
B7B
  8
CLUSTERS
 10
640.43355119800003
 20
4661.3951020100012
 30
3.0
  0
VERTEX
  5
B7C
  8
CLUSTERS
 10
640.33333333300004
 20
4661.3657143199998
 30
3.0
  0
VERTEX
  5
B7D
  8
CLUSTERS
 10
640.29421696700001
 20
4661.4033412899989
 30
3.0
  0
VERTEX
  5
B7E
  8
CLUSTERS
 10
640.23311546800005
 20
4661.4333838999992
 30
3.0
  0
VERTEX
  5
B7F
  8
CLUSTERS
 10
640.16345961800005
 20
4661.5035799499992
 30
3.0
  0
VERTEX
  5
B80
  8
CLUSTERS
 10
640.1850422739999
 20
4661.6038186200003
 30
3.0
  0
VERTEX
  5
B81
  8
CLUSTERS
 10
640.23311546800005
 20
4661.6514449899987
 30
3.0
  0
VERTEX
  5
B82
  8
CLUSTERS
 10
640.33333333300004
 20
4661.6847119900003
 30
3.0
  0
VERTEX
  5
B83
  8
CLUSTERS
 10
640.43355119800003
 20
4661.6521441699979
 30
3.0
  0
VERTEX
  5
B84
  8
CLUSTERS
 10
640.48558261000017
 20
4661.6038186200003
 30
3.0
  0
VERTEX
  5
B85
  8
CLUSTERS
 10
640.53376906300002
 20
4661.5490088400002
 30
3.0
  0
VERTEX
  5
B86
  8
CLUSTERS
 10
640.581919857
 20
4661.5035799499992
 30
3.0
  0
VERTEX
  5
B87
  8
CLUSTERS
 10
640.6339869279999
 20
4661.4091455400003
 30
3.0
  0
VERTEX
  5
B88
  8
CLUSTERS
 10
640.63857189099997
 20
4661.4033412899989
 30
3.0
  0
VERTEX
  5
B89
  8
CLUSTERS
 10
640.64097223099998
 20
4661.3031026299977
 30
3.0
  0
VERTEX
  5
B8A
  8
CLUSTERS
 10
640.6339869279999
 20
4661.2964186199997
 30
3.0
  0
VERTEX
  5
B8B
  8
CLUSTERS
 10
640.53376906300002
 20
4661.2414235400001
 30
3.0
  0
VERTEX
  5
B8C
  8
CLUSTERS
 10
640.46000682099975
 20
4661.3031026299977
 30
3.0
  0
SEQEND
  5
B8D
  8
CLUSTERS
  0
ENDSEC
  0
EOF
