  0
SECTION
  2
HEADER
  9
$ACADVER
  1
AC1009
  9
$INSBASE
 10
0.0
 20
0.0
 30
0.0
  9
$EXTMIN
 10
630.53632028699985
 20
4664.1317432899978
 30
1.0
  9
$EXTMAX
 10
652.68038349099993
 20
4694.5240917799993
 30
18.0
  9
$LIMMIN
 10
0.0
 20
0.0
  9
$LIMMAX
 10
12.0
 20
9.0
  9
$ORTHOMODE
 70
     0
  9
$REGENMODE
 70
     1
  9
$FILLMODE
 70
     1
  9
$QTEXTMODE
 70
     0
  9
$MIRRTEXT
 70
     1
  9
$DRAGMODE
 70
     2
  9
$LTSCALE
 40
1.0
  9
$OSMODE
 70
   613
  9
$ATTMODE
 70
     1
  9
$TEXTSIZE
 40
0.5
  9
$TRACEWID
 40
0.05
  9
$TEXTSTYLE
  7
STANDARD
  9
$CLAYER
  8
DISTRICTS
  9
$CELTYPE
  6
BYLAYER
  9
$CECOLOR
 62
   256
  9
$DIMSCALE
 40
1.0
  9
$DIMASZ
 40
0.18
  9
$DIMEXO
 40
0.0625
  9
$DIMDLI
 40
0.38
  9
$DIMRND
 40
0.0
  9
$DIMDLE
 40
0.0
  9
$DIMEXE
 40
0.18
  9
$DIMTP
 40
0.0
  9
$DIMTM
 40
0.0
  9
$DIMTXT
 40
0.18
  9
$DIMCEN
 40
0.09
  9
$DIMTSZ
 40
0.0
  9
$DIMTOL
 70
     0
  9
$DIMLIM
 70
     0
  9
$DIMTIH
 70
     1
  9
$DIMTOH
 70
     1
  9
$DIMSE1
 70
     0
  9
$DIMSE2
 70
     0
  9
$DIMTAD
 70
     0
  9
$DIMZIN
 70
     0
  9
$DIMBLK
  1

  9
$DIMASO
 70
     1
  9
$DIMSHO
 70
     1
  9
$DIMPOST
  1

  9
$DIMAPOST
  1

  9
$DIMALT
 70
     0
  9
$DIMALTD
 70
     2
  9
$DIMALTF
 40
25.399999999999999
  9
$DIMLFAC
 40
1.0
  9
$DIMTOFL
 70
     0
  9
$DIMTVP
 40
0.0
  9
$DIMTIX
 70
     0
  9
$DIMSOXD
 70
     0
  9
$DIMSAH
 70
     0
  9
$DIMBLK1
  1

  9
$DIMBLK2
  1

  9
$DIMSTYLE
  2
STANDARD
  9
$DIMCLRD
 70
     0
  9
$DIMCLRE
 70
     0
  9
$DIMCLRT
 70
     0
  9
$DIMTFAC
 40
1.0
  9
$DIMGAP
 40
0.09
  9
$LUNITS
 70
     2
  9
$LUPREC
 70
     4
  9
$SKETCHINC
 40
0.1
  9
$FILLETRAD
 40
0.5
  9
$AUNITS
 70
     0
  9
$AUPREC
 70
     0
  9
$MENU
  1
.
  9
$ELEVATION
 40
0.0
  9
$PELEVATION
 40
0.0
  9
$THICKNESS
 40
0.0
  9
$LIMCHECK
 70
     0
  9
$BLIPMODE
 70
     0
  9
$CHAMFERA
 40
0.5
  9
$CHAMFERB
 40
0.5
  9
$SKPOLY
 70
     0
  9
$TDCREATE
 40
2454381.8473497801
  9
$TDUPDATE
 40
2455808.6660244912
  9
$TDINDWG
 40
0.1717645023
  9
$TDUSRTIMER
 40
0.1717641551
  9
$USRTIMER
 70
     1
  9
$ANGBASE
 50
0.0
  9
$ANGDIR
 70
     1
  9
$PDMODE
 70
    66
  9
$PDSIZE
 40
0.0
  9
$PLINEWID
 40
0.0
  9
$COORDS
 70
     1
  9
$SPLFRAME
 70
     0
  9
$SPLINETYPE
 70
     6
  9
$SPLINESEGS
 70
     8
  9
$ATTDIA
 70
     0
  9
$ATTREQ
 70
     1
  9
$HANDLING
 70
     1
  9
$HANDSEED
  5
1D0A
  9
$SURFTAB1
 70
     6
  9
$SURFTAB2
 70
     6
  9
$SURFTYPE
 70
     6
  9
$SURFU
 70
     6
  9
$SURFV
 70
     6
  9
$UCSNAME
  2

  9
$UCSORG
 10
0.0
 20
0.0
 30
0.0
  9
$UCSXDIR
 10
1.0
 20
0.0
 30
0.0
  9
$UCSYDIR
 10
0.0
 20
1.0
 30
0.0
  9
$PUCSNAME
  2

  9
$PUCSORG
 10
0.0
 20
0.0
 30
0.0
  9
$PUCSXDIR
 10
1.0
 20
0.0
 30
0.0
  9
$PUCSYDIR
 10
0.0
 20
1.0
 30
0.0
  9
$USERI1
 70
     0
  9
$USERI2
 70
     0
  9
$USERI3
 70
     0
  9
$USERI4
 70
     0
  9
$USERI5
 70
     0
  9
$USERR1
 40
0.0
  9
$USERR2
 40
0.0
  9
$USERR3
 40
0.0
  9
$USERR4
 40
0.0
  9
$USERR5
 40
0.0
  9
$WORLDVIEW
 70
     1
  9
$SHADEDGE
 70
     3
  9
$SHADEDIF
 70
    70
  9
$TILEMODE
 70
     1
  9
$MAXACTVP
 70
    64
  9
$PLIMCHECK
 70
     0
  9
$PEXTMIN
 10
0.0
 20
0.0
 30
0.0
  9
$PEXTMAX
 10
0.0
 20
0.0
 30
0.0
  9
$PLIMMIN
 10
0.0
 20
0.0
  9
$PLIMMAX
 10
12.0
 20
9.0
  9
$UNITMODE
 70
     0
  9
$VISRETAIN
 70
     1
  9
$PLINEGEN
 70
     0
  9
$PSLTSCALE
 70
     1
  0
ENDSEC
  0
SECTION
  2
TABLES
  0
TABLE
  2
VPORT
 70
     1
  0
VPORT
  2
*ACTIVE
 70
     0
 10
0.0
 20
0.0
 11
1.0
 21
1.0
 12
650.46966916035865
 22
4689.4204571861164
 13
0.0
 23
0.0
 14
0.5
 24
0.5
 15
0.5
 25
0.5
 16
0.0
 26
0.0
 36
1.0
 17
0.0
 27
0.0
 37
0.0
 40
64.192818321333846
 41
1.336206896551724
 42
50.0
 43
0.0
 44
0.0
 50
0.0
 51
0.0
 71
     0
 72
   100
 73
     1
 74
     2
 75
     0
 76
     0
 77
     0
 78
     0
  0
ENDTAB
  0
TABLE
  2
LTYPE
 70
     1
  0
LTYPE
  2
CONTINUOUS
 70
     0
  3
Solid line
 72
    65
 73
     0
 40
0.0
  0
ENDTAB
  0
TABLE
  2
LAYER
 70
     2
  0
LAYER
  2
0
 70
     0
 62
    -7
  6
CONTINUOUS
  0
LAYER
  2
DISTRICTS
 70
     0
 62
     3
  6
CONTINUOUS
  0
ENDTAB
  0
TABLE
  2
STYLE
 70
     3
  0
STYLE
  2
STANDARD
 70
     0
 40
0.0
 41
1.0
 50
0.0
 71
     0
 42
0.5
  3
txt
  4

  0
STYLE
  2
ANNOTATIVE
 70
     0
 40
0.0
 41
1.0
 50
0.0
 71
     0
 42
0.2
  3
txt
  4

  0
STYLE
  2
LEGEND
 70
     0
 40
0.0
 41
1.0
 50
0.0
 71
     0
 42
0.5
  3
txt
  4

  0
ENDTAB
  0
TABLE
  2
VIEW
 70
     0
  0
ENDTAB
  0
TABLE
  2
UCS
 70
     0
  0
ENDTAB
  0
TABLE
  2
APPID
 70
     7
  0
APPID
  2
ACAD
 70
     0
  0
APPID
  2
ACADANNOTATIVE
 70
     0
  0
APPID
  2
ADE
 70
     0
  0
APPID
  2
DCO15
 70
     0
  0
APPID
  2
ACMAPDMDISPLAYSTYLEREGAPP
 70
     0
  0
APPID
  2
MAPGWS
 70
     0
  0
APPID
  2
ACAD_MLEADERVER
 70
     0
  0
ENDTAB
  0
TABLE
  2
DIMSTYLE
 70
     2
  0
DIMSTYLE
  2
STANDARD
 70
     0
  3

  4

  5

  6

  7

 40
1.0
 41
0.18
 42
0.0625
 43
0.38
 44
0.18
 45
0.0
 46
0.0
 47
0.0
 48
0.0
140
0.18
141
0.09
142
0.0
143
25.399999999999999
144
1.0
145
0.0
146
1.0
147
0.09
 71
     0
 72
     0
 73
     1
 74
     1
 75
     0
 76
     0
 77
     0
 78
     0
170
     0
171
     2
172
     0
173
     0
174
     0
175
     0
176
     0
177
     0
178
     0
  0
DIMSTYLE
  2
ANNOTATIVE
 70
     0
  3

  4

  5

  6

  7

 40
1.0
 41
0.18
 42
0.0625
 43
0.38
 44
0.18
 45
0.0
 46
0.0
 47
0.0
 48
0.0
140
0.18
141
0.09
142
0.0
143
25.399999999999999
144
1.0
145
0.0
146
1.0
147
0.09
 71
     0
 72
     0
 73
     1
 74
     1
 75
     0
 76
     0
 77
     0
 78
     0
170
     0
171
     2
172
     0
173
     0
174
     0
175
     0
176
     0
177
     0
178
     0
  0
ENDTAB
  0
ENDSEC
  0
SECTION
  2
BLOCKS
  0
BLOCK
  8
0
  2
$MODEL_SPACE
 70
     0
 10
0.0
 20
0.0
 30
0.0
  3
$MODEL_SPACE
  1

  0
ENDBLK
  5
15B8
  8
0
  0
BLOCK
 67
     1
  8
0
  2
$PAPER_SPACE
 70
     0
 10
0.0
 20
0.0
 30
0.0
  3
$PAPER_SPACE
  1

  0
ENDBLK
  5
15B4
 67
     1
  8
0
  0
ENDSEC
  0
SECTION
  2
ENTITIES
  0
POLYLINE
  5
753
  8
DISTRICTS
 66
     1
 10
0.0
 20
0.0
 30
18.0
 70
     1
  0
VERTEX
  5
15F0
  8
DISTRICTS
 10
646.82795878499985
 20
4664.2100238700004
 30
18.0
  0
VERTEX
  5
15F1
  8
DISTRICTS
 10
646.74727668800006
 20
4664.242461269997
 30
18.0
  0
VERTEX
  5
15F2
  8
DISTRICTS
 10
646.64705882400006
 20
4664.2954096499998
 30
18.0
  0
VERTEX
  5
15F3
  8
DISTRICTS
 10
646.62273210199976
 20
4664.3102625299989
 30
18.0
  0
VERTEX
  5
15F4
  8
DISTRICTS
 10
646.54684095899995
 20
4664.35876878
 30
18.0
  0
VERTEX
  5
15F5
  8
DISTRICTS
 10
646.47728877500003
 20
4664.4105011900001
 30
18.0
  0
VERTEX
  5
15F6
  8
DISTRICTS
 10
646.44662309399985
 20
4664.4353607000003
 30
18.0
  0
VERTEX
  5
15F7
  8
DISTRICTS
 10
646.36024486799965
 20
4664.5107398600003
 30
18.0
  0
VERTEX
  5
15F8
  8
DISTRICTS
 10
646.34640522899986
 20
4664.5243287100002
 30
18.0
  0
VERTEX
  5
15F9
  8
DISTRICTS
 10
646.25668516199994
 20
4664.6109785199978
 30
18.0
  0
VERTEX
  5
15FA
  8
DISTRICTS
 10
646.24618736399975
 20
4664.622399269997
 30
18.0
  0
VERTEX
  5
15FB
  8
DISTRICTS
 10
646.14793719599993
 20
4664.7112171799999
 30
18.0
  0
VERTEX
  5
15FC
  8
DISTRICTS
 10
646.04575163399988
 20
4664.7614440300003
 30
18.0
  0
VERTEX
  5
15FD
  8
DISTRICTS
 10
645.94553376900001
 20
4664.783214609999
 30
18.0
  0
VERTEX
  5
15FE
  8
DISTRICTS
 10
645.88951435199999
 20
4664.8114558500001
 30
18.0
  0
VERTEX
  5
15FF
  8
DISTRICTS
 10
645.84531590400002
 20
4664.8194531600002
 30
18.0
  0
VERTEX
  5
1600
  8
DISTRICTS
 10
645.75432015000001
 20
4664.9116945100004
 30
18.0
  0
VERTEX
  5
1601
  8
DISTRICTS
 10
645.74706088100004
 20
4665.011933169998
 30
18.0
  0
VERTEX
  5
1602
  8
DISTRICTS
 10
645.76977067099995
 20
4665.1121718399991
 30
18.0
  0
VERTEX
  5
1603
  8
DISTRICTS
 10
645.80363725799975
 20
4665.2124105000003
 30
18.0
  0
VERTEX
  5
1604
  8
DISTRICTS
 10
645.74509803899991
 20
4665.3003042399969
 30
18.0
  0
VERTEX
  5
1605
  8
DISTRICTS
 10
645.64488017400004
 20
4665.2651887299999
 30
18.0
  0
VERTEX
  5
1606
  8
DISTRICTS
 10
645.54466230900005
 20
4665.2964635199978
 30
18.0
  0
VERTEX
  5
1607
  8
DISTRICTS
 10
645.52153422200001
 20
4665.3126491599969
 30
18.0
  0
VERTEX
  5
1608
  8
DISTRICTS
 10
645.44444444400006
 20
4665.3349525800004
 30
18.0
  0
VERTEX
  5
1609
  8
DISTRICTS
 10
645.37320195799998
 20
4665.4128878299998
 30
18.0
  0
VERTEX
  5
160A
  8
DISTRICTS
 10
645.36029762800001
 20
4665.5131264900001
 30
18.0
  0
VERTEX
  5
160B
  8
DISTRICTS
 10
645.41300931399985
 20
4665.6133651600003
 30
18.0
  0
VERTEX
  5
160C
  8
DISTRICTS
 10
645.44444444400006
 20
4665.6433874300001
 30
18.0
  0
VERTEX
  5
160D
  8
DISTRICTS
 10
645.54466230900005
 20
4665.666051019999
 30
18.0
  0
VERTEX
  5
160E
  8
DISTRICTS
 10
645.64488017400004
 20
4665.6579251900002
 30
18.0
  0
VERTEX
  5
160F
  8
DISTRICTS
 10
645.70208567899977
 20
4665.6133651600003
 30
18.0
  0
VERTEX
  5
1610
  8
DISTRICTS
 10
645.74509803899991
 20
4665.54720851
 30
18.0
  0
VERTEX
  5
1611
  8
DISTRICTS
 10
645.78957852500002
 20
4665.5131264900001
 30
18.0
  0
VERTEX
  5
1612
  8
DISTRICTS
 10
645.83561109499965
 20
4665.4128878299998
 30
18.0
  0
VERTEX
  5
1613
  8
DISTRICTS
 10
645.84531590400002
 20
4665.3535906000006
 30
18.0
  0
VERTEX
  5
1614
  8
DISTRICTS
 10
645.87862703799999
 20
4665.4128878299998
 30
18.0
  0
VERTEX
  5
1615
  8
DISTRICTS
 10
645.94553376900001
 20
4665.4501068699992
 30
18.0
  0
VERTEX
  5
1616
  8
DISTRICTS
 10
645.98685237199993
 20
4665.5131264900001
 30
18.0
  0
VERTEX
  5
1617
  8
DISTRICTS
 10
646.04575163399988
 20
4665.5830578300011
 30
18.0
  0
VERTEX
  5
1618
  8
DISTRICTS
 10
646.06341910799995
 20
4665.6133651600003
 30
18.0
  0
VERTEX
  5
1619
  8
DISTRICTS
 10
646.13340477400004
 20
4665.7136038199997
 30
18.0
  0
VERTEX
  5
161A
  8
DISTRICTS
 10
646.14596949899999
 20
4665.7297193699978
 30
18.0
  0
VERTEX
  5
161B
  8
DISTRICTS
 10
646.20363543600001
 20
4665.8138424799999
 30
18.0
  0
VERTEX
  5
161C
  8
DISTRICTS
 10
646.24618736399975
 20
4665.8683933700022
 30
18.0
  0
VERTEX
  5
161D
  8
DISTRICTS
 10
646.28041668499975
 20
4665.9140811500001
 30
18.0
  0
VERTEX
  5
161E
  8
DISTRICTS
 10
646.34640522899986
 20
4665.9929185600004
 30
18.0
  0
VERTEX
  5
161F
  8
DISTRICTS
 10
646.364357724
 20
4666.0143198100004
 30
18.0
  0
VERTEX
  5
1620
  8
DISTRICTS
 10
646.44662309399985
 20
4666.103489170001
 30
18.0
  0
VERTEX
  5
1621
  8
DISTRICTS
 10
646.45706152699995
 20
4666.1145584699998
 30
18.0
  0
VERTEX
  5
1622
  8
DISTRICTS
 10
646.54684095899995
 20
4666.1998336799988
 30
18.0
  0
VERTEX
  5
1623
  8
DISTRICTS
 10
646.56467329999975
 20
4666.21479714
 30
18.0
  0
VERTEX
  5
1624
  8
DISTRICTS
 10
646.64705882400006
 20
4666.2796371200002
 30
18.0
  0
VERTEX
  5
1625
  8
DISTRICTS
 10
646.70681459699995
 20
4666.3150358000003
 30
18.0
  0
VERTEX
  5
1626
  8
DISTRICTS
 10
646.74727668800006
 20
4666.341157949998
 30
18.0
  0
VERTEX
  5
1627
  8
DISTRICTS
 10
646.84749455300005
 20
4666.3924145099991
 30
18.0
  0
VERTEX
  5
1628
  8
DISTRICTS
 10
646.90304455800003
 20
4666.4152744599987
 30
18.0
  0
VERTEX
  5
1629
  8
DISTRICTS
 10
646.94771241800004
 20
4666.4373661099999
 30
18.0
  0
VERTEX
  5
162A
  8
DISTRICTS
 10
647.04793028300003
 20
4666.4805794199992
 30
18.0
  0
VERTEX
  5
162B
  8
DISTRICTS
 10
647.13680514700002
 20
4666.5155131299998
 30
18.0
  0
VERTEX
  5
162C
  8
DISTRICTS
 10
647.14814814800002
 20
4666.52099
 30
18.0
  0
VERTEX
  5
162D
  8
DISTRICTS
 10
647.2483660129999
 20
4666.568656729999
 30
18.0
  0
VERTEX
  5
162E
  8
DISTRICTS
 10
647.33657036800003
 20
4666.6157517900001
 30
18.0
  0
VERTEX
  5
162F
  8
DISTRICTS
 10
647.348583878
 20
4666.62420982
 30
18.0
  0
VERTEX
  5
1630
  8
DISTRICTS
 10
647.44754537699998
 20
4666.7159904500013
 30
18.0
  0
VERTEX
  5
1631
  8
DISTRICTS
 10
647.50378304599985
 20
4666.8162291199997
 30
18.0
  0
VERTEX
  5
1632
  8
DISTRICTS
 10
647.54901960799987
 20
4666.9122635499989
 30
18.0
  0
VERTEX
  5
1633
  8
DISTRICTS
 10
647.58878012699995
 20
4667.0167064400002
 30
18.0
  0
VERTEX
  5
1634
  8
DISTRICTS
 10
647.63974104699992
 20
4667.1169451100004
 30
18.0
  0
VERTEX
  5
1635
  8
DISTRICTS
 10
647.64923747300008
 20
4667.1320217599969
 30
18.0
  0
VERTEX
  5
1636
  8
DISTRICTS
 10
647.696468181
 20
4667.2171837699998
 30
18.0
  0
VERTEX
  5
1637
  8
DISTRICTS
 10
647.74945533799985
 20
4667.2875625400002
 30
18.0
  0
VERTEX
  5
1638
  8
DISTRICTS
 10
647.77150017600002
 20
4667.3174224300001
 30
18.0
  0
VERTEX
  5
1639
  8
DISTRICTS
 10
647.84967320299995
 20
4667.4023427900001
 30
18.0
  0
VERTEX
  5
163A
  8
DISTRICTS
 10
647.86472612999989
 20
4667.4176611000003
 30
18.0
  0
VERTEX
  5
163B
  8
DISTRICTS
 10
647.94989106800006
 20
4667.4930210000011
 30
18.0
  0
VERTEX
  5
163C
  8
DISTRICTS
 10
647.98371340000006
 20
4667.5178997599987
 30
18.0
  0
VERTEX
  5
163D
  8
DISTRICTS
 10
648.05010893199994
 20
4667.5651529099987
 30
18.0
  0
VERTEX
  5
163E
  8
DISTRICTS
 10
648.148099452
 20
4667.618138419999
 30
18.0
  0
VERTEX
  5
163F
  8
DISTRICTS
 10
648.25054466199992
 20
4667.6795434400001
 30
18.0
  0
VERTEX
  5
1640
  8
DISTRICTS
 10
648.30195894300005
 20
4667.7183770899992
 30
18.0
  0
VERTEX
  5
1641
  8
DISTRICTS
 10
648.35076252699992
 20
4667.7497345199999
 30
18.0
  0
VERTEX
  5
1642
  8
DISTRICTS
 10
648.45098039199991
 20
4667.8072693800004
 30
18.0
  0
VERTEX
  5
1643
  8
DISTRICTS
 10
648.53411273499989
 20
4667.8186157500004
 30
18.0
  0
VERTEX
  5
1644
  8
DISTRICTS
 10
648.55119825700001
 20
4667.82205049
 30
18.0
  0
VERTEX
  5
1645
  8
DISTRICTS
 10
648.56458226199993
 20
4667.8186157500004
 30
18.0
  0
VERTEX
  5
1646
  8
DISTRICTS
 10
648.651416122
 20
4667.8026395099969
 30
18.0
  0
VERTEX
  5
1647
  8
DISTRICTS
 10
648.73276709699996
 20
4667.7183770899992
 30
18.0
  0
VERTEX
  5
1648
  8
DISTRICTS
 10
648.74632276800003
 20
4667.618138419999
 30
18.0
  0
VERTEX
  5
1649
  8
DISTRICTS
 10
648.74040561000004
 20
4667.5178997599987
 30
18.0
  0
VERTEX
  5
164A
  8
DISTRICTS
 10
648.71899170899985
 20
4667.4176611000003
 30
18.0
  0
VERTEX
  5
164B
  8
DISTRICTS
 10
648.70324007199963
 20
4667.3174224300001
 30
18.0
  0
VERTEX
  5
164C
  8
DISTRICTS
 10
648.69483565099995
 20
4667.2171837699998
 30
18.0
  0
VERTEX
  5
164D
  8
DISTRICTS
 10
648.68434283699992
 20
4667.1169451100004
 30
18.0
  0
VERTEX
  5
164E
  8
DISTRICTS
 10
648.669993288
 20
4667.0167064400002
 30
18.0
  0
VERTEX
  5
164F
  8
DISTRICTS
 10
648.651416122
 20
4666.9264969100004
 30
18.0
  0
VERTEX
  5
1650
  8
DISTRICTS
 10
648.64982256899998
 20
4666.9164677799999
 30
18.0
  0
VERTEX
  5
1651
  8
DISTRICTS
 10
648.62540889599995
 20
4666.8162291199997
 30
18.0
  0
VERTEX
  5
1652
  8
DISTRICTS
 10
648.58512043999986
 20
4666.7159904500013
 30
18.0
  0
VERTEX
  5
1653
  8
DISTRICTS
 10
648.55119825700001
 20
4666.6546592699979
 30
18.0
  0
VERTEX
  5
1654
  8
DISTRICTS
 10
648.52803294599994
 20
4666.6157517900001
 30
18.0
  0
VERTEX
  5
1655
  8
DISTRICTS
 10
648.45325095500004
 20
4666.5155131299998
 30
18.0
  0
VERTEX
  5
1656
  8
DISTRICTS
 10
648.36518271800003
 20
4666.4152744599987
 30
18.0
  0
VERTEX
  5
1657
  8
DISTRICTS
 10
648.35076252699992
 20
4666.3943984199977
 30
18.0
  0
VERTEX
  5
1658
  8
DISTRICTS
 10
648.28436905599995
 20
4666.3150358000003
 30
18.0
  0
VERTEX
  5
1659
  8
DISTRICTS
 10
648.25054466199992
 20
4666.237237039998
 30
18.0
  0
VERTEX
  5
165A
  8
DISTRICTS
 10
648.24046733900002
 20
4666.21479714
 30
18.0
  0
VERTEX
  5
165B
  8
DISTRICTS
 10
648.23066018600002
 20
4666.1145584699998
 30
18.0
  0
VERTEX
  5
165C
  8
DISTRICTS
 10
648.24073947299996
 20
4666.0143198100004
 30
18.0
  0
VERTEX
  5
165D
  8
DISTRICTS
 10
648.25054466199992
 20
4665.9625481399999
 30
18.0
  0
VERTEX
  5
165E
  8
DISTRICTS
 10
648.25907024200001
 20
4665.9140811500001
 30
18.0
  0
VERTEX
  5
165F
  8
DISTRICTS
 10
648.28011389199992
 20
4665.8138424799999
 30
18.0
  0
VERTEX
  5
1660
  8
DISTRICTS
 10
648.29961615599996
 20
4665.7136038199997
 30
18.0
  0
VERTEX
  5
1661
  8
DISTRICTS
 10
648.31566728899975
 20
4665.6133651600003
 30
18.0
  0
VERTEX
  5
1662
  8
DISTRICTS
 10
648.32734352499995
 20
4665.5131264900001
 30
18.0
  0
VERTEX
  5
1663
  8
DISTRICTS
 10
648.33411926300005
 20
4665.4128878299998
 30
18.0
  0
VERTEX
  5
1664
  8
DISTRICTS
 10
648.33557038499998
 20
4665.3126491599969
 30
18.0
  0
VERTEX
  5
1665
  8
DISTRICTS
 10
648.33119825400001
 20
4665.2124105000003
 30
18.0
  0
VERTEX
  5
1666
  8
DISTRICTS
 10
648.3202661009999
 20
4665.1121718399991
 30
18.0
  0
VERTEX
  5
1667
  8
DISTRICTS
 10
648.30163770299998
 20
4665.011933169998
 30
18.0
  0
VERTEX
  5
1668
  8
DISTRICTS
 10
648.27365212799975
 20
4664.9116945100004
 30
18.0
  0
VERTEX
  5
1669
  8
DISTRICTS
 10
648.25054466199992
 20
4664.8516326199988
 30
18.0
  0
VERTEX
  5
166A
  8
DISTRICTS
 10
648.23667893800007
 20
4664.8114558500001
 30
18.0
  0
VERTEX
  5
166B
  8
DISTRICTS
 10
648.19019330399965
 20
4664.7112171799999
 30
18.0
  0
VERTEX
  5
166C
  8
DISTRICTS
 10
648.15032679699993
 20
4664.6458102899969
 30
18.0
  0
VERTEX
  5
166D
  8
DISTRICTS
 10
648.12947511000004
 20
4664.6109785199978
 30
18.0
  0
VERTEX
  5
166E
  8
DISTRICTS
 10
648.05256452000003
 20
4664.5107398600003
 30
18.0
  0
VERTEX
  5
166F
  8
DISTRICTS
 10
647.955647957
 20
4664.4105011900001
 30
18.0
  0
VERTEX
  5
1670
  8
DISTRICTS
 10
647.84967320299995
 20
4664.3252213699998
 30
18.0
  0
VERTEX
  5
1671
  8
DISTRICTS
 10
647.82647763599994
 20
4664.3102625299989
 30
18.0
  0
VERTEX
  5
1672
  8
DISTRICTS
 10
647.74945533799985
 20
4664.2620028299998
 30
18.0
  0
VERTEX
  5
1673
  8
DISTRICTS
 10
647.64923747300008
 20
4664.2152644899998
 30
18.0
  0
VERTEX
  5
1674
  8
DISTRICTS
 10
647.63428537100003
 20
4664.2100238700004
 30
18.0
  0
VERTEX
  5
1675
  8
DISTRICTS
 10
647.54901960799987
 20
4664.1778298199979
 30
18.0
  0
VERTEX
  5
1676
  8
DISTRICTS
 10
647.44880174299965
 20
4664.15219566
 30
18.0
  0
VERTEX
  5
1677
  8
DISTRICTS
 10
647.348583878
 20
4664.1372764400003
 30
18.0
  0
VERTEX
  5
1678
  8
DISTRICTS
 10
647.2483660129999
 20
4664.1317432899978
 30
18.0
  0
VERTEX
  5
1679
  8
DISTRICTS
 10
647.14814814800002
 20
4664.1350196900003
 30
18.0
  0
VERTEX
  5
167A
  8
DISTRICTS
 10
647.04793028300003
 20
4664.1472510499998
 30
18.0
  0
VERTEX
  5
167B
  8
DISTRICTS
 10
646.94771241800004
 20
4664.1691833200011
 30
18.0
  0
VERTEX
  5
167C
  8
DISTRICTS
 10
646.84749455300005
 20
4664.2019655499998
 30
18.0
  0
SEQEND
  5
167D
  8
DISTRICTS
  0
POLYLINE
  5
7E2
  8
DISTRICTS
 66
     1
 10
0.0
 20
0.0
 30
17.0
 70
     1
  0
VERTEX
  5
167E
  8
DISTRICTS
 10
651.09179123699994
 20
4672.8305489300001
 30
17.0
  0
VERTEX
  5
167F
  8
DISTRICTS
 10
651.1568627449999
 20
4672.8846276999993
 30
17.0
  0
VERTEX
  5
1680
  8
DISTRICTS
 10
651.23961228300004
 20
4672.9307875900004
 30
17.0
  0
VERTEX
  5
1681
  8
DISTRICTS
 10
651.25708061
 20
4672.9365558700001
 30
17.0
  0
VERTEX
  5
1682
  8
DISTRICTS
 10
651.35729847499965
 20
4672.9710805900004
 30
17.0
  0
VERTEX
  5
1683
  8
DISTRICTS
 10
651.45751633999987
 20
4673.0076018999998
 30
17.0
  0
VERTEX
  5
1684
  8
DISTRICTS
 10
651.51341326900001
 20
4673.0310262499997
 30
17.0
  0
VERTEX
  5
1685
  8
DISTRICTS
 10
651.55773420499997
 20
4673.0457655700002
 30
17.0
  0
VERTEX
  5
1686
  8
DISTRICTS
 10
651.65795206999985
 20
4673.0864305900004
 30
17.0
  0
VERTEX
  5
1687
  8
DISTRICTS
 10
651.74813085000005
 20
4673.1312649199999
 30
17.0
  0
VERTEX
  5
1688
  8
DISTRICTS
 10
651.75816993499996
 20
4673.1355603499997
 30
17.0
  0
VERTEX
  5
1689
  8
DISTRICTS
 10
651.85838779999995
 20
4673.1874395699988
 30
17.0
  0
VERTEX
  5
168A
  8
DISTRICTS
 10
651.92672220099985
 20
4673.2315035800011
 30
17.0
  0
VERTEX
  5
168B
  8
DISTRICTS
 10
651.95860566399995
 20
4673.25037797
 30
17.0
  0
VERTEX
  5
168C
  8
DISTRICTS
 10
652.05882352900005
 20
4673.324264609997
 30
17.0
  0
VERTEX
  5
168D
  8
DISTRICTS
 10
652.06743767099965
 20
4673.3317422399996
 30
17.0
  0
VERTEX
  5
168E
  8
DISTRICTS
 10
652.15904139400004
 20
4673.4115606699988
 30
17.0
  0
VERTEX
  5
168F
  8
DISTRICTS
 10
652.17873640799985
 20
4673.4319809099998
 30
17.0
  0
VERTEX
  5
1690
  8
DISTRICTS
 10
652.25925925900003
 20
4673.5221166000001
 30
17.0
  0
VERTEX
  5
1691
  8
DISTRICTS
 10
652.267193991
 20
4673.5322195700001
 30
17.0
  0
VERTEX
  5
1692
  8
DISTRICTS
 10
652.33802076899985
 20
4673.6324582300012
 30
17.0
  0
VERTEX
  5
1693
  8
DISTRICTS
 10
652.35947712399991
 20
4673.6703154099978
 30
17.0
  0
VERTEX
  5
1694
  8
DISTRICTS
 10
652.39347027899998
 20
4673.7326968999987
 30
17.0
  0
VERTEX
  5
1695
  8
DISTRICTS
 10
652.43488414800004
 20
4673.8329355599999
 30
17.0
  0
VERTEX
  5
1696
  8
DISTRICTS
 10
652.45969498900001
 20
4673.9233925400003
 30
17.0
  0
VERTEX
  5
1697
  8
DISTRICTS
 10
652.46259640800008
 20
4673.9331742200002
 30
17.0
  0
VERTEX
  5
1698
  8
DISTRICTS
 10
652.48189821599999
 20
4674.0334128900004
 30
17.0
  0
VERTEX
  5
1699
  8
DISTRICTS
 10
652.48925631899976
 20
4674.1336515499997
 30
17.0
  0
VERTEX
  5
169A
  8
DISTRICTS
 10
652.48508728499996
 20
4674.23389021
 30
17.0
  0
VERTEX
  5
169B
  8
DISTRICTS
 10
652.46883135400003
 20
4674.3341288800002
 30
17.0
  0
VERTEX
  5
169C
  8
DISTRICTS
 10
652.45969498900001
 20
4674.3663451599996
 30
17.0
  0
VERTEX
  5
169D
  8
DISTRICTS
 10
652.44269871400002
 20
4674.4343675399987
 30
17.0
  0
VERTEX
  5
169E
  8
DISTRICTS
 10
652.40351952299966
 20
4674.5346062099989
 30
17.0
  0
VERTEX
  5
169F
  8
DISTRICTS
 10
652.35947712399991
 20
4674.6131884500001
 30
17.0
  0
VERTEX
  5
16A0
  8
DISTRICTS
 10
652.34723393199999
 20
4674.6348448700001
 30
17.0
  0
VERTEX
  5
16A1
  8
DISTRICTS
 10
652.27350307499978
 20
4674.7350835300003
 30
17.0
  0
VERTEX
  5
16A2
  8
DISTRICTS
 10
652.25925925900003
 20
4674.7514263100002
 30
17.0
  0
VERTEX
  5
16A3
  8
DISTRICTS
 10
652.17403540199984
 20
4674.8353221999978
 30
17.0
  0
VERTEX
  5
16A4
  8
DISTRICTS
 10
652.15904139400004
 20
4674.8486188400002
 30
17.0
  0
VERTEX
  5
16A5
  8
DISTRICTS
 10
652.05882352900005
 20
4674.9210103900023
 30
17.0
  0
VERTEX
  5
16A6
  8
DISTRICTS
 10
652.03144533199998
 20
4674.9355608599981
 30
17.0
  0
VERTEX
  5
16A7
  8
DISTRICTS
 10
651.95860566399995
 20
4674.9758996899991
 30
17.0
  0
VERTEX
  5
16A8
  8
DISTRICTS
 10
651.85838779999995
 20
4675.0142287799999
 30
17.0
  0
VERTEX
  5
16A9
  8
DISTRICTS
 10
651.76803683399964
 20
4675.0357995200002
 30
17.0
  0
VERTEX
  5
16AA
  8
DISTRICTS
 10
651.75816993499996
 20
4675.03855286
 30
17.0
  0
VERTEX
  5
16AB
  8
DISTRICTS
 10
651.65795206999985
 20
4675.0544266500001
 30
17.0
  0
VERTEX
  5
16AC
  8
DISTRICTS
 10
651.55773420499997
 20
4675.0584634899997
 30
17.0
  0
VERTEX
  5
16AD
  8
DISTRICTS
 10
651.45751633999987
 20
4675.0513250000004
 30
17.0
  0
VERTEX
  5
16AE
  8
DISTRICTS
 10
651.37299233699991
 20
4675.0357995200002
 30
17.0
  0
VERTEX
  5
16AF
  8
DISTRICTS
 10
651.35729847499965
 20
4675.0332502199999
 30
17.0
  0
VERTEX
  5
16B0
  8
DISTRICTS
 10
651.25708061
 20
4675.0069437700004
 30
17.0
  0
VERTEX
  5
16B1
  8
DISTRICTS
 10
651.1568627449999
 20
4674.9671526299981
 30
17.0
  0
VERTEX
  5
16B2
  8
DISTRICTS
 10
651.09638577500004
 20
4674.9355608599981
 30
17.0
  0
VERTEX
  5
16B3
  8
DISTRICTS
 10
651.05664488000002
 20
4674.9141099199978
 30
17.0
  0
VERTEX
  5
16B4
  8
DISTRICTS
 10
650.95642701500003
 20
4674.84598353
 30
17.0
  0
VERTEX
  5
16B5
  8
DISTRICTS
 10
650.94253464300004
 20
4674.8353221999978
 30
17.0
  0
VERTEX
  5
16B6
  8
DISTRICTS
 10
650.85620915000004
 20
4674.7599395099987
 30
17.0
  0
VERTEX
  5
16B7
  8
DISTRICTS
 10
650.83033102900004
 20
4674.7350835300003
 30
17.0
  0
VERTEX
  5
16B8
  8
DISTRICTS
 10
650.75599128500005
 20
4674.6489212899987
 30
17.0
  0
VERTEX
  5
16B9
  8
DISTRICTS
 10
650.74406910200003
 20
4674.6348448700001
 30
17.0
  0
VERTEX
  5
16BA
  8
DISTRICTS
 10
650.67411139000001
 20
4674.5346062099989
 30
17.0
  0
VERTEX
  5
16BB
  8
DISTRICTS
 10
650.65577341999995
 20
4674.5003650199997
 30
17.0
  0
VERTEX
  5
16BC
  8
DISTRICTS
 10
650.61742818100004
 20
4674.4343675399987
 30
17.0
  0
VERTEX
  5
16BD
  8
DISTRICTS
 10
650.57339540800001
 20
4674.3341288800002
 30
17.0
  0
VERTEX
  5
16BE
  8
DISTRICTS
 10
650.55555555599994
 20
4674.2791849400001
 30
17.0
  0
VERTEX
  5
16BF
  8
DISTRICTS
 10
650.538380577
 20
4674.23389021
 30
17.0
  0
VERTEX
  5
16C0
  8
DISTRICTS
 10
650.51041787599991
 20
4674.1336515499997
 30
17.0
  0
VERTEX
  5
16C1
  8
DISTRICTS
 10
650.49130361599975
 20
4674.0334128900004
 30
17.0
  0
VERTEX
  5
16C2
  8
DISTRICTS
 10
650.47941432200003
 20
4673.9331742200002
 30
17.0
  0
VERTEX
  5
16C3
  8
DISTRICTS
 10
650.47361098500005
 20
4673.8329355599999
 30
17.0
  0
VERTEX
  5
16C4
  8
DISTRICTS
 10
650.47309721199986
 20
4673.7326968999987
 30
17.0
  0
VERTEX
  5
16C5
  8
DISTRICTS
 10
650.47722911199992
 20
4673.6324582300012
 30
17.0
  0
VERTEX
  5
16C6
  8
DISTRICTS
 10
650.48521492700002
 20
4673.5322195700001
 30
17.0
  0
VERTEX
  5
16C7
  8
DISTRICTS
 10
650.49549391000005
 20
4673.4319809099998
 30
17.0
  0
VERTEX
  5
16C8
  8
DISTRICTS
 10
650.50431416399977
 20
4673.3317422399996
 30
17.0
  0
VERTEX
  5
16C9
  8
DISTRICTS
 10
650.50250949700001
 20
4673.2315035800011
 30
17.0
  0
SEQEND
  5
16CA
  8
DISTRICTS
  0
POLYLINE
  5
830
  8
DISTRICTS
 66
     1
 10
0.0
 20
0.0
 30
16.0
 70
     1
  0
VERTEX
  5
16CB
  8
DISTRICTS
 10
651.09179123699994
 20
4672.8305489300001
 30
16.0
  0
VERTEX
  5
16CC
  8
DISTRICTS
 10
651.05502381600002
 20
4672.730310259999
 30
16.0
  0
VERTEX
  5
16CD
  8
DISTRICTS
 10
651.05169726600002
 20
4672.6300715999987
 30
16.0
  0
VERTEX
  5
16CE
  8
DISTRICTS
 10
651.05457533200001
 20
4672.5298329400002
 30
16.0
  0
VERTEX
  5
16CF
  8
DISTRICTS
 10
651.05452186299988
 20
4672.4295942700001
 30
16.0
  0
VERTEX
  5
16D0
  8
DISTRICTS
 10
651.04755080400002
 20
4672.3293556099989
 30
16.0
  0
VERTEX
  5
16D1
  8
DISTRICTS
 10
651.03001790600001
 20
4672.2291169500004
 30
16.0
  0
VERTEX
  5
16D2
  8
DISTRICTS
 10
650.99577633699994
 20
4672.1288782800002
 30
16.0
  0
VERTEX
  5
16D3
  8
DISTRICTS
 10
650.95642701500003
 20
4672.0595341899971
 30
16.0
  0
VERTEX
  5
16D4
  8
DISTRICTS
 10
650.94051112699992
 20
4672.0286396199999
 30
16.0
  0
VERTEX
  5
16D5
  8
DISTRICTS
 10
650.85620915000004
 20
4671.9262304599997
 30
16.0
  0
VERTEX
  5
16D6
  8
DISTRICTS
 10
650.75599128500005
 20
4671.8419216700004
 30
16.0
  0
VERTEX
  5
16D7
  8
DISTRICTS
 10
650.73099016599997
 20
4671.8281622900004
 30
16.0
  0
VERTEX
  5
16D8
  8
DISTRICTS
 10
650.65577341999995
 20
4671.7833803900003
 30
16.0
  0
VERTEX
  5
16D9
  8
DISTRICTS
 10
650.55555555599994
 20
4671.7447219300002
 30
16.0
  0
VERTEX
  5
16DA
  8
DISTRICTS
 10
650.49523761900002
 20
4671.7279236300001
 30
16.0
  0
VERTEX
  5
16DB
  8
DISTRICTS
 10
650.45533769099995
 20
4671.7134336799991
 30
16.0
  0
VERTEX
  5
16DC
  8
DISTRICTS
 10
650.35511982599985
 20
4671.671515609999
 30
16.0
  0
VERTEX
  5
16DD
  8
DISTRICTS
 10
650.31204856500017
 20
4671.627684959999
 30
16.0
  0
VERTEX
  5
16DE
  8
DISTRICTS
 10
650.25490196099986
 20
4671.5919061100003
 30
16.0
  0
VERTEX
  5
16DF
  8
DISTRICTS
 10
650.15468409599976
 20
4671.6143884499998
 30
16.0
  0
VERTEX
  5
16E0
  8
DISTRICTS
 10
650.12071097800003
 20
4671.627684959999
 30
16.0
  0
VERTEX
  5
16E1
  8
DISTRICTS
 10
650.05446623099999
 20
4671.6519664899979
 30
16.0
  0
VERTEX
  5
16E2
  8
DISTRICTS
 10
649.97379531800004
 20
4671.7279236300001
 30
16.0
  0
VERTEX
  5
16E3
  8
DISTRICTS
 10
649.95424836599989
 20
4671.799919979997
 30
16.0
  0
VERTEX
  5
16E4
  8
DISTRICTS
 10
649.93474507799999
 20
4671.8281622900004
 30
16.0
  0
VERTEX
  5
16E5
  8
DISTRICTS
 10
649.885891152
 20
4671.928400949997
 30
16.0
  0
VERTEX
  5
16E6
  8
DISTRICTS
 10
649.85403050100001
 20
4672.00813681
 30
16.0
  0
VERTEX
  5
16E7
  8
DISTRICTS
 10
649.84330919800004
 20
4672.0286396199999
 30
16.0
  0
VERTEX
  5
16E8
  8
DISTRICTS
 10
649.80874683499985
 20
4672.1288782800002
 30
16.0
  0
VERTEX
  5
16E9
  8
DISTRICTS
 10
649.79436796899995
 20
4672.2291169500004
 30
16.0
  0
VERTEX
  5
16EA
  8
DISTRICTS
 10
649.79697405900004
 20
4672.3293556099989
 30
16.0
  0
VERTEX
  5
16EB
  8
DISTRICTS
 10
649.81672822999985
 20
4672.4295942700001
 30
16.0
  0
VERTEX
  5
16EC
  8
DISTRICTS
 10
649.85705899000004
 20
4672.5298329400002
 30
16.0
  0
VERTEX
  5
16ED
  8
DISTRICTS
 10
649.909411374
 20
4672.6300715999987
 30
16.0
  0
VERTEX
  5
16EE
  8
DISTRICTS
 10
649.95424836599989
 20
4672.68834599
 30
16.0
  0
VERTEX
  5
16EF
  8
DISTRICTS
 10
649.98710192999999
 20
4672.730310259999
 30
16.0
  0
VERTEX
  5
16F0
  8
DISTRICTS
 10
650.05446623099999
 20
4672.8005146200003
 30
16.0
  0
VERTEX
  5
16F1
  8
DISTRICTS
 10
650.088791861
 20
4672.8305489300001
 30
16.0
  0
VERTEX
  5
16F2
  8
DISTRICTS
 10
650.15468409599976
 20
4672.8877382399996
 30
16.0
  0
VERTEX
  5
16F3
  8
DISTRICTS
 10
650.21893183899999
 20
4672.9307875900004
 30
16.0
  0
VERTEX
  5
16F4
  8
DISTRICTS
 10
650.25490196099986
 20
4672.9596576599979
 30
16.0
  0
VERTEX
  5
16F5
  8
DISTRICTS
 10
650.35511982599985
 20
4673.0256934500003
 30
16.0
  0
VERTEX
  5
16F6
  8
DISTRICTS
 10
650.36495692400001
 20
4673.0310262499997
 30
16.0
  0
VERTEX
  5
16F7
  8
DISTRICTS
 10
650.45533769099995
 20
4673.1180682499989
 30
16.0
  0
VERTEX
  5
16F8
  8
DISTRICTS
 10
650.46779375300002
 20
4673.1312649199999
 30
16.0
  0
VERTEX
  5
16F9
  8
DISTRICTS
 10
650.50250949700001
 20
4673.2315035800011
 30
16.0
  0
SEQEND
  5
16FA
  8
DISTRICTS
  0
POLYLINE
  5
861
  8
DISTRICTS
 66
     1
 10
0.0
 20
0.0
 30
15.0
 70
     1
  0
VERTEX
  5
16FB
  8
DISTRICTS
 10
647.30516222999995
 20
4670.7255369900004
 30
15.0
  0
VERTEX
  5
16FC
  8
DISTRICTS
 10
647.2483660129999
 20
4670.7823054199998
 30
15.0
  0
VERTEX
  5
16FD
  8
DISTRICTS
 10
647.20176350700001
 20
4670.8257756599996
 30
15.0
  0
VERTEX
  5
16FE
  8
DISTRICTS
 10
647.14814814800002
 20
4670.8910925500004
 30
15.0
  0
VERTEX
  5
16FF
  8
DISTRICTS
 10
647.11741563299995
 20
4670.926014319999
 30
15.0
  0
VERTEX
  5
1700
  8
DISTRICTS
 10
647.05087442199988
 20
4671.0262529800002
 30
15.0
  0
VERTEX
  5
1701
  8
DISTRICTS
 10
646.99084255800005
 20
4671.1264916500004
 30
15.0
  0
VERTEX
  5
1702
  8
DISTRICTS
 10
646.94771241800004
 20
4671.2241417200003
 30
15.0
  0
VERTEX
  5
1703
  8
DISTRICTS
 10
646.90199897000002
 20
4671.3269689699991
 30
15.0
  0
VERTEX
  5
1704
  8
DISTRICTS
 10
646.86807452199992
 20
4671.4272076399993
 30
15.0
  0
VERTEX
  5
1705
  8
DISTRICTS
 10
646.84749455300005
 20
4671.5148277199987
 30
15.0
  0
VERTEX
  5
1706
  8
DISTRICTS
 10
646.84320577300002
 20
4671.5274462999978
 30
15.0
  0
VERTEX
  5
1707
  8
DISTRICTS
 10
646.82694226499984
 20
4671.627684959999
 30
15.0
  0
VERTEX
  5
1708
  8
DISTRICTS
 10
646.824525687
 20
4671.7279236300001
 30
15.0
  0
VERTEX
  5
1709
  8
DISTRICTS
 10
646.83913927000003
 20
4671.8281622900004
 30
15.0
  0
VERTEX
  5
170A
  8
DISTRICTS
 10
646.84749455300005
 20
4671.8502155300012
 30
15.0
  0
VERTEX
  5
170B
  8
DISTRICTS
 10
646.87349627000003
 20
4671.928400949997
 30
15.0
  0
VERTEX
  5
170C
  8
DISTRICTS
 10
646.94771241800004
 20
4672.0212019099999
 30
15.0
  0
VERTEX
  5
170D
  8
DISTRICTS
 10
647.04793028300003
 20
4672.1068122200004
 30
15.0
  0
VERTEX
  5
170E
  8
DISTRICTS
 10
647.07688399499978
 20
4672.1288782800002
 30
15.0
  0
VERTEX
  5
170F
  8
DISTRICTS
 10
647.14814814800002
 20
4672.17033403
 30
15.0
  0
VERTEX
  5
1710
  8
DISTRICTS
 10
647.2483660129999
 20
4672.2187292199987
 30
15.0
  0
VERTEX
  5
1711
  8
DISTRICTS
 10
647.27398426800016
 20
4672.2291169500004
 30
15.0
  0
VERTEX
  5
1712
  8
DISTRICTS
 10
647.348583878
 20
4672.2575251300004
 30
15.0
  0
VERTEX
  5
1713
  8
DISTRICTS
 10
647.44880174299965
 20
4672.286670720001
 30
15.0
  0
VERTEX
  5
1714
  8
DISTRICTS
 10
647.54901960799987
 20
4672.3063012099992
 30
15.0
  0
VERTEX
  5
1715
  8
DISTRICTS
 10
647.64923747300008
 20
4672.3178521500004
 30
15.0
  0
VERTEX
  5
1716
  8
DISTRICTS
 10
647.74945533799985
 20
4672.32222508
 30
15.0
  0
VERTEX
  5
1717
  8
DISTRICTS
 10
647.84967320299995
 20
4672.3198189000013
 30
15.0
  0
VERTEX
  5
1718
  8
DISTRICTS
 10
647.94989106800006
 20
4672.3105445700012
 30
15.0
  0
VERTEX
  5
1719
  8
DISTRICTS
 10
648.05010893199994
 20
4672.293848039998
 30
15.0
  0
VERTEX
  5
171A
  8
DISTRICTS
 10
648.15032679699993
 20
4672.2686213099969
 30
15.0
  0
VERTEX
  5
171B
  8
DISTRICTS
 10
648.25054466199992
 20
4672.2319344400003
 30
15.0
  0
VERTEX
  5
171C
  8
DISTRICTS
 10
648.35076252699992
 20
4672.1890332299999
 30
15.0
  0
VERTEX
  5
171D
  8
DISTRICTS
 10
648.43666755000004
 20
4672.1288782800002
 30
15.0
  0
VERTEX
  5
171E
  8
DISTRICTS
 10
648.45098039199991
 20
4672.1181667099991
 30
15.0
  0
VERTEX
  5
171F
  8
DISTRICTS
 10
648.54302767900003
 20
4672.0286396199999
 30
15.0
  0
VERTEX
  5
1720
  8
DISTRICTS
 10
648.55119825700001
 20
4672.0189623300012
 30
15.0
  0
VERTEX
  5
1721
  8
DISTRICTS
 10
648.61883174299987
 20
4671.928400949997
 30
15.0
  0
VERTEX
  5
1722
  8
DISTRICTS
 10
648.651416122
 20
4671.8611425400004
 30
15.0
  0
VERTEX
  5
1723
  8
DISTRICTS
 10
648.66773741899999
 20
4671.8281622900004
 30
15.0
  0
VERTEX
  5
1724
  8
DISTRICTS
 10
648.69905036900002
 20
4671.7279236300001
 30
15.0
  0
VERTEX
  5
1725
  8
DISTRICTS
 10
648.71005783600003
 20
4671.627684959999
 30
15.0
  0
VERTEX
  5
1726
  8
DISTRICTS
 10
648.70363485099995
 20
4671.5274462999978
 30
15.0
  0
VERTEX
  5
1727
  8
DISTRICTS
 10
648.67924898299998
 20
4671.4272076399993
 30
15.0
  0
VERTEX
  5
1728
  8
DISTRICTS
 10
648.651416122
 20
4671.3617121500001
 30
15.0
  0
VERTEX
  5
1729
  8
DISTRICTS
 10
648.63777024199999
 20
4671.3269689699991
 30
15.0
  0
VERTEX
  5
172A
  8
DISTRICTS
 10
648.57976025899995
 20
4671.2267303099989
 30
15.0
  0
VERTEX
  5
172B
  8
DISTRICTS
 10
648.55119825700001
 20
4671.1882025100003
 30
15.0
  0
VERTEX
  5
172C
  8
DISTRICTS
 10
648.50161653199984
 20
4671.1264916500004
 30
15.0
  0
VERTEX
  5
172D
  8
DISTRICTS
 10
648.45098039199991
 20
4671.0724109499988
 30
15.0
  0
VERTEX
  5
172E
  8
DISTRICTS
 10
648.40170533200001
 20
4671.0262529800002
 30
15.0
  0
VERTEX
  5
172F
  8
DISTRICTS
 10
648.35076252699992
 20
4670.9815886000006
 30
15.0
  0
VERTEX
  5
1730
  8
DISTRICTS
 10
648.27621120499975
 20
4670.926014319999
 30
15.0
  0
VERTEX
  5
1731
  8
DISTRICTS
 10
648.25054466199992
 20
4670.9072357799969
 30
15.0
  0
VERTEX
  5
1732
  8
DISTRICTS
 10
648.15032679699993
 20
4670.84384262
 30
15.0
  0
VERTEX
  5
1733
  8
DISTRICTS
 10
648.11627792599995
 20
4670.8257756599996
 30
15.0
  0
VERTEX
  5
1734
  8
DISTRICTS
 10
648.05010893199994
 20
4670.7894547200003
 30
15.0
  0
VERTEX
  5
1735
  8
DISTRICTS
 10
647.94989106800006
 20
4670.7446390300001
 30
15.0
  0
VERTEX
  5
1736
  8
DISTRICTS
 10
647.89563128299994
 20
4670.7255369900004
 30
15.0
  0
VERTEX
  5
1737
  8
DISTRICTS
 10
647.84967320299995
 20
4670.7078799999999
 30
15.0
  0
VERTEX
  5
1738
  8
DISTRICTS
 10
647.74945533799985
 20
4670.6787584499998
 30
15.0
  0
VERTEX
  5
1739
  8
DISTRICTS
 10
647.64923747300008
 20
4670.6615163200004
 30
15.0
  0
VERTEX
  5
173A
  8
DISTRICTS
 10
647.54901960799987
 20
4670.6546174799987
 30
15.0
  0
VERTEX
  5
173B
  8
DISTRICTS
 10
647.44880174299965
 20
4670.6519886599999
 30
15.0
  0
VERTEX
  5
173C
  8
DISTRICTS
 10
647.348583878
 20
4670.6947205500001
 30
15.0
  0
SEQEND
  5
173D
  8
DISTRICTS
  0
POLYLINE
  5
8A5
  8
DISTRICTS
 66
     1
 10
0.0
 20
0.0
 30
14.0
 70
     1
  0
VERTEX
  5
173E
  8
DISTRICTS
 10
644.94142760099965
 20
4671.627684959999
 30
14.0
  0
VERTEX
  5
173F
  8
DISTRICTS
 10
644.84313725499987
 20
4671.6700203199989
 30
14.0
  0
VERTEX
  5
1740
  8
DISTRICTS
 10
644.74291938999966
 20
4671.7264780300002
 30
14.0
  0
VERTEX
  5
1741
  8
DISTRICTS
 10
644.64270152500001
 20
4671.7925967900001
 30
14.0
  0
VERTEX
  5
1742
  8
DISTRICTS
 10
644.59540086800007
 20
4671.8281622900004
 30
14.0
  0
VERTEX
  5
1743
  8
DISTRICTS
 10
644.5424836599999
 20
4671.8732286799977
 30
14.0
  0
VERTEX
  5
1744
  8
DISTRICTS
 10
644.48095286800003
 20
4671.928400949997
 30
14.0
  0
VERTEX
  5
1745
  8
DISTRICTS
 10
644.44226579500003
 20
4671.9698332400012
 30
14.0
  0
VERTEX
  5
1746
  8
DISTRICTS
 10
644.38598029900004
 20
4672.0286396199999
 30
14.0
  0
VERTEX
  5
1747
  8
DISTRICTS
 10
644.34204793000004
 20
4672.0858601399996
 30
14.0
  0
VERTEX
  5
1748
  8
DISTRICTS
 10
644.30560409999998
 20
4672.1288782800002
 30
14.0
  0
VERTEX
  5
1749
  8
DISTRICTS
 10
644.24183006500004
 20
4672.2253132100022
 30
14.0
  0
VERTEX
  5
174A
  8
DISTRICTS
 10
644.17598713799998
 20
4672.3293556099989
 30
14.0
  0
VERTEX
  5
174B
  8
DISTRICTS
 10
644.14161220000005
 20
4672.4041207099999
 30
14.0
  0
VERTEX
  5
174C
  8
DISTRICTS
 10
644.12576209999997
 20
4672.4295942700001
 30
14.0
  0
VERTEX
  5
174D
  8
DISTRICTS
 10
644.08016732400006
 20
4672.5298329400002
 30
14.0
  0
VERTEX
  5
174E
  8
DISTRICTS
 10
644.04968731600002
 20
4672.6300715999987
 30
14.0
  0
VERTEX
  5
174F
  8
DISTRICTS
 10
644.04139433599994
 20
4672.6844811499986
 30
14.0
  0
VERTEX
  5
1750
  8
DISTRICTS
 10
644.02893126100003
 20
4672.730310259999
 30
14.0
  0
VERTEX
  5
1751
  8
DISTRICTS
 10
644.02925036400006
 20
4672.8305489300001
 30
14.0
  0
VERTEX
  5
1752
  8
DISTRICTS
 10
644.04139433599994
 20
4672.8660482200003
 30
14.0
  0
VERTEX
  5
1753
  8
DISTRICTS
 10
644.05623645499975
 20
4672.9307875900004
 30
14.0
  0
VERTEX
  5
1754
  8
DISTRICTS
 10
644.10992310099994
 20
4673.0310262499997
 30
14.0
  0
VERTEX
  5
1755
  8
DISTRICTS
 10
644.14161220000005
 20
4673.0659018599999
 30
14.0
  0
VERTEX
  5
1756
  8
DISTRICTS
 10
644.18865162700001
 20
4673.1312649199999
 30
14.0
  0
VERTEX
  5
1757
  8
DISTRICTS
 10
644.24183006500004
 20
4673.1819628599997
 30
14.0
  0
VERTEX
  5
1758
  8
DISTRICTS
 10
644.28822359900005
 20
4673.2315035800011
 30
14.0
  0
VERTEX
  5
1759
  8
DISTRICTS
 10
644.34204793000004
 20
4673.2755527400004
 30
14.0
  0
VERTEX
  5
175A
  8
DISTRICTS
 10
644.40960249400007
 20
4673.3317422399996
 30
14.0
  0
VERTEX
  5
175B
  8
DISTRICTS
 10
644.44226579500003
 20
4673.3542706199987
 30
14.0
  0
VERTEX
  5
175C
  8
DISTRICTS
 10
644.5424836599999
 20
4673.4207185900004
 30
14.0
  0
VERTEX
  5
175D
  8
DISTRICTS
 10
644.56082339800003
 20
4673.4319809099998
 30
14.0
  0
VERTEX
  5
175E
  8
DISTRICTS
 10
644.64270152500001
 20
4673.4775696300012
 30
14.0
  0
VERTEX
  5
175F
  8
DISTRICTS
 10
644.74291938999966
 20
4673.5233201499987
 30
14.0
  0
VERTEX
  5
1760
  8
DISTRICTS
 10
644.76597556299998
 20
4673.5322195700001
 30
14.0
  0
VERTEX
  5
1761
  8
DISTRICTS
 10
644.84313725499987
 20
4673.5617372099996
 30
14.0
  0
VERTEX
  5
1762
  8
DISTRICTS
 10
644.94335511999998
 20
4673.5912264500012
 30
14.0
  0
VERTEX
  5
1763
  8
DISTRICTS
 10
645.04357298499986
 20
4673.6115894499999
 30
14.0
  0
VERTEX
  5
1764
  8
DISTRICTS
 10
645.14379084999985
 20
4673.6237529800001
 30
14.0
  0
VERTEX
  5
1765
  8
DISTRICTS
 10
645.24400871499995
 20
4673.6284204499998
 30
14.0
  0
VERTEX
  5
1766
  8
DISTRICTS
 10
645.34422658000005
 20
4673.62591565
 30
14.0
  0
VERTEX
  5
1767
  8
DISTRICTS
 10
645.44444444400006
 20
4673.6160876200001
 30
14.0
  0
VERTEX
  5
1768
  8
DISTRICTS
 10
645.54466230900005
 20
4673.598287939999
 30
14.0
  0
VERTEX
  5
1769
  8
DISTRICTS
 10
645.64488017400004
 20
4673.5714396000003
 30
14.0
  0
VERTEX
  5
176A
  8
DISTRICTS
 10
645.74509803899991
 20
4673.5342078399999
 30
14.0
  0
VERTEX
  5
176B
  8
DISTRICTS
 10
645.84531590400002
 20
4673.4912385899988
 30
14.0
  0
VERTEX
  5
176C
  8
DISTRICTS
 10
645.94553376900001
 20
4673.4321723000003
 30
14.0
  0
VERTEX
  5
176D
  8
DISTRICTS
 10
646.04575163399988
 20
4673.35948138
 30
14.0
  0
VERTEX
  5
176E
  8
DISTRICTS
 10
646.07686328299985
 20
4673.3317422399996
 30
14.0
  0
VERTEX
  5
176F
  8
DISTRICTS
 10
646.14596949899999
 20
4673.2665224999992
 30
14.0
  0
VERTEX
  5
1770
  8
DISTRICTS
 10
646.17955213300002
 20
4673.2315035800011
 30
14.0
  0
VERTEX
  5
1771
  8
DISTRICTS
 10
646.24618736399975
 20
4673.1524089799996
 30
14.0
  0
VERTEX
  5
1772
  8
DISTRICTS
 10
646.26357645599978
 20
4673.1312649199999
 30
14.0
  0
VERTEX
  5
1773
  8
DISTRICTS
 10
646.33363331400005
 20
4673.0310262499997
 30
14.0
  0
VERTEX
  5
1774
  8
DISTRICTS
 10
646.34640522899986
 20
4673.0082590100001
 30
14.0
  0
VERTEX
  5
1775
  8
DISTRICTS
 10
646.39332380400003
 20
4672.9307875900004
 30
14.0
  0
VERTEX
  5
1776
  8
DISTRICTS
 10
646.43974732300001
 20
4672.8305489300001
 30
14.0
  0
VERTEX
  5
1777
  8
DISTRICTS
 10
646.44662309399985
 20
4672.811177409998
 30
14.0
  0
VERTEX
  5
1778
  8
DISTRICTS
 10
646.48091503900002
 20
4672.730310259999
 30
14.0
  0
VERTEX
  5
1779
  8
DISTRICTS
 10
646.51286556100001
 20
4672.6300715999987
 30
14.0
  0
VERTEX
  5
177A
  8
DISTRICTS
 10
646.53596678300005
 20
4672.5298329400002
 30
14.0
  0
VERTEX
  5
177B
  8
DISTRICTS
 10
646.54684095899995
 20
4672.45808898
 30
14.0
  0
VERTEX
  5
177C
  8
DISTRICTS
 10
646.55294967500004
 20
4672.4295942700001
 30
14.0
  0
VERTEX
  5
177D
  8
DISTRICTS
 10
646.56419981199986
 20
4672.3293556099989
 30
14.0
  0
VERTEX
  5
177E
  8
DISTRICTS
 10
646.56437561500002
 20
4672.2291169500004
 30
14.0
  0
VERTEX
  5
177F
  8
DISTRICTS
 10
646.54684095899995
 20
4672.1320589399993
 30
14.0
  0
VERTEX
  5
1780
  8
DISTRICTS
 10
646.51058338799999
 20
4672.0286396199999
 30
14.0
  0
VERTEX
  5
1781
  8
DISTRICTS
 10
646.44662309399985
 20
4671.9502687800004
 30
14.0
  0
VERTEX
  5
1782
  8
DISTRICTS
 10
646.43016070900001
 20
4671.928400949997
 30
14.0
  0
VERTEX
  5
1783
  8
DISTRICTS
 10
646.34640522899986
 20
4671.8571485700004
 30
14.0
  0
VERTEX
  5
1784
  8
DISTRICTS
 10
646.31252046999975
 20
4671.8281622900004
 30
14.0
  0
VERTEX
  5
1785
  8
DISTRICTS
 10
646.24618736399975
 20
4671.7853232199986
 30
14.0
  0
VERTEX
  5
1786
  8
DISTRICTS
 10
646.14987625699985
 20
4671.7279236300001
 30
14.0
  0
VERTEX
  5
1787
  8
DISTRICTS
 10
646.04575163399988
 20
4671.6747412000004
 30
14.0
  0
VERTEX
  5
1788
  8
DISTRICTS
 10
645.94553376900001
 20
4671.633255429997
 30
14.0
  0
VERTEX
  5
1789
  8
DISTRICTS
 10
645.93014148700001
 20
4671.627684959999
 30
14.0
  0
VERTEX
  5
178A
  8
DISTRICTS
 10
645.84531590400002
 20
4671.5977251399991
 30
14.0
  0
VERTEX
  5
178B
  8
DISTRICTS
 10
645.74509803899991
 20
4671.5701715100004
 30
14.0
  0
VERTEX
  5
178C
  8
DISTRICTS
 10
645.64488017400004
 20
4671.5507871700011
 30
14.0
  0
VERTEX
  5
178D
  8
DISTRICTS
 10
645.54466230900005
 20
4671.5389938999988
 30
14.0
  0
VERTEX
  5
178E
  8
DISTRICTS
 10
645.44444444400006
 20
4671.5343169199978
 30
14.0
  0
VERTEX
  5
178F
  8
DISTRICTS
 10
645.34422658000005
 20
4671.5365869200023
 30
14.0
  0
VERTEX
  5
1790
  8
DISTRICTS
 10
645.24400871499995
 20
4671.5460679899988
 30
14.0
  0
VERTEX
  5
1791
  8
DISTRICTS
 10
645.14379084999985
 20
4671.5634900300001
 30
14.0
  0
VERTEX
  5
1792
  8
DISTRICTS
 10
645.04357298499986
 20
4671.5899726000016
 30
14.0
  0
SEQEND
  5
1793
  8
DISTRICTS
  0
POLYLINE
  5
8FC
  8
DISTRICTS
 66
     1
 10
0.0
 20
0.0
 30
13.0
 70
     1
  0
VERTEX
  5
1794
  8
DISTRICTS
 10
641.73367379900003
 20
4671.928400949997
 30
13.0
  0
VERTEX
  5
1795
  8
DISTRICTS
 10
641.63616557699993
 20
4671.9847904400003
 30
13.0
  0
VERTEX
  5
1796
  8
DISTRICTS
 10
641.56761107599993
 20
4672.0286396199999
 30
13.0
  0
VERTEX
  5
1797
  8
DISTRICTS
 10
641.53594771199994
 20
4672.0498245899998
 30
13.0
  0
VERTEX
  5
1798
  8
DISTRICTS
 10
641.43572984699995
 20
4672.122956449999
 30
13.0
  0
VERTEX
  5
1799
  8
DISTRICTS
 10
641.33551198300006
 20
4672.206631959999
 30
13.0
  0
VERTEX
  5
179A
  8
DISTRICTS
 10
641.31100496900001
 20
4672.2291169500004
 30
13.0
  0
VERTEX
  5
179B
  8
DISTRICTS
 10
641.23529411799996
 20
4672.3068334899999
 30
13.0
  0
VERTEX
  5
179C
  8
DISTRICTS
 10
641.21451663100004
 20
4672.3293556099989
 30
13.0
  0
VERTEX
  5
179D
  8
DISTRICTS
 10
641.13562406699987
 20
4672.4295942700001
 30
13.0
  0
VERTEX
  5
179E
  8
DISTRICTS
 10
641.068170915
 20
4672.5298329400002
 30
13.0
  0
VERTEX
  5
179F
  8
DISTRICTS
 10
641.03485838799998
 20
4672.5939120000003
 30
13.0
  0
VERTEX
  5
17A0
  8
DISTRICTS
 10
641.01493947999995
 20
4672.6300715999987
 30
13.0
  0
VERTEX
  5
17A1
  8
DISTRICTS
 10
640.97128793399975
 20
4672.730310259999
 30
13.0
  0
VERTEX
  5
17A2
  8
DISTRICTS
 10
640.94001602200001
 20
4672.8305489300001
 30
13.0
  0
VERTEX
  5
17A3
  8
DISTRICTS
 10
640.93464052299987
 20
4672.8554629199998
 30
13.0
  0
VERTEX
  5
17A4
  8
DISTRICTS
 10
640.91565440500005
 20
4672.9307875900004
 30
13.0
  0
VERTEX
  5
17A5
  8
DISTRICTS
 10
640.90052092999997
 20
4673.0310262499997
 30
13.0
  0
VERTEX
  5
17A6
  8
DISTRICTS
 10
640.89485905499976
 20
4673.1312649199999
 30
13.0
  0
VERTEX
  5
17A7
  8
DISTRICTS
 10
640.89841998300005
 20
4673.2315035800011
 30
13.0
  0
VERTEX
  5
17A8
  8
DISTRICTS
 10
640.91158457099993
 20
4673.3317422399996
 30
13.0
  0
VERTEX
  5
17A9
  8
DISTRICTS
 10
640.93464052299987
 20
4673.4290872800002
 30
13.0
  0
VERTEX
  5
17AA
  8
DISTRICTS
 10
640.966010256
 20
4673.5322195700001
 30
13.0
  0
VERTEX
  5
17AB
  8
DISTRICTS
 10
641.01021750099994
 20
4673.6324582300012
 30
13.0
  0
VERTEX
  5
17AC
  8
DISTRICTS
 10
641.03485838799998
 20
4673.676346129997
 30
13.0
  0
VERTEX
  5
17AD
  8
DISTRICTS
 10
641.06673828600003
 20
4673.7326968999987
 30
13.0
  0
VERTEX
  5
17AE
  8
DISTRICTS
 10
641.13507625299985
 20
4673.8270593599991
 30
13.0
  0
VERTEX
  5
17AF
  8
DISTRICTS
 10
641.22996850399977
 20
4673.9331742200002
 30
13.0
  0
VERTEX
  5
17B0
  8
DISTRICTS
 10
641.33551198300006
 20
4674.0260818000006
 30
13.0
  0
VERTEX
  5
17B1
  8
DISTRICTS
 10
641.34534927000004
 20
4674.0334128900004
 30
13.0
  0
VERTEX
  5
17B2
  8
DISTRICTS
 10
641.43572984699995
 20
4674.09773511
 30
13.0
  0
VERTEX
  5
17B3
  8
DISTRICTS
 10
641.49895893999997
 20
4674.1336515499997
 30
13.0
  0
VERTEX
  5
17B4
  8
DISTRICTS
 10
641.53594771199994
 20
4674.1547230599999
 30
13.0
  0
VERTEX
  5
17B5
  8
DISTRICTS
 10
641.63616557699993
 20
4674.2015543999969
 30
13.0
  0
VERTEX
  5
17B6
  8
DISTRICTS
 10
641.72878502100002
 20
4674.23389021
 30
13.0
  0
VERTEX
  5
17B7
  8
DISTRICTS
 10
641.83660130699991
 20
4674.2663335200023
 30
13.0
  0
VERTEX
  5
17B8
  8
DISTRICTS
 10
641.93681917200001
 20
4674.2867309699977
 30
13.0
  0
VERTEX
  5
17B9
  8
DISTRICTS
 10
642.037037037
 20
4674.2990781999979
 30
13.0
  0
VERTEX
  5
17BA
  8
DISTRICTS
 10
642.13725490199988
 20
4674.3040949799997
 30
13.0
  0
VERTEX
  5
17BB
  8
DISTRICTS
 10
642.23747276699999
 20
4674.3020831699969
 30
13.0
  0
VERTEX
  5
17BC
  8
DISTRICTS
 10
642.33769063199975
 20
4674.2929422999996
 30
13.0
  0
VERTEX
  5
17BD
  8
DISTRICTS
 10
642.43790849699985
 20
4674.2761911999969
 30
13.0
  0
VERTEX
  5
17BE
  8
DISTRICTS
 10
642.53812636199984
 20
4674.2509975599969
 30
13.0
  0
VERTEX
  5
17BF
  8
DISTRICTS
 10
642.589500456
 20
4674.23389021
 30
13.0
  0
VERTEX
  5
17C0
  8
DISTRICTS
 10
642.63834422699995
 20
4674.2185988199999
 30
13.0
  0
VERTEX
  5
17C1
  8
DISTRICTS
 10
642.73856209199994
 20
4674.1783701199993
 30
13.0
  0
VERTEX
  5
17C2
  8
DISTRICTS
 10
642.82567764800001
 20
4674.1336515499997
 30
13.0
  0
VERTEX
  5
17C3
  8
DISTRICTS
 10
642.83877995599994
 20
4674.1269382999999
 30
13.0
  0
VERTEX
  5
17C4
  8
DISTRICTS
 10
642.93899782099993
 20
4674.0672951400002
 30
13.0
  0
VERTEX
  5
17C5
  8
DISTRICTS
 10
642.98761668500003
 20
4674.0334128900004
 30
13.0
  0
VERTEX
  5
17C6
  8
DISTRICTS
 10
643.03921568600003
 20
4673.9953100000002
 30
13.0
  0
VERTEX
  5
17C7
  8
DISTRICTS
 10
643.11418922300004
 20
4673.9331742200002
 30
13.0
  0
VERTEX
  5
17C8
  8
DISTRICTS
 10
643.13943355100002
 20
4673.91007739
 30
13.0
  0
VERTEX
  5
17C9
  8
DISTRICTS
 10
643.21898640799975
 20
4673.8329355599999
 30
13.0
  0
VERTEX
  5
17CA
  8
DISTRICTS
 10
643.23965141600002
 20
4673.8099124999999
 30
13.0
  0
VERTEX
  5
17CB
  8
DISTRICTS
 10
643.30883969000001
 20
4673.7326968999987
 30
13.0
  0
VERTEX
  5
17CC
  8
DISTRICTS
 10
643.33986928099989
 20
4673.6914623900002
 30
13.0
  0
VERTEX
  5
17CD
  8
DISTRICTS
 10
643.38679971900001
 20
4673.6324582300012
 30
13.0
  0
VERTEX
  5
17CE
  8
DISTRICTS
 10
643.440087146
 20
4673.5504183499988
 30
13.0
  0
VERTEX
  5
17CF
  8
DISTRICTS
 10
643.45337529599999
 20
4673.5322195700001
 30
13.0
  0
VERTEX
  5
17D0
  8
DISTRICTS
 10
643.51412451600004
 20
4673.4319809099998
 30
13.0
  0
VERTEX
  5
17D1
  8
DISTRICTS
 10
643.54030501099965
 20
4673.3760480600004
 30
13.0
  0
VERTEX
  5
17D2
  8
DISTRICTS
 10
643.56632141299986
 20
4673.3317422399996
 30
13.0
  0
VERTEX
  5
17D3
  8
DISTRICTS
 10
643.61143817599975
 20
4673.2315035800011
 30
13.0
  0
VERTEX
  5
17D4
  8
DISTRICTS
 10
643.64052287599986
 20
4673.1384016100001
 30
13.0
  0
VERTEX
  5
17D5
  8
DISTRICTS
 10
643.671576061
 20
4673.0310262499997
 30
13.0
  0
VERTEX
  5
17D6
  8
DISTRICTS
 10
643.67803063600002
 20
4672.9307875900004
 30
13.0
  0
VERTEX
  5
17D7
  8
DISTRICTS
 10
643.65585421800006
 20
4672.8305489300001
 30
13.0
  0
VERTEX
  5
17D8
  8
DISTRICTS
 10
643.64052287599986
 20
4672.8041341400003
 30
13.0
  0
VERTEX
  5
17D9
  8
DISTRICTS
 10
643.61273748799977
 20
4672.730310259999
 30
13.0
  0
VERTEX
  5
17DA
  8
DISTRICTS
 10
643.54392220199998
 20
4672.6300715999987
 30
13.0
  0
VERTEX
  5
17DB
  8
DISTRICTS
 10
643.46773048599994
 20
4672.5298329400002
 30
13.0
  0
VERTEX
  5
17DC
  8
DISTRICTS
 10
643.440087146
 20
4672.5032040200003
 30
13.0
  0
VERTEX
  5
17DD
  8
DISTRICTS
 10
643.37654567799996
 20
4672.4295942700001
 30
13.0
  0
VERTEX
  5
17DE
  8
DISTRICTS
 10
643.33986928099989
 20
4672.3967783199978
 30
13.0
  0
VERTEX
  5
17DF
  8
DISTRICTS
 10
643.27194093000003
 20
4672.3293556099989
 30
13.0
  0
VERTEX
  5
17E0
  8
DISTRICTS
 10
643.23965141600002
 20
4672.3033232300004
 30
13.0
  0
VERTEX
  5
17E1
  8
DISTRICTS
 10
643.15048255199997
 20
4672.2291169500004
 30
13.0
  0
VERTEX
  5
17E2
  8
DISTRICTS
 10
643.13943355100002
 20
4672.2212959099998
 30
13.0
  0
VERTEX
  5
17E3
  8
DISTRICTS
 10
643.03921568600003
 20
4672.1495667400004
 30
13.0
  0
VERTEX
  5
17E4
  8
DISTRICTS
 10
643.00829690599994
 20
4672.1288782800002
 30
13.0
  0
VERTEX
  5
17E5
  8
DISTRICTS
 10
642.93899782099993
 20
4672.0870133099997
 30
13.0
  0
VERTEX
  5
17E6
  8
DISTRICTS
 10
642.83877995599994
 20
4672.0342514499989
 30
13.0
  0
VERTEX
  5
17E7
  8
DISTRICTS
 10
642.82691212300006
 20
4672.0286396199999
 30
13.0
  0
VERTEX
  5
17E8
  8
DISTRICTS
 10
642.73856209199994
 20
4671.9881101800001
 30
13.0
  0
VERTEX
  5
17E9
  8
DISTRICTS
 10
642.63834422699995
 20
4671.9507285899999
 30
13.0
  0
VERTEX
  5
17EA
  8
DISTRICTS
 10
642.56298801900004
 20
4671.928400949997
 30
13.0
  0
VERTEX
  5
17EB
  8
DISTRICTS
 10
642.53812636199984
 20
4671.9207717199988
 30
13.0
  0
VERTEX
  5
17EC
  8
DISTRICTS
 10
642.43790849699985
 20
4671.8954078099996
 30
13.0
  0
VERTEX
  5
17ED
  8
DISTRICTS
 10
642.33769063199975
 20
4671.8762266399999
 30
13.0
  0
VERTEX
  5
17EE
  8
DISTRICTS
 10
642.23747276699999
 20
4671.8617575300023
 30
13.0
  0
VERTEX
  5
17EF
  8
DISTRICTS
 10
642.13725490199988
 20
4671.8505886900002
 30
13.0
  0
VERTEX
  5
17F0
  8
DISTRICTS
 10
642.037037037
 20
4671.8431650000011
 30
13.0
  0
VERTEX
  5
17F1
  8
DISTRICTS
 10
641.93681917200001
 20
4671.8446255099998
 30
13.0
  0
VERTEX
  5
17F2
  8
DISTRICTS
 10
641.83660130699991
 20
4671.8757067400002
 30
13.0
  0
SEQEND
  5
17F3
  8
DISTRICTS
  0
POLYLINE
  5
95D
  8
DISTRICTS
 66
     1
 10
0.0
 20
0.0
 30
5.0
 70
     1
  0
VERTEX
  5
17F4
  8
DISTRICTS
 10
645.56912186300008
 20
4678.24343675
 30
5.0
  0
VERTEX
  5
17F5
  8
DISTRICTS
 10
645.54466230900005
 20
4678.2494410600002
 30
5.0
  0
VERTEX
  5
17F6
  8
DISTRICTS
 10
645.44444444400006
 20
4678.3306705499999
 30
5.0
  0
VERTEX
  5
17F7
  8
DISTRICTS
 10
645.42966402199988
 20
4678.3436754200002
 30
5.0
  0
VERTEX
  5
17F8
  8
DISTRICTS
 10
645.36655182300001
 20
4678.4439140799977
 30
5.0
  0
VERTEX
  5
17F9
  8
DISTRICTS
 10
645.34422658000005
 20
4678.5096827799989
 30
5.0
  0
VERTEX
  5
17FA
  8
DISTRICTS
 10
645.31994836099966
 20
4678.544152739998
 30
5.0
  0
VERTEX
  5
17FB
  8
DISTRICTS
 10
645.24400871499995
 20
4678.63902151
 30
5.0
  0
VERTEX
  5
17FC
  8
DISTRICTS
 10
645.14379084999985
 20
4678.7134150600004
 30
5.0
  0
VERTEX
  5
17FD
  8
DISTRICTS
 10
645.10006384300004
 20
4678.7446300700003
 30
5.0
  0
VERTEX
  5
17FE
  8
DISTRICTS
 10
645.04357298499986
 20
4678.7807869499993
 30
5.0
  0
VERTEX
  5
17FF
  8
DISTRICTS
 10
644.95568161099993
 20
4678.8448687399969
 30
5.0
  0
VERTEX
  5
1800
  8
DISTRICTS
 10
644.94335511999998
 20
4678.85335287
 30
5.0
  0
VERTEX
  5
1801
  8
DISTRICTS
 10
644.84313725499987
 20
4678.9334537900004
 30
5.0
  0
VERTEX
  5
1802
  8
DISTRICTS
 10
644.83054301899995
 20
4678.945107399999
 30
5.0
  0
VERTEX
  5
1803
  8
DISTRICTS
 10
644.74291938999966
 20
4679.0266803900004
 30
5.0
  0
VERTEX
  5
1804
  8
DISTRICTS
 10
644.72555565799996
 20
4679.0453460600002
 30
5.0
  0
VERTEX
  5
1805
  8
DISTRICTS
 10
644.64270152500001
 20
4679.1384399299986
 30
5.0
  0
VERTEX
  5
1806
  8
DISTRICTS
 10
644.56096859599995
 20
4679.2458233899997
 30
5.0
  0
VERTEX
  5
1807
  8
DISTRICTS
 10
644.5424836599999
 20
4679.2726256300002
 30
5.0
  0
VERTEX
  5
1808
  8
DISTRICTS
 10
644.49541519399997
 20
4679.34606205
 30
5.0
  0
VERTEX
  5
1809
  8
DISTRICTS
 10
644.44226579500003
 20
4679.4425912599991
 30
5.0
  0
VERTEX
  5
180A
  8
DISTRICTS
 10
644.39123643300002
 20
4679.5465393799968
 30
5.0
  0
VERTEX
  5
180B
  8
DISTRICTS
 10
644.35124647999999
 20
4679.6467780399998
 30
5.0
  0
VERTEX
  5
180C
  8
DISTRICTS
 10
644.34204793000004
 20
4679.6735019899988
 30
5.0
  0
VERTEX
  5
180D
  8
DISTRICTS
 10
644.3165316059999
 20
4679.74701671
 30
5.0
  0
VERTEX
  5
180E
  8
DISTRICTS
 10
644.28814386299985
 20
4679.8472553700003
 30
5.0
  0
VERTEX
  5
180F
  8
DISTRICTS
 10
644.26627574799988
 20
4679.9474940299988
 30
5.0
  0
VERTEX
  5
1810
  8
DISTRICTS
 10
644.25026542699993
 20
4680.0477326999999
 30
5.0
  0
VERTEX
  5
1811
  8
DISTRICTS
 10
644.24183006500004
 20
4680.1260430800003
 30
5.0
  0
VERTEX
  5
1812
  8
DISTRICTS
 10
644.23929456999986
 20
4680.1479713600002
 30
5.0
  0
VERTEX
  5
1813
  8
DISTRICTS
 10
644.23280360800004
 20
4680.2482100200023
 30
5.0
  0
VERTEX
  5
1814
  8
DISTRICTS
 10
644.23170760100004
 20
4680.3484486899997
 30
5.0
  0
VERTEX
  5
1815
  8
DISTRICTS
 10
644.23596030500005
 20
4680.44868735
 30
5.0
  0
VERTEX
  5
1816
  8
DISTRICTS
 10
644.24183006500004
 20
4680.5090749399978
 30
5.0
  0
VERTEX
  5
1817
  8
DISTRICTS
 10
644.24519159800002
 20
4680.5489260100012
 30
5.0
  0
VERTEX
  5
1818
  8
DISTRICTS
 10
644.25872203599999
 20
4680.6491646799996
 30
5.0
  0
VERTEX
  5
1819
  8
DISTRICTS
 10
644.27769150199993
 20
4680.7494033399998
 30
5.0
  0
VERTEX
  5
181A
  8
DISTRICTS
 10
644.302684774
 20
4680.8496420000001
 30
5.0
  0
VERTEX
  5
181B
  8
DISTRICTS
 10
644.33446036400005
 20
4680.9498806700003
 30
5.0
  0
VERTEX
  5
181C
  8
DISTRICTS
 10
644.34204793000004
 20
4680.9698182700004
 30
5.0
  0
VERTEX
  5
181D
  8
DISTRICTS
 10
644.37034053199989
 20
4681.0501193299997
 30
5.0
  0
VERTEX
  5
181E
  8
DISTRICTS
 10
644.4136135629999
 20
4681.1503579999999
 30
5.0
  0
VERTEX
  5
181F
  8
DISTRICTS
 10
644.44226579500003
 20
4681.2062517399991
 30
5.0
  0
VERTEX
  5
1820
  8
DISTRICTS
 10
644.46402098500005
 20
4681.2505966599992
 30
5.0
  0
VERTEX
  5
1821
  8
DISTRICTS
 10
644.52212280499998
 20
4681.3508353200004
 30
5.0
  0
VERTEX
  5
1822
  8
DISTRICTS
 10
644.5424836599999
 20
4681.3814713099991
 30
5.0
  0
VERTEX
  5
1823
  8
DISTRICTS
 10
644.58843915299985
 20
4681.4510739899988
 30
5.0
  0
VERTEX
  5
1824
  8
DISTRICTS
 10
644.64270152500001
 20
4681.5219733699969
 30
5.0
  0
VERTEX
  5
1825
  8
DISTRICTS
 10
644.66557469700001
 20
4681.5513126499991
 30
5.0
  0
VERTEX
  5
1826
  8
DISTRICTS
 10
644.74291938999966
 20
4681.6389935200004
 30
5.0
  0
VERTEX
  5
1827
  8
DISTRICTS
 10
644.75451811899995
 20
4681.6515513099994
 30
5.0
  0
VERTEX
  5
1828
  8
DISTRICTS
 10
644.84313725499987
 20
4681.7385838800001
 30
5.0
  0
VERTEX
  5
1829
  8
DISTRICTS
 10
644.85763653100003
 20
4681.7517899799977
 30
5.0
  0
VERTEX
  5
182A
  8
DISTRICTS
 10
644.94335511999998
 20
4681.8245395599988
 30
5.0
  0
VERTEX
  5
182B
  8
DISTRICTS
 10
644.97935276400005
 20
4681.852028639998
 30
5.0
  0
VERTEX
  5
182C
  8
DISTRICTS
 10
645.04357298499986
 20
4681.8989609199989
 30
5.0
  0
VERTEX
  5
182D
  8
DISTRICTS
 10
645.12709713599975
 20
4681.9522673000001
 30
5.0
  0
VERTEX
  5
182E
  8
DISTRICTS
 10
645.14379084999985
 20
4681.9627251800002
 30
5.0
  0
VERTEX
  5
182F
  8
DISTRICTS
 10
645.24400871499995
 20
4682.0192163900001
 30
5.0
  0
VERTEX
  5
1830
  8
DISTRICTS
 10
645.31404923699995
 20
4682.0525059700003
 30
5.0
  0
VERTEX
  5
1831
  8
DISTRICTS
 10
645.34422658000005
 20
4682.0671229700001
 30
5.0
  0
VERTEX
  5
1832
  8
DISTRICTS
 10
645.44444444400006
 20
4682.1096661499969
 30
5.0
  0
VERTEX
  5
1833
  8
DISTRICTS
 10
645.54466230900005
 20
4682.1449448599997
 30
5.0
  0
VERTEX
  5
1834
  8
DISTRICTS
 10
645.57023038899979
 20
4682.152744629997
 30
5.0
  0
VERTEX
  5
1835
  8
DISTRICTS
 10
645.64488017400004
 20
4682.1770938899999
 30
5.0
  0
VERTEX
  5
1836
  8
DISTRICTS
 10
645.74509803899991
 20
4682.2057851899981
 30
5.0
  0
VERTEX
  5
1837
  8
DISTRICTS
 10
645.84531590400002
 20
4682.2326198299979
 30
5.0
  0
VERTEX
  5
1838
  8
DISTRICTS
 10
645.91419354499988
 20
4682.25298329
 30
5.0
  0
VERTEX
  5
1839
  8
DISTRICTS
 10
645.94553376900001
 20
4682.2628233599999
 30
5.0
  0
VERTEX
  5
183A
  8
DISTRICTS
 10
646.04575163399988
 20
4682.3050839500011
 30
5.0
  0
VERTEX
  5
183B
  8
DISTRICTS
 10
646.11720843599994
 20
4682.3532219600002
 30
5.0
  0
VERTEX
  5
183C
  8
DISTRICTS
 10
646.14596949899999
 20
4682.3680871099978
 30
5.0
  0
VERTEX
  5
183D
  8
DISTRICTS
 10
646.24618736399975
 20
4682.4325530299993
 30
5.0
  0
VERTEX
  5
183E
  8
DISTRICTS
 10
646.34640522899986
 20
4682.4520914100003
 30
5.0
  0
VERTEX
  5
183F
  8
DISTRICTS
 10
646.44662309399985
 20
4682.4084405599979
 30
5.0
  0
VERTEX
  5
1840
  8
DISTRICTS
 10
646.51412160300004
 20
4682.3532219600002
 30
5.0
  0
VERTEX
  5
1841
  8
DISTRICTS
 10
646.54684095899995
 20
4682.2991884499997
 30
5.0
  0
VERTEX
  5
1842
  8
DISTRICTS
 10
646.59289949499976
 20
4682.25298329
 30
5.0
  0
VERTEX
  5
1843
  8
DISTRICTS
 10
646.64705882400006
 20
4682.1891054099988
 30
5.0
  0
VERTEX
  5
1844
  8
DISTRICTS
 10
646.69753231699985
 20
4682.152744629997
 30
5.0
  0
VERTEX
  5
1845
  8
DISTRICTS
 10
646.74727668800006
 20
4682.1236879199978
 30
5.0
  0
VERTEX
  5
1846
  8
DISTRICTS
 10
646.84749455300005
 20
4682.0784528599988
 30
5.0
  0
VERTEX
  5
1847
  8
DISTRICTS
 10
646.894149728
 20
4682.0525059700003
 30
5.0
  0
VERTEX
  5
1848
  8
DISTRICTS
 10
646.94771241800004
 20
4682.0292573200004
 30
5.0
  0
VERTEX
  5
1849
  8
DISTRICTS
 10
647.04793028300003
 20
4681.9526637299969
 30
5.0
  0
VERTEX
  5
184A
  8
DISTRICTS
 10
647.14814814800002
 20
4681.85286997
 30
5.0
  0
VERTEX
  5
184B
  8
DISTRICTS
 10
647.2483660129999
 20
4681.77240523
 30
5.0
  0
VERTEX
  5
184C
  8
DISTRICTS
 10
647.348583878
 20
4681.7652412099987
 30
5.0
  0
VERTEX
  5
184D
  8
DISTRICTS
 10
647.40587751400005
 20
4681.852028639998
 30
5.0
  0
VERTEX
  5
184E
  8
DISTRICTS
 10
647.44880174299965
 20
4681.8865425499998
 30
5.0
  0
VERTEX
  5
184F
  8
DISTRICTS
 10
647.45383740199975
 20
4681.9522673000001
 30
5.0
  0
VERTEX
  5
1850
  8
DISTRICTS
 10
647.54901960799987
 20
4682.041639600001
 30
5.0
  0
VERTEX
  5
1851
  8
DISTRICTS
 10
647.64923747300008
 20
4682.0509998799998
 30
5.0
  0
VERTEX
  5
1852
  8
DISTRICTS
 10
647.74824899400005
 20
4681.9522673000001
 30
5.0
  0
VERTEX
  5
1853
  8
DISTRICTS
 10
647.74783013299975
 20
4681.852028639998
 30
5.0
  0
VERTEX
  5
1854
  8
DISTRICTS
 10
647.72836649299995
 20
4681.7517899799977
 30
5.0
  0
VERTEX
  5
1855
  8
DISTRICTS
 10
647.64923747300008
 20
4681.6619124500003
 30
5.0
  0
VERTEX
  5
1856
  8
DISTRICTS
 10
647.64705652500004
 20
4681.6515513099994
 30
5.0
  0
VERTEX
  5
1857
  8
DISTRICTS
 10
647.60562141100002
 20
4681.5513126499991
 30
5.0
  0
VERTEX
  5
1858
  8
DISTRICTS
 10
647.54901960799987
 20
4681.4929499999989
 30
5.0
  0
VERTEX
  5
1859
  8
DISTRICTS
 10
647.44880174299965
 20
4681.4516578000002
 30
5.0
  0
VERTEX
  5
185A
  8
DISTRICTS
 10
647.41550758899984
 20
4681.4510739899988
 30
5.0
  0
VERTEX
  5
185B
  8
DISTRICTS
 10
647.38286536099997
 20
4681.3508353200004
 30
5.0
  0
VERTEX
  5
185C
  8
DISTRICTS
 10
647.38374343199996
 20
4681.2505966599992
 30
5.0
  0
VERTEX
  5
185D
  8
DISTRICTS
 10
647.38748802400005
 20
4681.1503579999999
 30
5.0
  0
VERTEX
  5
185E
  8
DISTRICTS
 10
647.38957388899985
 20
4681.0501193299997
 30
5.0
  0
VERTEX
  5
185F
  8
DISTRICTS
 10
647.39258944300002
 20
4680.9498806700003
 30
5.0
  0
VERTEX
  5
1860
  8
DISTRICTS
 10
647.40001201799998
 20
4680.8496420000001
 30
5.0
  0
VERTEX
  5
1861
  8
DISTRICTS
 10
647.41323774599994
 20
4680.7494033399998
 30
5.0
  0
VERTEX
  5
1862
  8
DISTRICTS
 10
647.42929942499995
 20
4680.6491646799996
 30
5.0
  0
VERTEX
  5
1863
  8
DISTRICTS
 10
647.43763094199994
 20
4680.5489260100012
 30
5.0
  0
VERTEX
  5
1864
  8
DISTRICTS
 10
647.43012694699985
 20
4680.44868735
 30
5.0
  0
VERTEX
  5
1865
  8
DISTRICTS
 10
647.41213855399997
 20
4680.3484486899997
 30
5.0
  0
VERTEX
  5
1866
  8
DISTRICTS
 10
647.39017107099994
 20
4680.2482100200023
 30
5.0
  0
VERTEX
  5
1867
  8
DISTRICTS
 10
647.36494704599977
 20
4680.1479713600002
 30
5.0
  0
VERTEX
  5
1868
  8
DISTRICTS
 10
647.348583878
 20
4680.090051379997
 30
5.0
  0
VERTEX
  5
1869
  8
DISTRICTS
 10
647.33662459800007
 20
4680.0477326999999
 30
5.0
  0
VERTEX
  5
186A
  8
DISTRICTS
 10
647.30500419199996
 20
4679.9474940299988
 30
5.0
  0
VERTEX
  5
186B
  8
DISTRICTS
 10
647.26837681199993
 20
4679.8472553700003
 30
5.0
  0
VERTEX
  5
186C
  8
DISTRICTS
 10
647.2483660129999
 20
4679.7964728400002
 30
5.0
  0
VERTEX
  5
186D
  8
DISTRICTS
 10
647.22800631799998
 20
4679.74701671
 30
5.0
  0
VERTEX
  5
186E
  8
DISTRICTS
 10
647.18407434300002
 20
4679.6467780399998
 30
5.0
  0
VERTEX
  5
186F
  8
DISTRICTS
 10
647.14814814800002
 20
4679.5664290000013
 30
5.0
  0
VERTEX
  5
1870
  8
DISTRICTS
 10
647.13795001599999
 20
4679.5465393799968
 30
5.0
  0
VERTEX
  5
1871
  8
DISTRICTS
 10
647.091289996
 20
4679.4463007200002
 30
5.0
  0
VERTEX
  5
1872
  8
DISTRICTS
 10
647.04793028300003
 20
4679.3815533999978
 30
5.0
  0
VERTEX
  5
1873
  8
DISTRICTS
 10
647.01568105499985
 20
4679.34606205
 30
5.0
  0
VERTEX
  5
1874
  8
DISTRICTS
 10
646.94771241800004
 20
4679.2983098300001
 30
5.0
  0
VERTEX
  5
1875
  8
DISTRICTS
 10
646.87939524800004
 20
4679.2458233899997
 30
5.0
  0
VERTEX
  5
1876
  8
DISTRICTS
 10
646.84749455300005
 20
4679.2242435600001
 30
5.0
  0
VERTEX
  5
1877
  8
DISTRICTS
 10
646.74727668800006
 20
4679.1528951500004
 30
5.0
  0
VERTEX
  5
1878
  8
DISTRICTS
 10
646.73656753699993
 20
4679.1455847300003
 30
5.0
  0
VERTEX
  5
1879
  8
DISTRICTS
 10
646.64705882400006
 20
4679.08346059
 30
5.0
  0
VERTEX
  5
187A
  8
DISTRICTS
 10
646.586477006
 20
4679.0453460600002
 30
5.0
  0
VERTEX
  5
187B
  8
DISTRICTS
 10
646.54684095899995
 20
4679.0188946099988
 30
5.0
  0
VERTEX
  5
187C
  8
DISTRICTS
 10
646.44662309399985
 20
4678.9584099900003
 30
5.0
  0
VERTEX
  5
187D
  8
DISTRICTS
 10
646.42181978400004
 20
4678.945107399999
 30
5.0
  0
VERTEX
  5
187E
  8
DISTRICTS
 10
646.34640522899986
 20
4678.8996886300001
 30
5.0
  0
VERTEX
  5
187F
  8
DISTRICTS
 10
646.24618736399975
 20
4678.8460846999988
 30
5.0
  0
VERTEX
  5
1880
  8
DISTRICTS
 10
646.14596949899999
 20
4678.7882439200002
 30
5.0
  0
VERTEX
  5
1881
  8
DISTRICTS
 10
646.06809596699998
 20
4678.7446300700003
 30
5.0
  0
VERTEX
  5
1882
  8
DISTRICTS
 10
646.04575163399988
 20
4678.7282564400002
 30
5.0
  0
VERTEX
  5
1883
  8
DISTRICTS
 10
645.948512263
 20
4678.6443914099991
 30
5.0
  0
VERTEX
  5
1884
  8
DISTRICTS
 10
645.90523715199993
 20
4678.544152739998
 30
5.0
  0
VERTEX
  5
1885
  8
DISTRICTS
 10
645.87925690999975
 20
4678.4439140799977
 30
5.0
  0
VERTEX
  5
1886
  8
DISTRICTS
 10
645.84531590400002
 20
4678.3860398099987
 30
5.0
  0
VERTEX
  5
1887
  8
DISTRICTS
 10
645.83117852700002
 20
4678.3436754200002
 30
5.0
  0
VERTEX
  5
1888
  8
DISTRICTS
 10
645.74509803899991
 20
4678.2593065600013
 30
5.0
  0
VERTEX
  5
1889
  8
DISTRICTS
 10
645.69578340899977
 20
4678.24343675
 30
5.0
  0
VERTEX
  5
188A
  8
DISTRICTS
 10
645.64488017400004
 20
4678.2225790599978
 30
5.0
  0
SEQEND
  5
188B
  8
DISTRICTS
  0
POLYLINE
  5
9F6
  8
DISTRICTS
 66
     1
 10
0.0
 20
0.0
 30
1.0
 70
     1
  0
VERTEX
  5
188C
  8
DISTRICTS
 10
638.78587181947023
 20
4689.0069449044067
 30
1.0
  0
VERTEX
  5
188D
  8
DISTRICTS
 10
638.69665990818464
 20
4688.997391306455
 30
1.0
  0
VERTEX
  5
188E
  8
DISTRICTS
 10
638.62019258274097
 20
4688.9942067385009
 30
1.0
  0
VERTEX
  5
188F
  8
DISTRICTS
 10
638.52941176499985
 20
4688.9939009299987
 30
1.0
  0
VERTEX
  5
1890
  8
DISTRICTS
 10
638.42919389999975
 20
4689.0127351299998
 30
1.0
  0
VERTEX
  5
1891
  8
DISTRICTS
 10
638.32897603499998
 20
4689.0245481100001
 30
1.0
  0
VERTEX
  5
1892
  8
DISTRICTS
 10
638.22875816999988
 20
4689.0311449800001
 30
1.0
  0
VERTEX
  5
1893
  8
DISTRICTS
 10
638.128540305
 20
4689.0335204900002
 30
1.0
  0
VERTEX
  5
1894
  8
DISTRICTS
 10
638.02832244000001
 20
4689.0322454499992
 30
1.0
  0
VERTEX
  5
1895
  8
DISTRICTS
 10
637.92810457499979
 20
4689.02764278
 30
1.0
  0
VERTEX
  5
1896
  8
DISTRICTS
 10
637.82788671000003
 20
4689.0198655000004
 30
1.0
  0
VERTEX
  5
1897
  8
DISTRICTS
 10
637.72766884500004
 20
4689.0089245299987
 30
1.0
  0
VERTEX
  5
1898
  8
DISTRICTS
 10
637.62745098000005
 20
4688.994692029999
 30
1.0
  0
VERTEX
  5
1899
  8
DISTRICTS
 10
637.52723311499994
 20
4688.976903159999
 30
1.0
  0
VERTEX
  5
189A
  8
DISTRICTS
 10
637.49191267499998
 20
4688.9689737500003
 30
1.0
  0
VERTEX
  5
189B
  8
DISTRICTS
 10
637.42701525099994
 20
4688.9547170200003
 30
1.0
  0
VERTEX
  5
189C
  8
DISTRICTS
 10
637.32679738599995
 20
4688.9282302700012
 30
1.0
  0
VERTEX
  5
189D
  8
DISTRICTS
 10
637.22657952099985
 20
4688.8981772699999
 30
1.0
  0
VERTEX
  5
189E
  8
DISTRICTS
 10
637.13500141400004
 20
4688.8687350800001
 30
1.0
  0
VERTEX
  5
189F
  8
DISTRICTS
 10
637.02614379099987
 20
4688.8333799599995
 30
1.0
  0
VERTEX
  5
18A0
  8
DISTRICTS
 10
636.92592592599965
 20
4688.8049922700002
 30
1.0
  0
VERTEX
  5
18A1
  8
DISTRICTS
 10
636.825708061
 20
4688.7842945499988
 30
1.0
  0
VERTEX
  5
18A2
  8
DISTRICTS
 10
636.7254901959999
 20
4688.7723318799999
 30
1.0
  0
VERTEX
  5
18A3
  8
DISTRICTS
 10
636.62657670299996
 20
4688.768496419998
 30
1.0
  0
VERTEX
  5
18A4
  8
DISTRICTS
 10
636.52505446600003
 20
4688.7725237100003
 30
1.0
  0
VERTEX
  5
18A5
  8
DISTRICTS
 10
636.42483660100004
 20
4688.7865593099978
 30
1.0
  0
VERTEX
  5
18A6
  8
DISTRICTS
 10
636.32461873599993
 20
4688.8179480700001
 30
1.0
  0
VERTEX
  5
18A7
  8
DISTRICTS
 10
636.23378079400004
 20
4688.8687350800001
 30
1.0
  0
VERTEX
  5
18A8
  8
DISTRICTS
 10
636.22440087099994
 20
4688.8744231999999
 30
1.0
  0
VERTEX
  5
18A9
  8
DISTRICTS
 10
636.12418300699994
 20
4688.9520351399979
 30
1.0
  0
VERTEX
  5
18AA
  8
DISTRICTS
 10
636.10315199699994
 20
4688.9689737500003
 30
1.0
  0
VERTEX
  5
18AB
  8
DISTRICTS
 10
636.02396514199995
 20
4689.0466554900004
 30
1.0
  0
VERTEX
  5
18AC
  8
DISTRICTS
 10
635.99782742000002
 20
4689.0692124099969
 30
1.0
  0
VERTEX
  5
18AD
  8
DISTRICTS
 10
635.92374727699985
 20
4689.1391760400002
 30
1.0
  0
VERTEX
  5
18AE
  8
DISTRICTS
 10
635.88675885799989
 20
4689.169451069999
 30
1.0
  0
VERTEX
  5
18AF
  8
DISTRICTS
 10
635.82352941199986
 20
4689.2211872199987
 30
1.0
  0
VERTEX
  5
18B0
  8
DISTRICTS
 10
635.75870165599997
 20
4689.2696897400001
 30
1.0
  0
VERTEX
  5
18B1
  8
DISTRICTS
 10
635.72331154699975
 20
4689.2951124399988
 30
1.0
  0
VERTEX
  5
18B2
  8
DISTRICTS
 10
635.62309368199999
 20
4689.3650825599998
 30
1.0
  0
VERTEX
  5
18B3
  8
DISTRICTS
 10
635.52287581699989
 20
4689.4323733399979
 30
1.0
  0
VERTEX
  5
18B4
  8
DISTRICTS
 10
635.468801257
 20
4689.4701670599998
 30
1.0
  0
VERTEX
  5
18B5
  8
DISTRICTS
 10
635.42265795200001
 20
4689.5012173499999
 30
1.0
  0
VERTEX
  5
18B6
  8
DISTRICTS
 10
635.32638773500003
 20
4689.5704057299999
 30
1.0
  0
VERTEX
  5
18B7
  8
DISTRICTS
 10
635.22222222199991
 20
4689.647372129999
 30
1.0
  0
VERTEX
  5
18B8
  8
DISTRICTS
 10
635.19304472199985
 20
4689.6706443900002
 30
1.0
  0
VERTEX
  5
18B9
  8
DISTRICTS
 10
635.12200435699992
 20
4689.7267079499998
 30
1.0
  0
VERTEX
  5
18BA
  8
DISTRICTS
 10
635.07028411900001
 20
4689.7708830499969
 30
1.0
  0
VERTEX
  5
18BB
  8
DISTRICTS
 10
635.02178649199993
 20
4689.8123604399998
 30
1.0
  0
VERTEX
  5
18BC
  8
DISTRICTS
 10
634.95822228899965
 20
4689.8711217199989
 30
1.0
  0
VERTEX
  5
18BD
  8
DISTRICTS
 10
634.92156862699994
 20
4689.9055444100013
 30
1.0
  0
VERTEX
  5
18BE
  8
DISTRICTS
 10
634.85643336199985
 20
4689.9713603800001
 30
1.0
  0
VERTEX
  5
18BF
  8
DISTRICTS
 10
634.82135076300005
 20
4690.0080089800003
 30
1.0
  0
VERTEX
  5
18C0
  8
DISTRICTS
 10
634.76432052099995
 20
4690.0715990500003
 30
1.0
  0
VERTEX
  5
18C1
  8
DISTRICTS
 10
634.72113289800006
 20
4690.1224256799997
 30
1.0
  0
VERTEX
  5
18C2
  8
DISTRICTS
 10
634.68135144400003
 20
4690.1718377099987
 30
1.0
  0
VERTEX
  5
18C3
  8
DISTRICTS
 10
634.62091503299985
 20
4690.2529631500001
 30
1.0
  0
VERTEX
  5
18C4
  8
DISTRICTS
 10
634.60723335599994
 20
4690.2720763699999
 30
1.0
  0
VERTEX
  5
18C5
  8
DISTRICTS
 10
634.54065461599976
 20
4690.3723150400001
 30
1.0
  0
VERTEX
  5
18C6
  8
DISTRICTS
 10
634.52069716799986
 20
4690.4056850999987
 30
1.0
  0
VERTEX
  5
18C7
  8
DISTRICTS
 10
634.48137555400001
 20
4690.4725537000022
 30
1.0
  0
VERTEX
  5
18C8
  8
DISTRICTS
 10
634.43000314199992
 20
4690.5727923599998
 30
1.0
  0
VERTEX
  5
18C9
  8
DISTRICTS
 10
634.42047930299998
 20
4690.5937613999977
 30
1.0
  0
VERTEX
  5
18CA
  8
DISTRICTS
 10
634.384082992
 20
4690.6730310299999
 30
1.0
  0
VERTEX
  5
18CB
  8
DISTRICTS
 10
634.345244493
 20
4690.7732696900011
 30
1.0
  0
VERTEX
  5
18CC
  8
DISTRICTS
 10
634.32026143799987
 20
4690.85135214
 30
1.0
  0
VERTEX
  5
18CD
  8
DISTRICTS
 10
634.31289072300001
 20
4690.8735083499996
 30
1.0
  0
VERTEX
  5
18CE
  8
DISTRICTS
 10
634.28483255900005
 20
4690.9737470199998
 30
1.0
  0
VERTEX
  5
18CF
  8
DISTRICTS
 10
634.26298987099995
 20
4691.0739856800001
 30
1.0
  0
VERTEX
  5
18D0
  8
DISTRICTS
 10
634.24683615399988
 20
4691.1742243400004
 30
1.0
  0
VERTEX
  5
18D1
  8
DISTRICTS
 10
634.23591905299975
 20
4691.2744630099996
 30
1.0
  0
VERTEX
  5
18D2
  8
DISTRICTS
 10
634.22986532499999
 20
4691.3747016699999
 30
1.0
  0
VERTEX
  5
18D3
  8
DISTRICTS
 10
634.22837381299985
 20
4691.4749403300002
 30
1.0
  0
VERTEX
  5
18D4
  8
DISTRICTS
 10
634.23119231299995
 20
4691.5751789999986
 30
1.0
  0
VERTEX
  5
18D5
  8
DISTRICTS
 10
634.23806968400004
 20
4691.6754176599989
 30
1.0
  0
VERTEX
  5
18D6
  8
DISTRICTS
 10
634.24869382700001
 20
4691.7756563199991
 30
1.0
  0
VERTEX
  5
18D7
  8
DISTRICTS
 10
634.26273906300003
 20
4691.8758949900002
 30
1.0
  0
VERTEX
  5
18D8
  8
DISTRICTS
 10
634.28034366500003
 20
4691.9761336499978
 30
1.0
  0
VERTEX
  5
18D9
  8
DISTRICTS
 10
634.30261181100002
 20
4692.076372319998
 30
1.0
  0
VERTEX
  5
18DA
  8
DISTRICTS
 10
634.32026143799987
 20
4692.1423184200003
 30
1.0
  0
VERTEX
  5
18DB
  8
DISTRICTS
 10
634.32880254999975
 20
4692.1766109800001
 30
1.0
  0
VERTEX
  5
18DC
  8
DISTRICTS
 10
634.35597330600001
 20
4692.2768496400004
 30
1.0
  0
VERTEX
  5
18DD
  8
DISTRICTS
 10
634.38128816099993
 20
4692.3770883099978
 30
1.0
  0
VERTEX
  5
18DE
  8
DISTRICTS
 10
634.38925772000005
 20
4692.477326969999
 30
1.0
  0
VERTEX
  5
18DF
  8
DISTRICTS
 10
634.32026143799987
 20
4692.5130814300001
 30
1.0
  0
VERTEX
  5
18E0
  8
DISTRICTS
 10
634.25378222899985
 20
4692.5775656300002
 30
1.0
  0
VERTEX
  5
18E1
  8
DISTRICTS
 10
634.23682268799985
 20
4692.6778043000004
 30
1.0
  0
VERTEX
  5
18E2
  8
DISTRICTS
 10
634.32026143799987
 20
4692.7329282699993
 30
1.0
  0
VERTEX
  5
18E3
  8
DISTRICTS
 10
634.42047930299998
 20
4692.69775579
 30
1.0
  0
VERTEX
  5
18E4
  8
DISTRICTS
 10
634.47431468499985
 20
4692.6778043000004
 30
1.0
  0
VERTEX
  5
18E5
  8
DISTRICTS
 10
634.52069716799986
 20
4692.6317562200002
 30
1.0
  0
VERTEX
  5
18E6
  8
DISTRICTS
 10
634.60255098100004
 20
4692.6778043000004
 30
1.0
  0
VERTEX
  5
18E7
  8
DISTRICTS
 10
634.62091503299985
 20
4692.6861226999999
 30
1.0
  0
VERTEX
  5
18E8
  8
DISTRICTS
 10
634.72113289800006
 20
4692.7584156599996
 30
1.0
  0
VERTEX
  5
18E9
  8
DISTRICTS
 10
634.74610666800004
 20
4692.7780429599989
 30
1.0
  0
VERTEX
  5
18EA
  8
DISTRICTS
 10
634.82135076300005
 20
4692.8372984400003
 30
1.0
  0
VERTEX
  5
18EB
  8
DISTRICTS
 10
634.87284766100004
 20
4692.8782816199991
 30
1.0
  0
VERTEX
  5
18EC
  8
DISTRICTS
 10
634.92156862699994
 20
4692.91726604
 30
1.0
  0
VERTEX
  5
18ED
  8
DISTRICTS
 10
634.99805746499987
 20
4692.9785202900002
 30
1.0
  0
VERTEX
  5
18EE
  8
DISTRICTS
 10
635.02178649199993
 20
4692.9976623499979
 30
1.0
  0
VERTEX
  5
18EF
  8
DISTRICTS
 10
635.11583660199994
 20
4693.0787589499969
 30
1.0
  0
VERTEX
  5
18F0
  8
DISTRICTS
 10
635.21264259099985
 20
4693.1789976099999
 30
1.0
  0
VERTEX
  5
18F1
  8
DISTRICTS
 10
635.22222222199991
 20
4693.1869642299998
 30
1.0
  0
VERTEX
  5
18F2
  8
DISTRICTS
 10
635.32244008700002
 20
4693.2756364200013
 30
1.0
  0
VERTEX
  5
18F3
  8
DISTRICTS
 10
635.42265795200001
 20
4693.32569341
 30
1.0
  0
VERTEX
  5
18F4
  8
DISTRICTS
 10
635.52287581699989
 20
4693.33527211
 30
1.0
  0
VERTEX
  5
18F5
  8
DISTRICTS
 10
635.62309368199999
 20
4693.333587809997
 30
1.0
  0
VERTEX
  5
18F6
  8
DISTRICTS
 10
635.68557308200002
 20
4693.3794749400013
 30
1.0
  0
VERTEX
  5
18F7
  8
DISTRICTS
 10
635.72331154699975
 20
4693.3972470600002
 30
1.0
  0
VERTEX
  5
18F8
  8
DISTRICTS
 10
635.77190901400002
 20
4693.3794749400013
 30
1.0
  0
VERTEX
  5
18F9
  8
DISTRICTS
 10
635.82352941199986
 20
4693.3355304500001
 30
1.0
  0
VERTEX
  5
18FA
  8
DISTRICTS
 10
635.92374727699985
 20
4693.2977840599988
 30
1.0
  0
VERTEX
  5
18FB
  8
DISTRICTS
 10
636.02396514199995
 20
4693.28294534
 30
1.0
  0
VERTEX
  5
18FC
  8
DISTRICTS
 10
636.05589431500005
 20
4693.2792362800001
 30
1.0
  0
VERTEX
  5
18FD
  8
DISTRICTS
 10
636.12418300699994
 20
4693.2721202599969
 30
1.0
  0
VERTEX
  5
18FE
  8
DISTRICTS
 10
636.22440087099994
 20
4693.2623300599998
 30
1.0
  0
VERTEX
  5
18FF
  8
DISTRICTS
 10
636.32461873599993
 20
4693.2528841800004
 30
1.0
  0
VERTEX
  5
1900
  8
DISTRICTS
 10
636.42483660100004
 20
4693.2434325800004
 30
1.0
  0
VERTEX
  5
1901
  8
DISTRICTS
 10
636.52505446600003
 20
4693.2336484300004
 30
1.0
  0
VERTEX
  5
1902
  8
DISTRICTS
 10
636.62527233100002
 20
4693.2231867199998
 30
1.0
  0
VERTEX
  5
1903
  8
DISTRICTS
 10
636.7254901959999
 20
4693.2115341299968
 30
1.0
  0
VERTEX
  5
1904
  8
DISTRICTS
 10
636.825708061
 20
4693.1979396999996
 30
1.0
  0
VERTEX
  5
1905
  8
DISTRICTS
 10
636.92592592599965
 20
4693.1815457700004
 30
1.0
  0
VERTEX
  5
1906
  8
DISTRICTS
 10
636.93916225700002
 20
4693.1789976099999
 30
1.0
  0
VERTEX
  5
1907
  8
DISTRICTS
 10
637.02614379099987
 20
4693.1632713299969
 30
1.0
  0
VERTEX
  5
1908
  8
DISTRICTS
 10
637.12636165599997
 20
4693.1415571000007
 30
1.0
  0
VERTEX
  5
1909
  8
DISTRICTS
 10
637.22657952099985
 20
4693.1165020600001
 30
1.0
  0
VERTEX
  5
190A
  8
DISTRICTS
 10
637.32679738599995
 20
4693.0890997099978
 30
1.0
  0
VERTEX
  5
190B
  8
DISTRICTS
 10
637.36404090199994
 20
4693.0787589499969
 30
1.0
  0
VERTEX
  5
190C
  8
DISTRICTS
 10
637.42701525099994
 20
4693.061393609998
 30
1.0
  0
VERTEX
  5
190D
  8
DISTRICTS
 10
637.52723311499994
 20
4693.0337827000003
 30
1.0
  0
VERTEX
  5
190E
  8
DISTRICTS
 10
637.62745098000005
 20
4693.0065258799968
 30
1.0
  0
VERTEX
  5
190F
  8
DISTRICTS
 10
637.72766884500004
 20
4692.9801627899969
 30
1.0
  0
VERTEX
  5
1910
  8
DISTRICTS
 10
637.82788671000003
 20
4692.9560561699991
 30
1.0
  0
VERTEX
  5
1911
  8
DISTRICTS
 10
637.92810457499979
 20
4692.9335576299991
 30
1.0
  0
VERTEX
  5
1912
  8
DISTRICTS
 10
638.02832244000001
 20
4692.9129196499998
 30
1.0
  0
VERTEX
  5
1913
  8
DISTRICTS
 10
638.128540305
 20
4692.8946038699996
 30
1.0
  0
VERTEX
  5
1914
  8
DISTRICTS
 10
638.22875816999988
 20
4692.8795244800012
 30
1.0
  0
VERTEX
  5
1915
  8
DISTRICTS
 10
638.24185132499997
 20
4692.8782816199991
 30
1.0
  0
VERTEX
  5
1916
  8
DISTRICTS
 10
638.32897603499998
 20
4692.8701121300001
 30
1.0
  0
VERTEX
  5
1917
  8
DISTRICTS
 10
638.42919389999975
 20
4692.8730474299991
 30
1.0
  0
VERTEX
  5
1918
  8
DISTRICTS
 10
638.439520335
 20
4692.8782816199991
 30
1.0
  0
VERTEX
  5
1919
  8
DISTRICTS
 10
638.52941176499985
 20
4692.9336032600013
 30
1.0
  0
VERTEX
  5
191A
  8
DISTRICTS
 10
638.62962962999995
 20
4692.9568531200002
 30
1.0
  0
VERTEX
  5
191B
  8
DISTRICTS
 10
638.70914296599994
 20
4692.8782816199991
 30
1.0
  0
VERTEX
  5
191C
  8
DISTRICTS
 10
638.72984749499994
 20
4692.841744979999
 30
1.0
  0
VERTEX
  5
191D
  8
DISTRICTS
 10
638.80986518400005
 20
4692.7780429599989
 30
1.0
  0
VERTEX
  5
191E
  8
DISTRICTS
 10
638.83006535899995
 20
4692.76547828
 30
1.0
  0
VERTEX
  5
191F
  8
DISTRICTS
 10
638.93028322400005
 20
4692.7223342999987
 30
1.0
  0
VERTEX
  5
1920
  8
DISTRICTS
 10
639.03050108900004
 20
4692.68341427
 30
1.0
  0
VERTEX
  5
1921
  8
DISTRICTS
 10
639.04469952199975
 20
4692.6778043000004
 30
1.0
  0
VERTEX
  5
1922
  8
DISTRICTS
 10
639.13071895400003
 20
4692.6461433999984
 30
1.0
  0
VERTEX
  5
1923
  8
DISTRICTS
 10
639.23093681900002
 20
4692.6058090499992
 30
1.0
  0
VERTEX
  5
1924
  8
DISTRICTS
 10
639.29435739199994
 20
4692.5775656300002
 30
1.0
  0
VERTEX
  5
1925
  8
DISTRICTS
 10
639.33115468400001
 20
4692.56193102
 30
1.0
  0
VERTEX
  5
1926
  8
DISTRICTS
 10
639.43137254899989
 20
4692.5144445300002
 30
1.0
  0
VERTEX
  5
1927
  8
DISTRICTS
 10
639.50078704600003
 20
4692.477326969999
 30
1.0
  0
VERTEX
  5
1928
  8
DISTRICTS
 10
639.53159041399999
 20
4692.4611217299998
 30
1.0
  0
VERTEX
  5
1929
  8
DISTRICTS
 10
639.63180827899976
 20
4692.4026691500003
 30
1.0
  0
VERTEX
  5
192A
  8
DISTRICTS
 10
639.67178497799989
 20
4692.3770883099978
 30
1.0
  0
VERTEX
  5
192B
  8
DISTRICTS
 10
639.73202614399986
 20
4692.337895849997
 30
1.0
  0
VERTEX
  5
192C
  8
DISTRICTS
 10
639.81717639299995
 20
4692.2768496400004
 30
1.0
  0
VERTEX
  5
192D
  8
DISTRICTS
 10
639.83224400899985
 20
4692.2656518800004
 30
1.0
  0
VERTEX
  5
192E
  8
DISTRICTS
 10
639.93246187399996
 20
4692.1865393999969
 30
1.0
  0
VERTEX
  5
192F
  8
DISTRICTS
 10
639.94458234399985
 20
4692.1766109800001
 30
1.0
  0
VERTEX
  5
1930
  8
DISTRICTS
 10
640.03267973899995
 20
4692.1004885800003
 30
1.0
  0
VERTEX
  5
1931
  8
DISTRICTS
 10
640.05968274899999
 20
4692.076372319998
 30
1.0
  0
VERTEX
  5
1932
  8
DISTRICTS
 10
640.13289760300006
 20
4692.00739436
 30
1.0
  0
VERTEX
  5
1933
  8
DISTRICTS
 10
640.16479647999995
 20
4691.9761336499978
 30
1.0
  0
VERTEX
  5
1934
  8
DISTRICTS
 10
640.23311546800005
 20
4691.9017434300004
 30
1.0
  0
VERTEX
  5
1935
  8
DISTRICTS
 10
640.25647616900005
 20
4691.8758949900002
 30
1.0
  0
VERTEX
  5
1936
  8
DISTRICTS
 10
640.33002407599997
 20
4691.7756563199991
 30
1.0
  0
VERTEX
  5
1937
  8
DISTRICTS
 10
640.39463582500002
 20
4691.6754176599989
 30
1.0
  0
VERTEX
  5
1938
  8
DISTRICTS
 10
640.43355119800003
 20
4691.5942147599999
 30
1.0
  0
VERTEX
  5
1939
  8
DISTRICTS
 10
640.44569102800006
 20
4691.5751789999986
 30
1.0
  0
VERTEX
  5
193A
  8
DISTRICTS
 10
640.49624558599976
 20
4691.4749403300002
 30
1.0
  0
VERTEX
  5
193B
  8
DISTRICTS
 10
640.53376906300002
 20
4691.3783169300004
 30
1.0
  0
VERTEX
  5
193C
  8
DISTRICTS
 10
640.57507575699992
 20
4691.2744630099996
 30
1.0
  0
VERTEX
  5
193D
  8
DISTRICTS
 10
640.59423711699992
 20
4691.1742243400004
 30
1.0
  0
VERTEX
  5
193E
  8
DISTRICTS
 10
640.59220825900002
 20
4691.0739856800001
 30
1.0
  0
VERTEX
  5
193F
  8
DISTRICTS
 10
640.57121495800004
 20
4690.9737470199998
 30
1.0
  0
VERTEX
  5
1940
  8
DISTRICTS
 10
640.53502385199999
 20
4690.8735083499996
 30
1.0
  0
VERTEX
  5
1941
  8
DISTRICTS
 10
640.49811409400002
 20
4690.7732696900011
 30
1.0
  0
VERTEX
  5
1942
  8
DISTRICTS
 10
640.45156735399985
 20
4690.6730310299999
 30
1.0
  0
VERTEX
  5
1943
  8
DISTRICTS
 10
640.43355119800003
 20
4690.6400967
 30
1.0
  0
VERTEX
  5
1944
  8
DISTRICTS
 10
640.40212696900005
 20
4690.5727923599998
 30
1.0
  0
VERTEX
  5
1945
  8
DISTRICTS
 10
640.34690332399998
 20
4690.4725537000022
 30
1.0
  0
VERTEX
  5
1946
  8
DISTRICTS
 10
640.33333333300004
 20
4690.4503380200003
 30
1.0
  0
VERTEX
  5
1947
  8
DISTRICTS
 10
640.28929994600003
 20
4690.3723150400001
 30
1.0
  0
VERTEX
  5
1948
  8
DISTRICTS
 10
640.23311546800005
 20
4690.2838153099992
 30
1.0
  0
VERTEX
  5
1949
  8
DISTRICTS
 10
640.22589729699985
 20
4690.2720763699999
 30
1.0
  0
VERTEX
  5
194A
  8
DISTRICTS
 10
640.160788131
 20
4690.1718377099987
 30
1.0
  0
VERTEX
  5
194B
  8
DISTRICTS
 10
640.13289760300006
 20
4690.1294885200023
 30
1.0
  0
VERTEX
  5
194C
  8
DISTRICTS
 10
640.09213712300004
 20
4690.0715990500003
 30
1.0
  0
VERTEX
  5
194D
  8
DISTRICTS
 10
640.03267973899995
 20
4689.9916329899988
 30
1.0
  0
VERTEX
  5
194E
  8
DISTRICTS
 10
640.01535266799999
 20
4689.9713603800001
 30
1.0
  0
VERTEX
  5
194F
  8
DISTRICTS
 10
639.93246187399996
 20
4689.8893268499987
 30
1.0
  0
VERTEX
  5
1950
  8
DISTRICTS
 10
639.91324844099995
 20
4689.8711217199989
 30
1.0
  0
VERTEX
  5
1951
  8
DISTRICTS
 10
639.83224400899985
 20
4689.8009076300004
 30
1.0
  0
VERTEX
  5
1952
  8
DISTRICTS
 10
639.79719841799977
 20
4689.7708830499969
 30
1.0
  0
VERTEX
  5
1953
  8
DISTRICTS
 10
639.73202614399986
 20
4689.7153776900004
 30
1.0
  0
VERTEX
  5
1954
  8
DISTRICTS
 10
639.67704811600004
 20
4689.6706443900002
 30
1.0
  0
VERTEX
  5
1955
  8
DISTRICTS
 10
639.63180827899976
 20
4689.6322932599978
 30
1.0
  0
VERTEX
  5
1956
  8
DISTRICTS
 10
639.55345891699994
 20
4689.5704057299999
 30
1.0
  0
VERTEX
  5
1957
  8
DISTRICTS
 10
639.53159041399999
 20
4689.5517029700022
 30
1.0
  0
VERTEX
  5
1958
  8
DISTRICTS
 10
639.43137254899989
 20
4689.4727356599988
 30
1.0
  0
VERTEX
  5
1959
  8
DISTRICTS
 10
639.33115468400001
 20
4689.3908367499989
 30
1.0
  0
VERTEX
  5
195A
  8
DISTRICTS
 10
639.30242155999963
 20
4689.3699283999977
 30
1.0
  0
VERTEX
  5
195B
  8
DISTRICTS
 10
639.23093681900002
 20
4689.3063843700002
 30
1.0
  0
VERTEX
  5
195C
  8
DISTRICTS
 10
639.18303950199993
 20
4689.2696897400001
 30
1.0
  0
VERTEX
  5
195D
  8
DISTRICTS
 10
639.13071895400003
 20
4689.2147770900001
 30
1.0
  0
VERTEX
  5
195E
  8
DISTRICTS
 10
639.07688544300004
 20
4689.169451069999
 30
1.0
  0
VERTEX
  5
195F
  8
DISTRICTS
 10
639.02483237738898
 20
4689.1247732832489
 30
1.0
  0
VERTEX
  5
1960
  8
DISTRICTS
 10
638.97385422362981
 20
4689.0770049757539
 30
1.0
  0
VERTEX
  5
1961
  8
DISTRICTS
 10
638.89101451046065
 20
4689.035605910085
 30
1.0
  0
SEQEND
  5
1962
  8
DISTRICTS
  0
POLYLINE
  5
ACE
  8
DISTRICTS
 66
     1
 10
0.0
 20
0.0
 30
2.0
 70
     1
  0
VERTEX
  5
1963
  8
DISTRICTS
 10
647.92924729157346
 20
4694.1273941231102
 30
2.0
  0
VERTEX
  5
1964
  8
DISTRICTS
 10
647.84967320299995
 20
4694.099023259997
 30
2.0
  0
VERTEX
  5
1965
  8
DISTRICTS
 10
647.773268336
 20
4694.0811455800022
 30
2.0
  0
VERTEX
  5
1966
  8
DISTRICTS
 10
647.74945533799985
 20
4694.0749539600001
 30
2.0
  0
VERTEX
  5
1967
  8
DISTRICTS
 10
647.64923747300008
 20
4694.0687240500001
 30
2.0
  0
VERTEX
  5
1968
  8
DISTRICTS
 10
647.57619039600002
 20
4694.0811455800022
 30
2.0
  0
VERTEX
  5
1969
  8
DISTRICTS
 10
647.54901960799987
 20
4694.0854679499989
 30
2.0
  0
VERTEX
  5
196A
  8
DISTRICTS
 10
647.44880174299965
 20
4694.1244013200003
 30
2.0
  0
VERTEX
  5
196B
  8
DISTRICTS
 10
647.348583878
 20
4694.1844793500004
 30
2.0
  0
VERTEX
  5
196C
  8
DISTRICTS
 10
647.2483660129999
 20
4694.2519276999992
 30
2.0
  0
VERTEX
  5
196D
  8
DISTRICTS
 10
647.20735705300001
 20
4694.2816229099999
 30
2.0
  0
VERTEX
  5
196E
  8
DISTRICTS
 10
647.14814814800002
 20
4694.315409939999
 30
2.0
  0
VERTEX
  5
196F
  8
DISTRICTS
 10
647.04793028300003
 20
4694.3627856800003
 30
2.0
  0
VERTEX
  5
1970
  8
DISTRICTS
 10
646.97961592800004
 20
4694.381861580001
 30
2.0
  0
VERTEX
  5
1971
  8
DISTRICTS
 10
646.94771241800004
 20
4694.3920651199969
 30
2.0
  0
VERTEX
  5
1972
  8
DISTRICTS
 10
646.84749455300005
 20
4694.4141126200002
 30
2.0
  0
VERTEX
  5
1973
  8
DISTRICTS
 10
646.74727668800006
 20
4694.436162179999
 30
2.0
  0
VERTEX
  5
1974
  8
DISTRICTS
 10
646.64705882400006
 20
4694.4720527600011
 30
2.0
  0
VERTEX
  5
1975
  8
DISTRICTS
 10
646.62512960399999
 20
4694.4821002400013
 30
2.0
  0
VERTEX
  5
1976
  8
DISTRICTS
 10
646.54684095899995
 20
4694.510873539999
 30
2.0
  0
VERTEX
  5
1977
  8
DISTRICTS
 10
646.44662309399985
 20
4694.5219487599998
 30
2.0
  0
VERTEX
  5
1978
  8
DISTRICTS
 10
646.34640522899986
 20
4694.4791783799992
 30
2.0
  0
VERTEX
  5
1979
  8
DISTRICTS
 10
646.24529278900002
 20
4694.381861580001
 30
2.0
  0
VERTEX
  5
197A
  8
DISTRICTS
 10
646.16555653499995
 20
4694.2816229099999
 30
2.0
  0
VERTEX
  5
197B
  8
DISTRICTS
 10
646.14596949899999
 20
4694.2555469700001
 30
2.0
  0
VERTEX
  5
197C
  8
DISTRICTS
 10
646.06612783499986
 20
4694.1813842499996
 30
2.0
  0
VERTEX
  5
197D
  8
DISTRICTS
 10
646.04575163399988
 20
4694.1645455999978
 30
2.0
  0
VERTEX
  5
197E
  8
DISTRICTS
 10
645.94190606899997
 20
4694.0811455800022
 30
2.0
  0
VERTEX
  5
197F
  8
DISTRICTS
 10
645.84531590400002
 20
4694.0016523300001
 30
2.0
  0
VERTEX
  5
1980
  8
DISTRICTS
 10
645.82244491999995
 20
4693.9809069200001
 30
2.0
  0
VERTEX
  5
1981
  8
DISTRICTS
 10
645.74509803899991
 20
4693.9061899300004
 30
2.0
  0
VERTEX
  5
1982
  8
DISTRICTS
 10
645.72071681
 20
4693.8806682599989
 30
2.0
  0
VERTEX
  5
1983
  8
DISTRICTS
 10
645.64488017400004
 20
4693.7896774500014
 30
2.0
  0
VERTEX
  5
1984
  8
DISTRICTS
 10
645.63737178400004
 20
4693.7804295899987
 30
2.0
  0
VERTEX
  5
1985
  8
DISTRICTS
 10
645.56760073400005
 20
4693.6801909300002
 30
2.0
  0
VERTEX
  5
1986
  8
DISTRICTS
 10
645.54466230900005
 20
4693.6371208800001
 30
2.0
  0
VERTEX
  5
1987
  8
DISTRICTS
 10
645.51149914600001
 20
4693.5799522699999
 30
2.0
  0
VERTEX
  5
1988
  8
DISTRICTS
 10
645.46804400099995
 20
4693.4797136000007
 30
2.0
  0
VERTEX
  5
1989
  8
DISTRICTS
 10
645.44444444400006
 20
4693.3983014699998
 30
2.0
  0
VERTEX
  5
198A
  8
DISTRICTS
 10
645.43764239699999
 20
4693.3794749400013
 30
2.0
  0
VERTEX
  5
198B
  8
DISTRICTS
 10
645.41587570499996
 20
4693.2792362800001
 30
2.0
  0
VERTEX
  5
198C
  8
DISTRICTS
 10
645.40901518999999
 20
4693.1789976099999
 30
2.0
  0
VERTEX
  5
198D
  8
DISTRICTS
 10
645.41689635299986
 20
4693.0787589499969
 30
2.0
  0
VERTEX
  5
198E
  8
DISTRICTS
 10
645.43976179000003
 20
4692.9785202900002
 30
2.0
  0
VERTEX
  5
198F
  8
DISTRICTS
 10
645.44444444400006
 20
4692.9654988000002
 30
2.0
  0
VERTEX
  5
1990
  8
DISTRICTS
 10
645.47165961199994
 20
4692.8782816199991
 30
2.0
  0
VERTEX
  5
1991
  8
DISTRICTS
 10
645.51908182900002
 20
4692.7780429599989
 30
2.0
  0
VERTEX
  5
1992
  8
DISTRICTS
 10
645.54466230900005
 20
4692.7365935600001
 30
2.0
  0
VERTEX
  5
1993
  8
DISTRICTS
 10
645.58075146199997
 20
4692.6778043000004
 30
2.0
  0
VERTEX
  5
1994
  8
DISTRICTS
 10
645.64488017400004
 20
4692.5968370399987
 30
2.0
  0
VERTEX
  5
1995
  8
DISTRICTS
 10
645.66147519800006
 20
4692.5775656300002
 30
2.0
  0
VERTEX
  5
1996
  8
DISTRICTS
 10
645.74509803899991
 20
4692.4950017399997
 30
2.0
  0
VERTEX
  5
1997
  8
DISTRICTS
 10
645.76644263000003
 20
4692.477326969999
 30
2.0
  0
VERTEX
  5
1998
  8
DISTRICTS
 10
645.84531590400002
 20
4692.4171194800001
 30
2.0
  0
VERTEX
  5
1999
  8
DISTRICTS
 10
645.91367855199996
 20
4692.3770883099978
 30
2.0
  0
VERTEX
  5
199A
  8
DISTRICTS
 10
645.94553376900001
 20
4692.3587293099999
 30
2.0
  0
VERTEX
  5
199B
  8
DISTRICTS
 10
646.04575163399988
 20
4692.31246938
 30
2.0
  0
VERTEX
  5
199C
  8
DISTRICTS
 10
646.14596949899999
 20
4692.2797031
 30
2.0
  0
VERTEX
  5
199D
  8
DISTRICTS
 10
646.15783541899998
 20
4692.2768496400004
 30
2.0
  0
VERTEX
  5
199E
  8
DISTRICTS
 10
646.24618736399975
 20
4692.2529116100004
 30
2.0
  0
VERTEX
  5
199F
  8
DISTRICTS
 10
646.34640522899986
 20
4692.2348228700002
 30
2.0
  0
VERTEX
  5
19A0
  8
DISTRICTS
 10
646.44662309399985
 20
4692.22451413
 30
2.0
  0
VERTEX
  5
19A1
  8
DISTRICTS
 10
646.54684095899995
 20
4692.2209200200014
 30
2.0
  0
VERTEX
  5
19A2
  8
DISTRICTS
 10
646.64705882400006
 20
4692.2232411000014
 30
2.0
  0
VERTEX
  5
19A3
  8
DISTRICTS
 10
646.74727668800006
 20
4692.2307336699969
 30
2.0
  0
VERTEX
  5
19A4
  8
DISTRICTS
 10
646.84749455300005
 20
4692.2424251999992
 30
2.0
  0
VERTEX
  5
19A5
  8
DISTRICTS
 10
646.94771241800004
 20
4692.2567597099996
 30
2.0
  0
VERTEX
  5
19A6
  8
DISTRICTS
 10
647.04793028300003
 20
4692.2711993399998
 30
2.0
  0
VERTEX
  5
19A7
  8
DISTRICTS
 10
647.10335370099995
 20
4692.2768496400004
 30
2.0
  0
VERTEX
  5
19A8
  8
DISTRICTS
 10
647.14814814800002
 20
4692.2816058799981
 30
2.0
  0
VERTEX
  5
19A9
  8
DISTRICTS
 10
647.2483660129999
 20
4692.2830427699992
 30
2.0
  0
VERTEX
  5
19AA
  8
DISTRICTS
 10
647.29138503499985
 20
4692.2768496400004
 30
2.0
  0
VERTEX
  5
19AB
  8
DISTRICTS
 10
647.348583878
 20
4692.2680278099988
 30
2.0
  0
VERTEX
  5
19AC
  8
DISTRICTS
 10
647.44880174299965
 20
4692.2284341599989
 30
2.0
  0
VERTEX
  5
19AD
  8
DISTRICTS
 10
647.52149018699993
 20
4692.1766109800001
 30
2.0
  0
VERTEX
  5
19AE
  8
DISTRICTS
 10
647.54901960799987
 20
4692.1601925200002
 30
2.0
  0
VERTEX
  5
19AF
  8
DISTRICTS
 10
647.64923747300008
 20
4692.087145739999
 30
2.0
  0
VERTEX
  5
19B0
  8
DISTRICTS
 10
647.66559309800004
 20
4692.076372319998
 30
2.0
  0
VERTEX
  5
19B1
  8
DISTRICTS
 10
647.71122894086238
 20
4692.0506462333933
 30
2.0
  0
SEQEND
  5
19B2
  8
DISTRICTS
  0
POLYLINE
  5
B1F
  8
DISTRICTS
 66
     1
 10
0.0
 20
0.0
 30
3.0
 70
     1
  0
VERTEX
  5
19B3
  8
DISTRICTS
 10
647.71122894086238
 20
4692.0506462333933
 30
3.0
  0
VERTEX
  5
19B4
  8
DISTRICTS
 10
647.74945533799985
 20
4692.0290970400001
 30
3.0
  0
VERTEX
  5
19B5
  8
DISTRICTS
 10
647.84967320299995
 20
4691.9958907199998
 30
3.0
  0
VERTEX
  5
19B6
  8
DISTRICTS
 10
647.94989106800006
 20
4691.9820477100002
 30
3.0
  0
VERTEX
  5
19B7
  8
DISTRICTS
 10
648.05010893199994
 20
4691.9776919799997
 30
3.0
  0
VERTEX
  5
19B8
  8
DISTRICTS
 10
648.09912974899999
 20
4691.9761336499978
 30
3.0
  0
VERTEX
  5
19B9
  8
DISTRICTS
 10
648.15032679699993
 20
4691.9737111999984
 30
3.0
  0
VERTEX
  5
19BA
  8
DISTRICTS
 10
648.25054466199992
 20
4691.9603244999998
 30
3.0
  0
VERTEX
  5
19BB
  8
DISTRICTS
 10
648.35076252699992
 20
4691.9309188099978
 30
3.0
  0
VERTEX
  5
19BC
  8
DISTRICTS
 10
648.45098039199991
 20
4691.8836886699992
 30
3.0
  0
VERTEX
  5
19BD
  8
DISTRICTS
 10
648.46351925299984
 20
4691.8758949900002
 30
3.0
  0
VERTEX
  5
19BE
  8
DISTRICTS
 10
648.55119825700001
 20
4691.8202436800002
 30
3.0
  0
VERTEX
  5
19BF
  8
DISTRICTS
 10
648.609837836
 20
4691.7756563199991
 30
3.0
  0
VERTEX
  5
19C0
  8
DISTRICTS
 10
648.651416122
 20
4691.7444757800013
 30
3.0
  0
VERTEX
  5
19C1
  8
DISTRICTS
 10
648.73336790999986
 20
4691.6754176599989
 30
3.0
  0
VERTEX
  5
19C2
  8
DISTRICTS
 10
648.75163398699988
 20
4691.6606476899997
 30
3.0
  0
VERTEX
  5
19C3
  8
DISTRICTS
 10
648.85185185199998
 20
4691.5739422300003
 30
3.0
  0
VERTEX
  5
19C4
  8
DISTRICTS
 10
648.95206971699963
 20
4691.48831565
 30
3.0
  0
VERTEX
  5
19C5
  8
DISTRICTS
 10
648.96767780300002
 20
4691.4749403300002
 30
3.0
  0
VERTEX
  5
19C6
  8
DISTRICTS
 10
649.05228758199985
 20
4691.4052898
 30
3.0
  0
VERTEX
  5
19C7
  8
DISTRICTS
 10
649.08957137599975
 20
4691.3747016699999
 30
3.0
  0
VERTEX
  5
19C8
  8
DISTRICTS
 10
649.15250544699995
 20
4691.3248368100003
 30
3.0
  0
VERTEX
  5
19C9
  8
DISTRICTS
 10
649.21642371899986
 20
4691.2744630099996
 30
3.0
  0
VERTEX
  5
19CA
  8
DISTRICTS
 10
649.25272331199994
 20
4691.246973100001
 30
3.0
  0
VERTEX
  5
19CB
  8
DISTRICTS
 10
649.35294117599994
 20
4691.1723967199978
 30
3.0
  0
VERTEX
  5
19CC
  8
DISTRICTS
 10
649.45315904099994
 20
4691.1010898599998
 30
3.0
  0
VERTEX
  5
19CD
  8
DISTRICTS
 10
649.492799322
 20
4691.0739856800001
 30
3.0
  0
VERTEX
  5
19CE
  8
DISTRICTS
 10
649.55337690600004
 20
4691.0342362199999
 30
3.0
  0
VERTEX
  5
19CF
  8
DISTRICTS
 10
649.65359477100003
 20
4690.9725646300003
 30
3.0
  0
VERTEX
  5
19D0
  8
DISTRICTS
 10
649.75381263600002
 20
4690.9146674599988
 30
3.0
  0
VERTEX
  5
19D1
  8
DISTRICTS
 10
649.83263760900002
 20
4690.8735083499996
 30
3.0
  0
VERTEX
  5
19D2
  8
DISTRICTS
 10
649.85403050100001
 20
4690.8625707299998
 30
3.0
  0
VERTEX
  5
19D3
  8
DISTRICTS
 10
649.95424836599989
 20
4690.8145482299969
 30
3.0
  0
VERTEX
  5
19D4
  8
DISTRICTS
 10
650.05446623099999
 20
4690.7726820199969
 30
3.0
  0
VERTEX
  5
19D5
  8
DISTRICTS
 10
650.15468409599976
 20
4690.7340575300022
 30
3.0
  0
VERTEX
  5
19D6
  8
DISTRICTS
 10
650.25490196099986
 20
4690.7012347600003
 30
3.0
  0
VERTEX
  5
19D7
  8
DISTRICTS
 10
650.359271046
 20
4690.6730310299999
 30
3.0
  0
VERTEX
  5
19D8
  8
DISTRICTS
 10
650.45533769099995
 20
4690.6499838199998
 30
3.0
  0
VERTEX
  5
19D9
  8
DISTRICTS
 10
650.55555555599994
 20
4690.6311765099999
 30
3.0
  0
VERTEX
  5
19DA
  8
DISTRICTS
 10
650.65577341999995
 20
4690.6174804599996
 30
3.0
  0
VERTEX
  5
19DB
  8
DISTRICTS
 10
650.75599128500005
 20
4690.6087573200002
 30
3.0
  0
VERTEX
  5
19DC
  8
DISTRICTS
 10
650.85620915000004
 20
4690.6049312499999
 30
3.0
  0
VERTEX
  5
19DD
  8
DISTRICTS
 10
650.95642701500003
 20
4690.6060138299999
 30
3.0
  0
VERTEX
  5
19DE
  8
DISTRICTS
 10
651.05664488000002
 20
4690.6121278000001
 30
3.0
  0
VERTEX
  5
19DF
  8
DISTRICTS
 10
651.1568627449999
 20
4690.6235281099998
 30
3.0
  0
VERTEX
  5
19E0
  8
DISTRICTS
 10
651.25708061
 20
4690.6406187499979
 30
3.0
  0
VERTEX
  5
19E1
  8
DISTRICTS
 10
651.35729847499965
 20
4690.6639642199989
 30
3.0
  0
VERTEX
  5
19E2
  8
DISTRICTS
 10
651.38795304999985
 20
4690.6730310299999
 30
3.0
  0
VERTEX
  5
19E3
  8
DISTRICTS
 10
651.45751633999987
 20
4690.69202021
 30
3.0
  0
VERTEX
  5
19E4
  8
DISTRICTS
 10
651.55773420499997
 20
4690.72640409
 30
3.0
  0
VERTEX
  5
19E5
  8
DISTRICTS
 10
651.66602140999976
 20
4690.7732696900011
 30
3.0
  0
VERTEX
  5
19E6
  8
DISTRICTS
 10
651.75816993499996
 20
4690.8173471600003
 30
3.0
  0
VERTEX
  5
19E7
  8
DISTRICTS
 10
651.85838779999995
 20
4690.875875239999
 30
3.0
  0
VERTEX
  5
19E8
  8
DISTRICTS
 10
651.95860566399995
 20
4690.9418110400002
 30
3.0
  0
VERTEX
  5
19E9
  8
DISTRICTS
 10
652.00057042099991
 20
4690.9737470199998
 30
3.0
  0
VERTEX
  5
19EA
  8
DISTRICTS
 10
652.05882352900005
 20
4691.0193597799989
 30
3.0
  0
VERTEX
  5
19EB
  8
DISTRICTS
 10
652.12054682899975
 20
4691.0739856800001
 30
3.0
  0
VERTEX
  5
19EC
  8
DISTRICTS
 10
652.15904139400004
 20
4691.1100607600001
 30
3.0
  0
VERTEX
  5
19ED
  8
DISTRICTS
 10
652.22135809899987
 20
4691.1742243400004
 30
3.0
  0
VERTEX
  5
19EE
  8
DISTRICTS
 10
652.25925925900003
 20
4691.2168336200002
 30
3.0
  0
VERTEX
  5
19EF
  8
DISTRICTS
 10
652.30727241199975
 20
4691.2744630099996
 30
3.0
  0
VERTEX
  5
19F0
  8
DISTRICTS
 10
652.35947712399991
 20
4691.3450610600003
 30
3.0
  0
VERTEX
  5
19F1
  8
DISTRICTS
 10
652.38058061000004
 20
4691.3747016699999
 30
3.0
  0
VERTEX
  5
19F2
  8
DISTRICTS
 10
652.44361994799999
 20
4691.4749403300002
 30
3.0
  0
VERTEX
  5
19F3
  8
DISTRICTS
 10
652.45969498900001
 20
4691.5045705499997
 30
3.0
  0
VERTEX
  5
19F4
  8
DISTRICTS
 10
652.49809630399989
 20
4691.5751789999986
 30
3.0
  0
VERTEX
  5
19F5
  8
DISTRICTS
 10
652.54353623999975
 20
4691.6754176599989
 30
3.0
  0
VERTEX
  5
19F6
  8
DISTRICTS
 10
652.559912854
 20
4691.7189469000004
 30
3.0
  0
VERTEX
  5
19F7
  8
DISTRICTS
 10
652.58211749899988
 20
4691.7756563199991
 30
3.0
  0
VERTEX
  5
19F8
  8
DISTRICTS
 10
652.61414144699995
 20
4691.8758949900002
 30
3.0
  0
VERTEX
  5
19F9
  8
DISTRICTS
 10
652.6388465
 20
4691.9761336499978
 30
3.0
  0
VERTEX
  5
19FA
  8
DISTRICTS
 10
652.65704460500001
 20
4692.076372319998
 30
3.0
  0
VERTEX
  5
19FB
  8
DISTRICTS
 10
652.66013071899988
 20
4692.1010731299993
 30
3.0
  0
VERTEX
  5
19FC
  8
DISTRICTS
 10
652.67052264899985
 20
4692.1766109800001
 30
3.0
  0
VERTEX
  5
19FD
  8
DISTRICTS
 10
652.67833061399995
 20
4692.2768496400004
 30
3.0
  0
VERTEX
  5
19FE
  8
DISTRICTS
 10
652.68038349099993
 20
4692.3770883099978
 30
3.0
  0
VERTEX
  5
19FF
  8
DISTRICTS
 10
652.676831623
 20
4692.477326969999
 30
3.0
  0
VERTEX
  5
1A00
  8
DISTRICTS
 10
652.66770113300004
 20
4692.5775656300002
 30
3.0
  0
VERTEX
  5
1A01
  8
DISTRICTS
 10
652.66013071899988
 20
4692.6295773399988
 30
3.0
  0
VERTEX
  5
1A02
  8
DISTRICTS
 10
652.65362733099994
 20
4692.6778043000004
 30
3.0
  0
VERTEX
  5
1A03
  8
DISTRICTS
 10
652.63492946999997
 20
4692.7780429599989
 30
3.0
  0
VERTEX
  5
1A04
  8
DISTRICTS
 10
652.610537303
 20
4692.8782816199991
 30
3.0
  0
VERTEX
  5
1A05
  8
DISTRICTS
 10
652.58015438300004
 20
4692.9785202900002
 30
3.0
  0
VERTEX
  5
1A06
  8
DISTRICTS
 10
652.559912854
 20
4693.0352590000011
 30
3.0
  0
VERTEX
  5
1A07
  8
DISTRICTS
 10
652.54481178900005
 20
4693.0787589499969
 30
3.0
  0
VERTEX
  5
1A08
  8
DISTRICTS
 10
652.50478738499999
 20
4693.1789976099999
 30
3.0
  0
VERTEX
  5
1A09
  8
DISTRICTS
 10
652.45838002699998
 20
4693.2792362800001
 30
3.0
  0
VERTEX
  5
1A0A
  8
DISTRICTS
 10
652.40879969100001
 20
4693.3794749400013
 30
3.0
  0
VERTEX
  5
1A0B
  8
DISTRICTS
 10
652.35947712399991
 20
4693.4691617999988
 30
3.0
  0
VERTEX
  5
1A0C
  8
DISTRICTS
 10
652.35365211800001
 20
4693.4797136000007
 30
3.0
  0
VERTEX
  5
1A0D
  8
DISTRICTS
 10
652.29652651900005
 20
4693.5799522699999
 30
3.0
  0
VERTEX
  5
1A0E
  8
DISTRICTS
 10
652.25925925900003
 20
4693.6427434099978
 30
3.0
  0
VERTEX
  5
1A0F
  8
DISTRICTS
 10
652.23737198399999
 20
4693.6801909300002
 30
3.0
  0
VERTEX
  5
1A10
  8
DISTRICTS
 10
652.17913728400003
 20
4693.7804295899987
 30
3.0
  0
VERTEX
  5
1A11
  8
DISTRICTS
 10
652.15904139400004
 20
4693.8182864399987
 30
3.0
  0
VERTEX
  5
1A12
  8
DISTRICTS
 10
652.12616952899975
 20
4693.8806682599989
 30
3.0
  0
VERTEX
  5
1A13
  8
DISTRICTS
 10
652.10267366599965
 20
4693.9809069200001
 30
3.0
  0
VERTEX
  5
1A14
  8
DISTRICTS
 10
652.12195857799986
 20
4694.0811455800022
 30
3.0
  0
VERTEX
  5
1A15
  8
DISTRICTS
 10
652.12488669000004
 20
4694.1813842499996
 30
3.0
  0
VERTEX
  5
1A16
  8
DISTRICTS
 10
652.12051762299996
 20
4694.2816229099999
 30
3.0
  0
VERTEX
  5
1A17
  8
DISTRICTS
 10
652.11009408400002
 20
4694.381861580001
 30
3.0
  0
VERTEX
  5
1A18
  8
DISTRICTS
 10
652.05882352900005
 20
4694.4283303900002
 30
3.0
  0
VERTEX
  5
1A19
  8
DISTRICTS
 10
651.95860566399995
 20
4694.4000149000003
 30
3.0
  0
VERTEX
  5
1A1A
  8
DISTRICTS
 10
651.92737554400003
 20
4694.381861580001
 30
3.0
  0
VERTEX
  5
1A1B
  8
DISTRICTS
 10
651.88148326400005
 20
4694.2816229099999
 30
3.0
  0
VERTEX
  5
1A1C
  8
DISTRICTS
 10
651.85838779999995
 20
4694.2261476499998
 30
3.0
  0
VERTEX
  5
1A1D
  8
DISTRICTS
 10
651.75816993499996
 20
4694.2171699700002
 30
3.0
  0
VERTEX
  5
1A1E
  8
DISTRICTS
 10
651.65795206999985
 20
4694.2486579699998
 30
3.0
  0
VERTEX
  5
1A1F
  8
DISTRICTS
 10
651.55773420499997
 20
4694.2670849799988
 30
3.0
  0
VERTEX
  5
1A20
  8
DISTRICTS
 10
651.50301959199965
 20
4694.2816229099999
 30
3.0
  0
VERTEX
  5
1A21
  8
DISTRICTS
 10
651.45751633999987
 20
4694.2951286999996
 30
3.0
  0
VERTEX
  5
1A22
  8
DISTRICTS
 10
651.35729847499965
 20
4694.3273690899978
 30
3.0
  0
VERTEX
  5
1A23
  8
DISTRICTS
 10
651.25708061
 20
4694.3590983399999
 30
3.0
  0
VERTEX
  5
1A24
  8
DISTRICTS
 10
651.18022658400002
 20
4694.381861580001
 30
3.0
  0
VERTEX
  5
1A25
  8
DISTRICTS
 10
651.1568627449999
 20
4694.3890967099996
 30
3.0
  0
VERTEX
  5
1A26
  8
DISTRICTS
 10
651.05664488000002
 20
4694.4177923999987
 30
3.0
  0
VERTEX
  5
1A27
  8
DISTRICTS
 10
650.95642701500003
 20
4694.442979739998
 30
3.0
  0
VERTEX
  5
1A28
  8
DISTRICTS
 10
650.85620915000004
 20
4694.4644909400004
 30
3.0
  0
VERTEX
  5
1A29
  8
DISTRICTS
 10
650.75599128500005
 20
4694.4823410400004
 30
3.0
  0
VERTEX
  5
1A2A
  8
DISTRICTS
 10
650.65577341999995
 20
4694.4979941700003
 30
3.0
  0
VERTEX
  5
1A2B
  8
DISTRICTS
 10
650.55555555599994
 20
4694.5098831300002
 30
3.0
  0
VERTEX
  5
1A2C
  8
DISTRICTS
 10
650.45533769099995
 20
4694.5181157799998
 30
3.0
  0
VERTEX
  5
1A2D
  8
DISTRICTS
 10
650.35511982599985
 20
4694.5228112799969
 30
3.0
  0
VERTEX
  5
1A2E
  8
DISTRICTS
 10
650.25490196099986
 20
4694.5240917799993
 30
3.0
  0
VERTEX
  5
1A2F
  8
DISTRICTS
 10
650.15468409599976
 20
4694.5220824300004
 30
3.0
  0
VERTEX
  5
1A30
  8
DISTRICTS
 10
650.05446623099999
 20
4694.5169222200002
 30
3.0
  0
VERTEX
  5
1A31
  8
DISTRICTS
 10
649.95424836599989
 20
4694.5087903699969
 30
3.0
  0
VERTEX
  5
1A32
  8
DISTRICTS
 10
649.85403050100001
 20
4694.497952839999
 30
3.0
  0
VERTEX
  5
1A33
  8
DISTRICTS
 10
649.75381263600002
 20
4694.4848228600003
 30
3.0
  0
VERTEX
  5
1A34
  8
DISTRICTS
 10
649.73490680899999
 20
4694.4821002400013
 30
3.0
  0
VERTEX
  5
1A35
  8
DISTRICTS
 10
649.65359477100003
 20
4694.4708188100012
 30
3.0
  0
VERTEX
  5
1A36
  8
DISTRICTS
 10
649.55337690600004
 20
4694.4560149199997
 30
3.0
  0
VERTEX
  5
1A37
  8
DISTRICTS
 10
649.45315904099994
 20
4694.4411270800001
 30
3.0
  0
VERTEX
  5
1A38
  8
DISTRICTS
 10
649.35294117599994
 20
4694.4270743899997
 30
3.0
  0
VERTEX
  5
1A39
  8
DISTRICTS
 10
649.25272331199994
 20
4694.4145469499999
 30
3.0
  0
VERTEX
  5
1A3A
  8
DISTRICTS
 10
649.15250544699995
 20
4694.4037957099999
 30
3.0
  0
VERTEX
  5
1A3B
  8
DISTRICTS
 10
649.05228758199985
 20
4694.39451689
 30
3.0
  0
VERTEX
  5
1A3C
  8
DISTRICTS
 10
648.95206971699963
 20
4694.3858720999979
 30
3.0
  0
VERTEX
  5
1A3D
  8
DISTRICTS
 10
648.90884746899985
 20
4694.381861580001
 30
3.0
  0
VERTEX
  5
1A3E
  8
DISTRICTS
 10
648.85185185199998
 20
4694.3771897899987
 30
3.0
  0
VERTEX
  5
1A3F
  8
DISTRICTS
 10
648.75163398699988
 20
4694.3673061400013
 30
3.0
  0
VERTEX
  5
1A40
  8
DISTRICTS
 10
648.651416122
 20
4694.3545000300001
 30
3.0
  0
VERTEX
  5
1A41
  8
DISTRICTS
 10
648.55119825700001
 20
4694.33744415
 30
3.0
  0
VERTEX
  5
1A42
  8
DISTRICTS
 10
648.45098039199991
 20
4694.31495593
 30
3.0
  0
VERTEX
  5
1A43
  8
DISTRICTS
 10
648.35076252699992
 20
4694.2862623199999
 30
3.0
  0
VERTEX
  5
1A44
  8
DISTRICTS
 10
648.33647910399975
 20
4694.2816229099999
 30
3.0
  0
VERTEX
  5
1A45
  8
DISTRICTS
 10
648.25054466199992
 20
4694.2542793100001
 30
3.0
  0
VERTEX
  5
1A46
  8
DISTRICTS
 10
648.15032679699993
 20
4694.216566619999
 30
3.0
  0
VERTEX
  5
1A47
  8
DISTRICTS
 10
648.06410977500002
 20
4694.1813842499996
 30
3.0
  0
VERTEX
  5
1A48
  8
DISTRICTS
 10
648.05010893199994
 20
4694.1752872899997
 30
3.0
  0
VERTEX
  5
1A49
  8
DISTRICTS
 10
647.94989106800006
 20
4694.1347543299999
 30
3.0
  0
VERTEX
  5
1A4A
  8
DISTRICTS
 10
647.92924729157346
 20
4694.1273941231102
 30
3.0
  0
SEQEND
  5
1A4B
  8
DISTRICTS
  0
POLYLINE
  5
BB9
  8
DISTRICTS
 66
     1
 10
0.0
 20
0.0
 30
4.0
 70
     1
  0
VERTEX
  5
1A4C
  8
DISTRICTS
 10
632.31874490099995
 20
4679.6467780399998
 30
4.0
  0
VERTEX
  5
1A4D
  8
DISTRICTS
 10
632.21568627500005
 20
4679.6730573300001
 30
4.0
  0
VERTEX
  5
1A4E
  8
DISTRICTS
 10
632.11546840999995
 20
4679.7087809300001
 30
4.0
  0
VERTEX
  5
1A4F
  8
DISTRICTS
 10
632.02882749000003
 20
4679.74701671
 30
4.0
  0
VERTEX
  5
1A50
  8
DISTRICTS
 10
632.01525054499984
 20
4679.7526945199997
 30
4.0
  0
VERTEX
  5
1A51
  8
DISTRICTS
 10
631.91503267999985
 20
4679.7966934599999
 30
4.0
  0
VERTEX
  5
1A52
  8
DISTRICTS
 10
631.81481481499975
 20
4679.8378005200002
 30
4.0
  0
VERTEX
  5
1A53
  8
DISTRICTS
 10
631.78456739499995
 20
4679.8472553700003
 30
4.0
  0
VERTEX
  5
1A54
  8
DISTRICTS
 10
631.71459694999999
 20
4679.8639229299997
 30
4.0
  0
VERTEX
  5
1A55
  8
DISTRICTS
 10
631.61437908499988
 20
4679.87714211
 30
4.0
  0
VERTEX
  5
1A56
  8
DISTRICTS
 10
631.51416122000001
 20
4679.8954661799989
 30
4.0
  0
VERTEX
  5
1A57
  8
DISTRICTS
 10
631.41394335500001
 20
4679.939104709998
 30
4.0
  0
VERTEX
  5
1A58
  8
DISTRICTS
 10
631.40167826000004
 20
4679.9474940299988
 30
4.0
  0
VERTEX
  5
1A59
  8
DISTRICTS
 10
631.3137254899998
 20
4679.9954547899997
 30
4.0
  0
VERTEX
  5
1A5A
  8
DISTRICTS
 10
631.25755355399986
 20
4680.0477326999999
 30
4.0
  0
VERTEX
  5
1A5B
  8
DISTRICTS
 10
631.21350762500003
 20
4680.0798776199981
 30
4.0
  0
VERTEX
  5
1A5C
  8
DISTRICTS
 10
631.16663478600003
 20
4680.1479713600002
 30
4.0
  0
VERTEX
  5
1A5D
  8
DISTRICTS
 10
631.19362363000016
 20
4680.2482100200023
 30
4.0
  0
VERTEX
  5
1A5E
  8
DISTRICTS
 10
631.21350762500003
 20
4680.2888648799999
 30
4.0
  0
VERTEX
  5
1A5F
  8
DISTRICTS
 10
631.24648535699976
 20
4680.3484486899997
 30
4.0
  0
VERTEX
  5
1A60
  8
DISTRICTS
 10
631.3137254899998
 20
4680.4347293799992
 30
4.0
  0
VERTEX
  5
1A61
  8
DISTRICTS
 10
631.33160557400004
 20
4680.44868735
 30
4.0
  0
VERTEX
  5
1A62
  8
DISTRICTS
 10
631.41394335500001
 20
4680.5287422999991
 30
4.0
  0
VERTEX
  5
1A63
  8
DISTRICTS
 10
631.445863476
 20
4680.5489260100012
 30
4.0
  0
VERTEX
  5
1A64
  8
DISTRICTS
 10
631.51416122000001
 20
4680.6209295400004
 30
4.0
  0
VERTEX
  5
1A65
  8
DISTRICTS
 10
631.54080072500017
 20
4680.6491646799996
 30
4.0
  0
VERTEX
  5
1A66
  8
DISTRICTS
 10
631.60599909099994
 20
4680.7494033399998
 30
4.0
  0
VERTEX
  5
1A67
  8
DISTRICTS
 10
631.61437908499988
 20
4680.7645408899998
 30
4.0
  0
VERTEX
  5
1A68
  8
DISTRICTS
 10
631.65699420199996
 20
4680.8496420000001
 30
4.0
  0
VERTEX
  5
1A69
  8
DISTRICTS
 10
631.70796153399988
 20
4680.9498806700003
 30
4.0
  0
VERTEX
  5
1A6A
  8
DISTRICTS
 10
631.71459694999999
 20
4680.9625130599979
 30
4.0
  0
VERTEX
  5
1A6B
  8
DISTRICTS
 10
631.75837522300003
 20
4681.0501193299997
 30
4.0
  0
VERTEX
  5
1A6C
  8
DISTRICTS
 10
631.81481481499975
 20
4681.1499201899996
 30
4.0
  0
VERTEX
  5
1A6D
  8
DISTRICTS
 10
631.87354023299974
 20
4681.2505966599992
 30
4.0
  0
VERTEX
  5
1A6E
  8
DISTRICTS
 10
631.91503267999985
 20
4681.315814399999
 30
4.0
  0
VERTEX
  5
1A6F
  8
DISTRICTS
 10
631.93748302400002
 20
4681.3508353200004
 30
4.0
  0
VERTEX
  5
1A70
  8
DISTRICTS
 10
632.00448984199988
 20
4681.4510739899988
 30
4.0
  0
VERTEX
  5
1A71
  8
DISTRICTS
 10
632.01525054499984
 20
4681.4668559600013
 30
4.0
  0
VERTEX
  5
1A72
  8
DISTRICTS
 10
632.07249180600002
 20
4681.5513126499991
 30
4.0
  0
VERTEX
  5
1A73
  8
DISTRICTS
 10
632.11546840999995
 20
4681.6118397299988
 30
4.0
  0
VERTEX
  5
1A74
  8
DISTRICTS
 10
632.14302089900002
 20
4681.6515513099994
 30
4.0
  0
VERTEX
  5
1A75
  8
DISTRICTS
 10
632.21568627500005
 20
4681.7493182099997
 30
4.0
  0
VERTEX
  5
1A76
  8
DISTRICTS
 10
632.29577524199976
 20
4681.852028639998
 30
4.0
  0
VERTEX
  5
1A77
  8
DISTRICTS
 10
632.31590413900005
 20
4681.8753374500011
 30
4.0
  0
VERTEX
  5
1A78
  8
DISTRICTS
 10
632.38471408700002
 20
4681.9522673000001
 30
4.0
  0
VERTEX
  5
1A79
  8
DISTRICTS
 10
632.41612200400004
 20
4681.9840772199996
 30
4.0
  0
VERTEX
  5
1A7A
  8
DISTRICTS
 10
632.49060156400003
 20
4682.0525059700003
 30
4.0
  0
VERTEX
  5
1A7B
  8
DISTRICTS
 10
632.51633986900003
 20
4682.0747559600013
 30
4.0
  0
VERTEX
  5
1A7C
  8
DISTRICTS
 10
632.61655773400003
 20
4682.1489018599968
 30
4.0
  0
VERTEX
  5
1A7D
  8
DISTRICTS
 10
632.71677559900002
 20
4682.2127678899988
 30
4.0
  0
VERTEX
  5
1A7E
  8
DISTRICTS
 10
632.79807221099975
 20
4682.25298329
 30
4.0
  0
VERTEX
  5
1A7F
  8
DISTRICTS
 10
632.81699346399989
 20
4682.2630776100004
 30
4.0
  0
VERTEX
  5
1A80
  8
DISTRICTS
 10
632.917211329
 20
4682.3082791999987
 30
4.0
  0
VERTEX
  5
1A81
  8
DISTRICTS
 10
633.01742919399965
 20
4682.3446012399991
 30
4.0
  0
VERTEX
  5
1A82
  8
DISTRICTS
 10
633.04467531499995
 20
4682.3532219600002
 30
4.0
  0
VERTEX
  5
1A83
  8
DISTRICTS
 10
633.11764705899986
 20
4682.3786912200012
 30
4.0
  0
VERTEX
  5
1A84
  8
DISTRICTS
 10
633.21786492399985
 20
4682.4085555199999
 30
4.0
  0
VERTEX
  5
1A85
  8
DISTRICTS
 10
633.31808278899985
 20
4682.4328919199997
 30
4.0
  0
VERTEX
  5
1A86
  8
DISTRICTS
 10
633.41830065399995
 20
4682.4508915099996
 30
4.0
  0
VERTEX
  5
1A87
  8
DISTRICTS
 10
633.44057682100004
 20
4682.4534606200004
 30
4.0
  0
VERTEX
  5
1A88
  8
DISTRICTS
 10
633.51851851900005
 20
4682.4637141599978
 30
4.0
  0
VERTEX
  5
1A89
  8
DISTRICTS
 10
633.61873638300005
 20
4682.4677403400001
 30
4.0
  0
VERTEX
  5
1A8A
  8
DISTRICTS
 10
633.71895424800005
 20
4682.4606816699998
 30
4.0
  0
VERTEX
  5
1A8B
  8
DISTRICTS
 10
633.75459953899997
 20
4682.4534606200004
 30
4.0
  0
VERTEX
  5
1A8C
  8
DISTRICTS
 10
633.81917211300004
 20
4682.4432939199969
 30
4.0
  0
VERTEX
  5
1A8D
  8
DISTRICTS
 10
633.91938997800003
 20
4682.4135023600002
 30
4.0
  0
VERTEX
  5
1A8E
  8
DISTRICTS
 10
634.0196078429999
 20
4682.3624508700013
 30
4.0
  0
VERTEX
  5
1A8F
  8
DISTRICTS
 10
634.03318782699978
 20
4682.3532219600002
 30
4.0
  0
VERTEX
  5
1A90
  8
DISTRICTS
 10
634.11982570800001
 20
4682.2926414699996
 30
4.0
  0
VERTEX
  5
1A91
  8
DISTRICTS
 10
634.16185065399975
 20
4682.25298329
 30
4.0
  0
VERTEX
  5
1A92
  8
DISTRICTS
 10
634.22004357299966
 20
4682.1851303399999
 30
4.0
  0
VERTEX
  5
1A93
  8
DISTRICTS
 10
634.244687849
 20
4682.152744629997
 30
4.0
  0
VERTEX
  5
1A94
  8
DISTRICTS
 10
634.30035736800005
 20
4682.0525059700003
 30
4.0
  0
VERTEX
  5
1A95
  8
DISTRICTS
 10
634.32026143799987
 20
4681.9909206100001
 30
4.0
  0
VERTEX
  5
1A96
  8
DISTRICTS
 10
634.33482546200003
 20
4681.9522673000001
 30
4.0
  0
VERTEX
  5
1A97
  8
DISTRICTS
 10
634.35509404699997
 20
4681.852028639998
 30
4.0
  0
VERTEX
  5
1A98
  8
DISTRICTS
 10
634.35914856300008
 20
4681.7517899799977
 30
4.0
  0
VERTEX
  5
1A99
  8
DISTRICTS
 10
634.34892440299996
 20
4681.6515513099994
 30
4.0
  0
VERTEX
  5
1A9A
  8
DISTRICTS
 10
634.32489141500002
 20
4681.5513126499991
 30
4.0
  0
VERTEX
  5
1A9B
  8
DISTRICTS
 10
634.32026143799987
 20
4681.5373031699992
 30
4.0
  0
VERTEX
  5
1A9C
  8
DISTRICTS
 10
634.29232502800005
 20
4681.4510739899988
 30
4.0
  0
VERTEX
  5
1A9D
  8
DISTRICTS
 10
634.24747825600002
 20
4681.3508353200004
 30
4.0
  0
VERTEX
  5
1A9E
  8
DISTRICTS
 10
634.22004357299966
 20
4681.2973629199969
 30
4.0
  0
VERTEX
  5
1A9F
  8
DISTRICTS
 10
634.19424412800004
 20
4681.2505966599992
 30
4.0
  0
VERTEX
  5
1AA0
  8
DISTRICTS
 10
634.13604851499997
 20
4681.1503579999999
 30
4.0
  0
VERTEX
  5
1AA1
  8
DISTRICTS
 10
634.11982570800001
 20
4681.1218772199991
 30
4.0
  0
VERTEX
  5
1AA2
  8
DISTRICTS
 10
634.07723651499998
 20
4681.0501193299997
 30
4.0
  0
VERTEX
  5
1AA3
  8
DISTRICTS
 10
634.0196078429999
 20
4680.950392849998
 30
4.0
  0
VERTEX
  5
1AA4
  8
DISTRICTS
 10
633.96671486299999
 20
4680.8496420000001
 30
4.0
  0
VERTEX
  5
1AA5
  8
DISTRICTS
 10
633.91938997800003
 20
4680.7582065699999
 30
4.0
  0
VERTEX
  5
1AA6
  8
DISTRICTS
 10
633.86751999899991
 20
4680.6491646799996
 30
4.0
  0
VERTEX
  5
1AA7
  8
DISTRICTS
 10
633.81917211300004
 20
4680.5536702400013
 30
4.0
  0
VERTEX
  5
1AA8
  8
DISTRICTS
 10
633.76735810800005
 20
4680.44868735
 30
4.0
  0
VERTEX
  5
1AA9
  8
DISTRICTS
 10
633.71895424800005
 20
4680.3642184199998
 30
4.0
  0
VERTEX
  5
1AAA
  8
DISTRICTS
 10
633.71054662199992
 20
4680.3484486899997
 30
4.0
  0
VERTEX
  5
1AAB
  8
DISTRICTS
 10
633.64951286199994
 20
4680.2482100200023
 30
4.0
  0
VERTEX
  5
1AAC
  8
DISTRICTS
 10
633.61873638300005
 20
4680.2050449400012
 30
4.0
  0
VERTEX
  5
1AAD
  8
DISTRICTS
 10
633.57896970100001
 20
4680.1479713600002
 30
4.0
  0
VERTEX
  5
1AAE
  8
DISTRICTS
 10
633.51851851900005
 20
4680.0746255699969
 30
4.0
  0
VERTEX
  5
1AAF
  8
DISTRICTS
 10
633.49595502499994
 20
4680.0477326999999
 30
4.0
  0
VERTEX
  5
1AB0
  8
DISTRICTS
 10
633.41830065399995
 20
4679.9677419700001
 30
4.0
  0
VERTEX
  5
1AB1
  8
DISTRICTS
 10
633.39718891999985
 20
4679.9474940299988
 30
4.0
  0
VERTEX
  5
1AB2
  8
DISTRICTS
 10
633.31808278899985
 20
4679.8795266099969
 30
4.0
  0
VERTEX
  5
1AB3
  8
DISTRICTS
 10
633.27502814599995
 20
4679.8472553700003
 30
4.0
  0
VERTEX
  5
1AB4
  8
DISTRICTS
 10
633.21786492399985
 20
4679.8071244899993
 30
4.0
  0
VERTEX
  5
1AB5
  8
DISTRICTS
 10
633.11764705899986
 20
4679.7497757299998
 30
4.0
  0
VERTEX
  5
1AB6
  8
DISTRICTS
 10
633.01742919399965
 20
4679.7012609099993
 30
4.0
  0
VERTEX
  5
1AB7
  8
DISTRICTS
 10
632.917211329
 20
4679.6657872699989
 30
4.0
  0
VERTEX
  5
1AB8
  8
DISTRICTS
 10
632.839936964
 20
4679.6467780399998
 30
4.0
  0
VERTEX
  5
1AB9
  8
DISTRICTS
 10
632.81699346399989
 20
4679.6406007299993
 30
4.0
  0
VERTEX
  5
1ABA
  8
DISTRICTS
 10
632.71677559900002
 20
4679.62266146
 30
4.0
  0
VERTEX
  5
1ABB
  8
DISTRICTS
 10
632.61655773400003
 20
4679.6146246899998
 30
4.0
  0
VERTEX
  5
1ABC
  8
DISTRICTS
 10
632.51633986900003
 20
4679.6159801800004
 30
4.0
  0
VERTEX
  5
1ABD
  8
DISTRICTS
 10
632.41612200400004
 20
4679.6267485899989
 30
4.0
  0
SEQEND
  5
1ABE
  8
DISTRICTS
  0
POLYLINE
  5
C2D
  8
DISTRICTS
 66
     1
 10
0.0
 20
0.0
 30
6.0
 70
     1
  0
VERTEX
  5
1ABF
  8
DISTRICTS
 10
641.72054304400001
 20
4677.6420047700003
 30
6.0
  0
VERTEX
  5
1AC0
  8
DISTRICTS
 10
641.63616557699993
 20
4677.6478145299998
 30
6.0
  0
VERTEX
  5
1AC1
  8
DISTRICTS
 10
641.53594771199994
 20
4677.6636824400002
 30
6.0
  0
VERTEX
  5
1AC2
  8
DISTRICTS
 10
641.43572984699995
 20
4677.6905005500003
 30
6.0
  0
VERTEX
  5
1AC3
  8
DISTRICTS
 10
641.33551198300006
 20
4677.7316194599998
 30
6.0
  0
VERTEX
  5
1AC4
  8
DISTRICTS
 10
641.31599380599994
 20
4677.7422434399996
 30
6.0
  0
VERTEX
  5
1AC5
  8
DISTRICTS
 10
641.23529411799996
 20
4677.7813732699997
 30
6.0
  0
VERTEX
  5
1AC6
  8
DISTRICTS
 10
641.14649741400001
 20
4677.842482099999
 30
6.0
  0
VERTEX
  5
1AC7
  8
DISTRICTS
 10
641.13507625299985
 20
4677.8498579999996
 30
6.0
  0
VERTEX
  5
1AC8
  8
DISTRICTS
 10
641.03485838799998
 20
4677.93460117
 30
6.0
  0
VERTEX
  5
1AC9
  8
DISTRICTS
 10
641.02714654400006
 20
4677.9427207599992
 30
6.0
  0
VERTEX
  5
1ACA
  8
DISTRICTS
 10
640.93741924199992
 20
4678.0429594300003
 30
6.0
  0
VERTEX
  5
1ACB
  8
DISTRICTS
 10
640.869652234
 20
4678.1431980899988
 30
6.0
  0
VERTEX
  5
1ACC
  8
DISTRICTS
 10
640.83442265799965
 20
4678.2306227400013
 30
6.0
  0
VERTEX
  5
1ACD
  8
DISTRICTS
 10
640.82928819899985
 20
4678.24343675
 30
6.0
  0
VERTEX
  5
1ACE
  8
DISTRICTS
 10
640.80756270099994
 20
4678.3436754200002
 30
6.0
  0
VERTEX
  5
1ACF
  8
DISTRICTS
 10
640.81100182900002
 20
4678.4439140799977
 30
6.0
  0
VERTEX
  5
1AD0
  8
DISTRICTS
 10
640.83442265799965
 20
4678.5402150800001
 30
6.0
  0
VERTEX
  5
1AD1
  8
DISTRICTS
 10
640.86842617100001
 20
4678.6443914099991
 30
6.0
  0
VERTEX
  5
1AD2
  8
DISTRICTS
 10
640.918050376
 20
4678.7446300700003
 30
6.0
  0
VERTEX
  5
1AD3
  8
DISTRICTS
 10
640.93464052299987
 20
4678.7710934799989
 30
6.0
  0
VERTEX
  5
1AD4
  8
DISTRICTS
 10
640.97828590499989
 20
4678.8448687399969
 30
6.0
  0
VERTEX
  5
1AD5
  8
DISTRICTS
 10
641.03485838799998
 20
4678.9164399700003
 30
6.0
  0
VERTEX
  5
1AD6
  8
DISTRICTS
 10
641.05810620900002
 20
4678.945107399999
 30
6.0
  0
VERTEX
  5
1AD7
  8
DISTRICTS
 10
641.13507625299985
 20
4679.0208302800002
 30
6.0
  0
VERTEX
  5
1AD8
  8
DISTRICTS
 10
641.16435266500002
 20
4679.0453460600002
 30
6.0
  0
VERTEX
  5
1AD9
  8
DISTRICTS
 10
641.23529411799996
 20
4679.0982262999978
 30
6.0
  0
VERTEX
  5
1ADA
  8
DISTRICTS
 10
641.32266461099994
 20
4679.1455847300003
 30
6.0
  0
VERTEX
  5
1ADB
  8
DISTRICTS
 10
641.33551198300006
 20
4679.15257294
 30
6.0
  0
VERTEX
  5
1ADC
  8
DISTRICTS
 10
641.43572984699995
 20
4679.1942547199969
 30
6.0
  0
VERTEX
  5
1ADD
  8
DISTRICTS
 10
641.53594771199994
 20
4679.2189866099989
 30
6.0
  0
VERTEX
  5
1ADE
  8
DISTRICTS
 10
641.63616557699993
 20
4679.2303251999983
 30
6.0
  0
VERTEX
  5
1ADF
  8
DISTRICTS
 10
641.73638344199992
 20
4679.230286590001
 30
6.0
  0
VERTEX
  5
1AE0
  8
DISTRICTS
 10
641.83660130699991
 20
4679.21908566
 30
6.0
  0
VERTEX
  5
1AE1
  8
DISTRICTS
 10
641.93681917200001
 20
4679.19553713
 30
6.0
  0
VERTEX
  5
1AE2
  8
DISTRICTS
 10
642.037037037
 20
4679.1579626900002
 30
6.0
  0
VERTEX
  5
1AE3
  8
DISTRICTS
 10
642.06376384700002
 20
4679.1455847300003
 30
6.0
  0
VERTEX
  5
1AE4
  8
DISTRICTS
 10
642.13725490199988
 20
4679.11047727
 30
6.0
  0
VERTEX
  5
1AE5
  8
DISTRICTS
 10
642.23747276699999
 20
4679.0521052599997
 30
6.0
  0
VERTEX
  5
1AE6
  8
DISTRICTS
 10
642.33769063199975
 20
4679.0801889699997
 30
6.0
  0
VERTEX
  5
1AE7
  8
DISTRICTS
 10
642.37622885699977
 20
4679.0453460600002
 30
6.0
  0
VERTEX
  5
1AE8
  8
DISTRICTS
 10
642.36450298099999
 20
4678.945107399999
 30
6.0
  0
VERTEX
  5
1AE9
  8
DISTRICTS
 10
642.43790849699985
 20
4678.8485751999988
 30
6.0
  0
VERTEX
  5
1AEA
  8
DISTRICTS
 10
642.50763492699991
 20
4678.7446300700003
 30
6.0
  0
VERTEX
  5
1AEB
  8
DISTRICTS
 10
642.53812636199984
 20
4678.6766851900011
 30
6.0
  0
VERTEX
  5
1AEC
  8
DISTRICTS
 10
642.55492814299998
 20
4678.6443914099991
 30
6.0
  0
VERTEX
  5
1AED
  8
DISTRICTS
 10
642.58987503900005
 20
4678.544152739998
 30
6.0
  0
VERTEX
  5
1AEE
  8
DISTRICTS
 10
642.60764600799985
 20
4678.4439140799977
 30
6.0
  0
VERTEX
  5
1AEF
  8
DISTRICTS
 10
642.61145985400003
 20
4678.3436754200002
 30
6.0
  0
VERTEX
  5
1AF0
  8
DISTRICTS
 10
642.60210314999995
 20
4678.24343675
 30
6.0
  0
VERTEX
  5
1AF1
  8
DISTRICTS
 10
642.57769034499995
 20
4678.1431980899988
 30
6.0
  0
VERTEX
  5
1AF2
  8
DISTRICTS
 10
642.53812636199984
 20
4678.0515581999989
 30
6.0
  0
VERTEX
  5
1AF3
  8
DISTRICTS
 10
642.47365621599965
 20
4677.9427207599992
 30
6.0
  0
VERTEX
  5
1AF4
  8
DISTRICTS
 10
642.43790849699985
 20
4677.8999007800003
 30
6.0
  0
VERTEX
  5
1AF5
  8
DISTRICTS
 10
642.37857187899999
 20
4677.842482099999
 30
6.0
  0
VERTEX
  5
1AF6
  8
DISTRICTS
 10
642.33769063199975
 20
4677.8089148199988
 30
6.0
  0
VERTEX
  5
1AF7
  8
DISTRICTS
 10
642.23747276699999
 20
4677.7481235900004
 30
6.0
  0
VERTEX
  5
1AF8
  8
DISTRICTS
 10
642.22472534400003
 20
4677.7422434399996
 30
6.0
  0
VERTEX
  5
1AF9
  8
DISTRICTS
 10
642.13725490199988
 20
4677.7014868799988
 30
6.0
  0
VERTEX
  5
1AFA
  8
DISTRICTS
 10
642.037037037
 20
4677.6704527800002
 30
6.0
  0
VERTEX
  5
1AFB
  8
DISTRICTS
 10
641.93681917200001
 20
4677.6515080999998
 30
6.0
  0
VERTEX
  5
1AFC
  8
DISTRICTS
 10
641.83660130699991
 20
4677.6420632700001
 30
6.0
  0
VERTEX
  5
1AFD
  8
DISTRICTS
 10
641.73638344199992
 20
4677.6405472500001
 30
6.0
  0
SEQEND
  5
1AFE
  8
DISTRICTS
  0
POLYLINE
  5
C6E
  8
DISTRICTS
 66
     1
 10
0.0
 20
0.0
 30
7.0
 70
     1
  0
VERTEX
  5
1AFF
  8
DISTRICTS
 10
643.85337528800005
 20
4676.0381861599999
 30
7.0
  0
VERTEX
  5
1B00
  8
DISTRICTS
 10
643.84095860599984
 20
4676.0419157899987
 30
7.0
  0
VERTEX
  5
1B01
  8
DISTRICTS
 10
643.74074074099985
 20
4676.0916251600001
 30
7.0
  0
VERTEX
  5
1B02
  8
DISTRICTS
 10
643.67989746800004
 20
4676.1384248200002
 30
7.0
  0
VERTEX
  5
1B03
  8
DISTRICTS
 10
643.64052287599986
 20
4676.1724815899997
 30
7.0
  0
VERTEX
  5
1B04
  8
DISTRICTS
 10
643.58079157500003
 20
4676.2386634799977
 30
7.0
  0
VERTEX
  5
1B05
  8
DISTRICTS
 10
643.54030501099965
 20
4676.3001852099978
 30
7.0
  0
VERTEX
  5
1B06
  8
DISTRICTS
 10
643.51641351499995
 20
4676.3389021499988
 30
7.0
  0
VERTEX
  5
1B07
  8
DISTRICTS
 10
643.47327181100002
 20
4676.43914081
 30
7.0
  0
VERTEX
  5
1B08
  8
DISTRICTS
 10
643.45076246799999
 20
4676.5393794700003
 30
7.0
  0
VERTEX
  5
1B09
  8
DISTRICTS
 10
643.44354092100002
 20
4676.6396181399996
 30
7.0
  0
VERTEX
  5
1B0A
  8
DISTRICTS
 10
643.44959094299975
 20
4676.7398568000008
 30
7.0
  0
VERTEX
  5
1B0B
  8
DISTRICTS
 10
643.470598623
 20
4676.8400954700001
 30
7.0
  0
VERTEX
  5
1B0C
  8
DISTRICTS
 10
643.51196593300006
 20
4676.9403341300012
 30
7.0
  0
VERTEX
  5
1B0D
  8
DISTRICTS
 10
643.54030501099965
 20
4676.9859185299993
 30
7.0
  0
VERTEX
  5
1B0E
  8
DISTRICTS
 10
643.574793978
 20
4677.0405727899997
 30
7.0
  0
VERTEX
  5
1B0F
  8
DISTRICTS
 10
643.64052287599986
 20
4677.1135669200012
 30
7.0
  0
VERTEX
  5
1B10
  8
DISTRICTS
 10
643.67055391999997
 20
4677.1408114599999
 30
7.0
  0
VERTEX
  5
1B11
  8
DISTRICTS
 10
643.74074074099985
 20
4677.1953213699999
 30
7.0
  0
VERTEX
  5
1B12
  8
DISTRICTS
 10
643.83041421699977
 20
4677.2410501200002
 30
7.0
  0
VERTEX
  5
1B13
  8
DISTRICTS
 10
643.84095860599984
 20
4677.2465241800001
 30
7.0
  0
VERTEX
  5
1B14
  8
DISTRICTS
 10
643.94117647099995
 20
4677.2825346600002
 30
7.0
  0
VERTEX
  5
1B15
  8
DISTRICTS
 10
644.04139433599994
 20
4677.2988381799969
 30
7.0
  0
VERTEX
  5
1B16
  8
DISTRICTS
 10
644.14161220000005
 20
4677.2987535800003
 30
7.0
  0
VERTEX
  5
1B17
  8
DISTRICTS
 10
644.24183006500004
 20
4677.2820981000004
 30
7.0
  0
VERTEX
  5
1B18
  8
DISTRICTS
 10
644.34204793000004
 20
4677.2449591499999
 30
7.0
  0
VERTEX
  5
1B19
  8
DISTRICTS
 10
644.44226579500003
 20
4677.1923530499989
 30
7.0
  0
VERTEX
  5
1B1A
  8
DISTRICTS
 10
644.50622709699985
 20
4677.1408114599999
 30
7.0
  0
VERTEX
  5
1B1B
  8
DISTRICTS
 10
644.5424836599999
 20
4677.1070259099979
 30
7.0
  0
VERTEX
  5
1B1C
  8
DISTRICTS
 10
644.60011506399985
 20
4677.0405727899997
 30
7.0
  0
VERTEX
  5
1B1D
  8
DISTRICTS
 10
644.64270152500001
 20
4676.9704873999999
 30
7.0
  0
VERTEX
  5
1B1E
  8
DISTRICTS
 10
644.66066873800003
 20
4676.9403341300012
 30
7.0
  0
VERTEX
  5
1B1F
  8
DISTRICTS
 10
644.70225537600004
 20
4676.8400954700001
 30
7.0
  0
VERTEX
  5
1B20
  8
DISTRICTS
 10
644.72372709900003
 20
4676.7398568000008
 30
7.0
  0
VERTEX
  5
1B21
  8
DISTRICTS
 10
644.73011947700002
 20
4676.6396181399996
 30
7.0
  0
VERTEX
  5
1B22
  8
DISTRICTS
 10
644.72295623399975
 20
4676.5393794700003
 30
7.0
  0
VERTEX
  5
1B23
  8
DISTRICTS
 10
644.700055023
 20
4676.43914081
 30
7.0
  0
VERTEX
  5
1B24
  8
DISTRICTS
 10
644.65550462699991
 20
4676.3389021499988
 30
7.0
  0
VERTEX
  5
1B25
  8
DISTRICTS
 10
644.64270152500001
 20
4676.3182095299999
 30
7.0
  0
VERTEX
  5
1B26
  8
DISTRICTS
 10
644.59041478199993
 20
4676.2386634799977
 30
7.0
  0
VERTEX
  5
1B27
  8
DISTRICTS
 10
644.5424836599999
 20
4676.1858276499997
 30
7.0
  0
VERTEX
  5
1B28
  8
DISTRICTS
 10
644.48796153299975
 20
4676.1384248200002
 30
7.0
  0
VERTEX
  5
1B29
  8
DISTRICTS
 10
644.44226579500003
 20
4676.1028669400002
 30
7.0
  0
VERTEX
  5
1B2A
  8
DISTRICTS
 10
644.34204793000004
 20
4676.0491201799987
 30
7.0
  0
VERTEX
  5
1B2B
  8
DISTRICTS
 10
644.30806152399975
 20
4676.0381861599999
 30
7.0
  0
VERTEX
  5
1B2C
  8
DISTRICTS
 10
644.24183006500004
 20
4676.0132062399989
 30
7.0
  0
VERTEX
  5
1B2D
  8
DISTRICTS
 10
644.14161220000005
 20
4675.9944038999984
 30
7.0
  0
VERTEX
  5
1B2E
  8
DISTRICTS
 10
644.04139433599994
 20
4675.9926659399989
 30
7.0
  0
VERTEX
  5
1B2F
  8
DISTRICTS
 10
643.94117647099995
 20
4676.0077844699999
 30
7.0
  0
SEQEND
  5
1B30
  8
DISTRICTS
  0
POLYLINE
  5
CA1
  8
DISTRICTS
 66
     1
 10
0.0
 20
0.0
 30
8.0
 70
     1
  0
VERTEX
  5
1B31
  8
DISTRICTS
 10
631.97731927400002
 20
4673.4319809099998
 30
8.0
  0
VERTEX
  5
1B32
  8
DISTRICTS
 10
632.01525054499984
 20
4673.4452484900003
 30
8.0
  0
VERTEX
  5
1B33
  8
DISTRICTS
 10
632.11546840999995
 20
4673.4649800400002
 30
8.0
  0
VERTEX
  5
1B34
  8
DISTRICTS
 10
632.21568627500005
 20
4673.4740806
 30
8.0
  0
VERTEX
  5
1B35
  8
DISTRICTS
 10
632.31590413900005
 20
4673.4767627499996
 30
8.0
  0
VERTEX
  5
1B36
  8
DISTRICTS
 10
632.41612200400004
 20
4673.4748555599999
 30
8.0
  0
VERTEX
  5
1B37
  8
DISTRICTS
 10
632.51633986900003
 20
4673.4694317000003
 30
8.0
  0
VERTEX
  5
1B38
  8
DISTRICTS
 10
632.61655773400003
 20
4673.461343089999
 30
8.0
  0
VERTEX
  5
1B39
  8
DISTRICTS
 10
632.71677559900002
 20
4673.4516253199999
 30
8.0
  0
VERTEX
  5
1B3A
  8
DISTRICTS
 10
632.81699346399989
 20
4673.4419732699998
 30
8.0
  0
VERTEX
  5
1B3B
  8
DISTRICTS
 10
632.917211329
 20
4673.4348838100004
 30
8.0
  0
VERTEX
  5
1B3C
  8
DISTRICTS
 10
633.01742919399965
 20
4673.4330260500001
 30
8.0
  0
VERTEX
  5
1B3D
  8
DISTRICTS
 10
633.11764705899986
 20
4673.438931489999
 30
8.0
  0
VERTEX
  5
1B3E
  8
DISTRICTS
 10
633.21786492399985
 20
4673.4567242399999
 30
8.0
  0
VERTEX
  5
1B3F
  8
DISTRICTS
 10
633.31808278899985
 20
4673.495683549997
 30
8.0
  0
VERTEX
  5
1B40
  8
DISTRICTS
 10
633.37240425899995
 20
4673.5322195700001
 30
8.0
  0
VERTEX
  5
1B41
  8
DISTRICTS
 10
633.41830065399995
 20
4673.5647402799977
 30
8.0
  0
VERTEX
  5
1B42
  8
DISTRICTS
 10
633.48101339200002
 20
4673.6324582300012
 30
8.0
  0
VERTEX
  5
1B43
  8
DISTRICTS
 10
633.51851851900005
 20
4673.691695839997
 30
8.0
  0
VERTEX
  5
1B44
  8
DISTRICTS
 10
633.54176365499995
 20
4673.7326968999987
 30
8.0
  0
VERTEX
  5
1B45
  8
DISTRICTS
 10
633.57942306199993
 20
4673.8329355599999
 30
8.0
  0
VERTEX
  5
1B46
  8
DISTRICTS
 10
633.59664527799998
 20
4673.9331742200002
 30
8.0
  0
VERTEX
  5
1B47
  8
DISTRICTS
 10
633.60051584999985
 20
4674.0334128900004
 30
8.0
  0
VERTEX
  5
1B48
  8
DISTRICTS
 10
633.59414000899994
 20
4674.1336515499997
 30
8.0
  0
VERTEX
  5
1B49
  8
DISTRICTS
 10
633.57644537600004
 20
4674.23389021
 30
8.0
  0
VERTEX
  5
1B4A
  8
DISTRICTS
 10
633.53685701300003
 20
4674.3341288800002
 30
8.0
  0
VERTEX
  5
1B4B
  8
DISTRICTS
 10
633.51851851900005
 20
4674.3606146900001
 30
8.0
  0
VERTEX
  5
1B4C
  8
DISTRICTS
 10
633.48189272599996
 20
4674.4343675399987
 30
8.0
  0
VERTEX
  5
1B4D
  8
DISTRICTS
 10
633.41374983000003
 20
4674.5346062099989
 30
8.0
  0
VERTEX
  5
1B4E
  8
DISTRICTS
 10
633.34717645499995
 20
4674.6348448700001
 30
8.0
  0
VERTEX
  5
1B4F
  8
DISTRICTS
 10
633.31808278899985
 20
4674.6712850900003
 30
8.0
  0
VERTEX
  5
1B50
  8
DISTRICTS
 10
633.27172822099988
 20
4674.7350835300003
 30
8.0
  0
VERTEX
  5
1B51
  8
DISTRICTS
 10
633.21786492399985
 20
4674.7970241100002
 30
8.0
  0
VERTEX
  5
1B52
  8
DISTRICTS
 10
633.18466224099996
 20
4674.8353221999978
 30
8.0
  0
VERTEX
  5
1B53
  8
DISTRICTS
 10
633.11764705899986
 20
4674.9034825799999
 30
8.0
  0
VERTEX
  5
1B54
  8
DISTRICTS
 10
633.08424558699994
 20
4674.9355608599981
 30
8.0
  0
VERTEX
  5
1B55
  8
DISTRICTS
 10
633.01742919399965
 20
4674.995736869997
 30
8.0
  0
VERTEX
  5
1B56
  8
DISTRICTS
 10
632.96946423199995
 20
4675.0357995200002
 30
8.0
  0
VERTEX
  5
1B57
  8
DISTRICTS
 10
632.917211329
 20
4675.0782087600001
 30
8.0
  0
VERTEX
  5
1B58
  8
DISTRICTS
 10
632.84121094199998
 20
4675.1360381900004
 30
8.0
  0
VERTEX
  5
1B59
  8
DISTRICTS
 10
632.81699346399989
 20
4675.1540187700002
 30
8.0
  0
VERTEX
  5
1B5A
  8
DISTRICTS
 10
632.71677559900002
 20
4675.2260882399969
 30
8.0
  0
VERTEX
  5
1B5B
  8
DISTRICTS
 10
632.70254418800005
 20
4675.236276849997
 30
8.0
  0
VERTEX
  5
1B5C
  8
DISTRICTS
 10
632.61655773400003
 20
4675.2949066900001
 30
8.0
  0
VERTEX
  5
1B5D
  8
DISTRICTS
 10
632.55108516899975
 20
4675.3365155099991
 30
8.0
  0
VERTEX
  5
1B5E
  8
DISTRICTS
 10
632.51633986900003
 20
4675.3573157399996
 30
8.0
  0
VERTEX
  5
1B5F
  8
DISTRICTS
 10
632.41612200400004
 20
4675.4129620200001
 30
8.0
  0
VERTEX
  5
1B60
  8
DISTRICTS
 10
632.36592067499998
 20
4675.4367541800002
 30
8.0
  0
VERTEX
  5
1B61
  8
DISTRICTS
 10
632.31590413900005
 20
4675.459952879999
 30
8.0
  0
VERTEX
  5
1B62
  8
DISTRICTS
 10
632.21568627500005
 20
4675.49830157
 30
8.0
  0
VERTEX
  5
1B63
  8
DISTRICTS
 10
632.11546840999995
 20
4675.5250236800002
 30
8.0
  0
VERTEX
  5
1B64
  8
DISTRICTS
 10
632.04183436699998
 20
4675.5369928399969
 30
8.0
  0
VERTEX
  5
1B65
  8
DISTRICTS
 10
632.01525054499984
 20
4675.5419853999974
 30
8.0
  0
VERTEX
  5
1B66
  8
DISTRICTS
 10
631.91503267999985
 20
4675.5498974800003
 30
8.0
  0
VERTEX
  5
1B67
  8
DISTRICTS
 10
631.81481481499975
 20
4675.5452855000012
 30
8.0
  0
VERTEX
  5
1B68
  8
DISTRICTS
 10
631.76846878499987
 20
4675.5369928399969
 30
8.0
  0
VERTEX
  5
1B69
  8
DISTRICTS
 10
631.71459694999999
 20
4675.5294607699989
 30
8.0
  0
VERTEX
  5
1B6A
  8
DISTRICTS
 10
631.61437908499988
 20
4675.5036781099998
 30
8.0
  0
VERTEX
  5
1B6B
  8
DISTRICTS
 10
631.51416122000001
 20
4675.46399415
 30
8.0
  0
VERTEX
  5
1B6C
  8
DISTRICTS
 10
631.46107631999996
 20
4675.4367541800002
 30
8.0
  0
VERTEX
  5
1B6D
  8
DISTRICTS
 10
631.41394335500001
 20
4675.4140887399999
 30
8.0
  0
VERTEX
  5
1B6E
  8
DISTRICTS
 10
631.3137254899998
 20
4675.3565146499977
 30
8.0
  0
VERTEX
  5
1B6F
  8
DISTRICTS
 10
631.27981165000006
 20
4675.3365155099991
 30
8.0
  0
VERTEX
  5
1B70
  8
DISTRICTS
 10
631.21350762500003
 20
4675.2998974399998
 30
8.0
  0
VERTEX
  5
1B71
  8
DISTRICTS
 10
631.11328976000004
 20
4675.2570840400003
 30
8.0
  0
VERTEX
  5
1B72
  8
DISTRICTS
 10
631.04831483500004
 20
4675.236276849997
 30
8.0
  0
VERTEX
  5
1B73
  8
DISTRICTS
 10
631.01307189500005
 20
4675.2303547399997
 30
8.0
  0
VERTEX
  5
1B74
  8
DISTRICTS
 10
630.91285403099994
 20
4675.2078452899987
 30
8.0
  0
VERTEX
  5
1B75
  8
DISTRICTS
 10
630.81263616599995
 20
4675.1458654300013
 30
8.0
  0
VERTEX
  5
1B76
  8
DISTRICTS
 10
630.80286732399986
 20
4675.1360381900004
 30
8.0
  0
VERTEX
  5
1B77
  8
DISTRICTS
 10
630.72455735099993
 20
4675.0357995200002
 30
8.0
  0
VERTEX
  5
1B78
  8
DISTRICTS
 10
630.71241830099984
 20
4674.97766787
 30
8.0
  0
VERTEX
  5
1B79
  8
DISTRICTS
 10
630.69807926099998
 20
4674.9355608599981
 30
8.0
  0
VERTEX
  5
1B7A
  8
DISTRICTS
 10
630.70171877600001
 20
4674.8353221999978
 30
8.0
  0
VERTEX
  5
1B7B
  8
DISTRICTS
 10
630.71241830099984
 20
4674.8081023499999
 30
8.0
  0
VERTEX
  5
1B7C
  8
DISTRICTS
 10
630.74215213000002
 20
4674.7350835300003
 30
8.0
  0
VERTEX
  5
1B7D
  8
DISTRICTS
 10
630.81263616599995
 20
4674.6470308099997
 30
8.0
  0
VERTEX
  5
1B7E
  8
DISTRICTS
 10
630.83151683400001
 20
4674.6348448700001
 30
8.0
  0
VERTEX
  5
1B7F
  8
DISTRICTS
 10
630.91285403099994
 20
4674.553872919998
 30
8.0
  0
VERTEX
  5
1B80
  8
DISTRICTS
 10
630.93941008299964
 20
4674.5346062099989
 30
8.0
  0
VERTEX
  5
1B81
  8
DISTRICTS
 10
631.01307189500005
 20
4674.4438466700003
 30
8.0
  0
VERTEX
  5
1B82
  8
DISTRICTS
 10
631.02036946199996
 20
4674.4343675399987
 30
8.0
  0
VERTEX
  5
1B83
  8
DISTRICTS
 10
631.08347111900002
 20
4674.3341288800002
 30
8.0
  0
VERTEX
  5
1B84
  8
DISTRICTS
 10
631.11328976000004
 20
4674.2836279499988
 30
8.0
  0
VERTEX
  5
1B85
  8
DISTRICTS
 10
631.1437728999997
 20
4674.23389021
 30
8.0
  0
VERTEX
  5
1B86
  8
DISTRICTS
 10
631.20641473800003
 20
4674.1336515499997
 30
8.0
  0
VERTEX
  5
1B87
  8
DISTRICTS
 10
631.21350762500003
 20
4674.1211731000003
 30
8.0
  0
VERTEX
  5
1B88
  8
DISTRICTS
 10
631.27156684800002
 20
4674.0334128900004
 30
8.0
  0
VERTEX
  5
1B89
  8
DISTRICTS
 10
631.3137254899998
 20
4673.9648200600013
 30
8.0
  0
VERTEX
  5
1B8A
  8
DISTRICTS
 10
631.33827473300016
 20
4673.9331742200002
 30
8.0
  0
VERTEX
  5
1B8B
  8
DISTRICTS
 10
631.40152401199975
 20
4673.8329355599999
 30
8.0
  0
VERTEX
  5
1B8C
  8
DISTRICTS
 10
631.41394335500001
 20
4673.8010933499991
 30
8.0
  0
VERTEX
  5
1B8D
  8
DISTRICTS
 10
631.45399717800001
 20
4673.7326968999987
 30
8.0
  0
VERTEX
  5
1B8E
  8
DISTRICTS
 10
631.46765579199985
 20
4673.6324582300012
 30
8.0
  0
SEQEND
  5
1B8F
  8
DISTRICTS
  0
POLYLINE
  5
D01
  8
DISTRICTS
 66
     1
 10
0.0
 20
0.0
 30
9.0
 70
     1
  0
VERTEX
  5
1B90
  8
DISTRICTS
 10
631.46765579199985
 20
4673.6324582300012
 30
9.0
  0
VERTEX
  5
1B91
  8
DISTRICTS
 10
631.41394335500001
 20
4673.58370302
 30
9.0
  0
VERTEX
  5
1B92
  8
DISTRICTS
 10
631.33687175699993
 20
4673.5322195700001
 30
9.0
  0
VERTEX
  5
1B93
  8
DISTRICTS
 10
631.3137254899998
 20
4673.5267449499997
 30
9.0
  0
VERTEX
  5
1B94
  8
DISTRICTS
 10
631.21350762500003
 20
4673.4944775599997
 30
9.0
  0
VERTEX
  5
1B95
  8
DISTRICTS
 10
631.11328976000004
 20
4673.44974912
 30
9.0
  0
VERTEX
  5
1B96
  8
DISTRICTS
 10
631.08727168799965
 20
4673.4319809099998
 30
9.0
  0
VERTEX
  5
1B97
  8
DISTRICTS
 10
631.01307189500005
 20
4673.3982622499998
 30
9.0
  0
VERTEX
  5
1B98
  8
DISTRICTS
 10
630.92756041599966
 20
4673.3317422399996
 30
9.0
  0
VERTEX
  5
1B99
  8
DISTRICTS
 10
630.91285403099994
 20
4673.3218654900002
 30
9.0
  0
VERTEX
  5
1B9A
  8
DISTRICTS
 10
630.82702970699995
 20
4673.2315035800011
 30
9.0
  0
VERTEX
  5
1B9B
  8
DISTRICTS
 10
630.81263616599995
 20
4673.2125688599999
 30
9.0
  0
VERTEX
  5
1B9C
  8
DISTRICTS
 10
630.75353253000003
 20
4673.1312649199999
 30
9.0
  0
VERTEX
  5
1B9D
  8
DISTRICTS
 10
630.71241830099984
 20
4673.0628617800003
 30
9.0
  0
VERTEX
  5
1B9E
  8
DISTRICTS
 10
630.69367032000002
 20
4673.0310262499997
 30
9.0
  0
VERTEX
  5
1B9F
  8
DISTRICTS
 10
630.64104284400003
 20
4672.9307875900004
 30
9.0
  0
VERTEX
  5
1BA0
  8
DISTRICTS
 10
630.61220043599985
 20
4672.8615631100001
 30
9.0
  0
VERTEX
  5
1BA1
  8
DISTRICTS
 10
630.59921907499995
 20
4672.8305489300001
 30
9.0
  0
VERTEX
  5
1BA2
  8
DISTRICTS
 10
630.56573449899997
 20
4672.730310259999
 30
9.0
  0
VERTEX
  5
1BA3
  8
DISTRICTS
 10
630.54512190499997
 20
4672.6300715999987
 30
9.0
  0
VERTEX
  5
1BA4
  8
DISTRICTS
 10
630.53632028699985
 20
4672.5298329400002
 30
9.0
  0
VERTEX
  5
1BA5
  8
DISTRICTS
 10
630.53858773399998
 20
4672.4295942700001
 30
9.0
  0
VERTEX
  5
1BA6
  8
DISTRICTS
 10
630.55267172200001
 20
4672.3293556099989
 30
9.0
  0
VERTEX
  5
1BA7
  8
DISTRICTS
 10
630.58154419100003
 20
4672.2291169500004
 30
9.0
  0
VERTEX
  5
1BA8
  8
DISTRICTS
 10
630.61220043599985
 20
4672.1630757100002
 30
9.0
  0
VERTEX
  5
1BA9
  8
DISTRICTS
 10
630.6263861000001
 20
4672.1288782800002
 30
9.0
  0
VERTEX
  5
1BAA
  8
DISTRICTS
 10
630.69104631800008
 20
4672.0286396199999
 30
9.0
  0
VERTEX
  5
1BAB
  8
DISTRICTS
 10
630.71241830099984
 20
4672.0027968300001
 30
9.0
  0
VERTEX
  5
1BAC
  8
DISTRICTS
 10
630.78810538200003
 20
4671.928400949997
 30
9.0
  0
VERTEX
  5
1BAD
  8
DISTRICTS
 10
630.81263616599995
 20
4671.9070820999978
 30
9.0
  0
VERTEX
  5
1BAE
  8
DISTRICTS
 10
630.91285403099994
 20
4671.841379219999
 30
9.0
  0
VERTEX
  5
1BAF
  8
DISTRICTS
 10
630.93986372799998
 20
4671.8281622900004
 30
9.0
  0
VERTEX
  5
1BB0
  8
DISTRICTS
 10
631.01307189500005
 20
4671.7893174800001
 30
9.0
  0
VERTEX
  5
1BB1
  8
DISTRICTS
 10
631.11328976000004
 20
4671.74946378
 30
9.0
  0
VERTEX
  5
1BB2
  8
DISTRICTS
 10
631.19899986899975
 20
4671.7279236300001
 30
9.0
  0
VERTEX
  5
1BB3
  8
DISTRICTS
 10
631.21350762500003
 20
4671.7236652700003
 30
9.0
  0
VERTEX
  5
1BB4
  8
DISTRICTS
 10
631.3137254899998
 20
4671.7101306799996
 30
9.0
  0
VERTEX
  5
1BB5
  8
DISTRICTS
 10
631.41394335500001
 20
4671.7197128699991
 30
9.0
  0
VERTEX
  5
1BB6
  8
DISTRICTS
 10
631.44010313800004
 20
4671.7279236300001
 30
9.0
  0
VERTEX
  5
1BB7
  8
DISTRICTS
 10
631.51416122000001
 20
4671.7492999899996
 30
9.0
  0
VERTEX
  5
1BB8
  8
DISTRICTS
 10
631.61437908499988
 20
4671.8086242799991
 30
9.0
  0
VERTEX
  5
1BB9
  8
DISTRICTS
 10
631.64189647399985
 20
4671.8281622900004
 30
9.0
  0
VERTEX
  5
1BBA
  8
DISTRICTS
 10
631.71459694999999
 20
4671.9005595600001
 30
9.0
  0
VERTEX
  5
1BBB
  8
DISTRICTS
 10
631.74338749100002
 20
4671.928400949997
 30
9.0
  0
VERTEX
  5
1BBC
  8
DISTRICTS
 10
631.81481481499975
 20
4672.03208928
 30
9.0
  0
VERTEX
  5
1BBD
  8
DISTRICTS
 10
631.87480620300005
 20
4672.1288782800002
 30
9.0
  0
VERTEX
  5
1BBE
  8
DISTRICTS
 10
631.91704969799991
 20
4672.2291169500004
 30
9.0
  0
VERTEX
  5
1BBF
  8
DISTRICTS
 10
631.95654951799986
 20
4672.3293556099989
 30
9.0
  0
VERTEX
  5
1BC0
  8
DISTRICTS
 10
631.98250881399986
 20
4672.4295942700001
 30
9.0
  0
VERTEX
  5
1BC1
  8
DISTRICTS
 10
631.99810577899996
 20
4672.5298329400002
 30
9.0
  0
VERTEX
  5
1BC2
  8
DISTRICTS
 10
632.00524272199993
 20
4672.6300715999987
 30
9.0
  0
VERTEX
  5
1BC3
  8
DISTRICTS
 10
632.00502738099965
 20
4672.730310259999
 30
9.0
  0
VERTEX
  5
1BC4
  8
DISTRICTS
 10
631.99801114299964
 20
4672.8305489300001
 30
9.0
  0
VERTEX
  5
1BC5
  8
DISTRICTS
 10
631.98450689900005
 20
4672.9307875900004
 30
9.0
  0
VERTEX
  5
1BC6
  8
DISTRICTS
 10
631.96502450399998
 20
4673.0310262499997
 30
9.0
  0
VERTEX
  5
1BC7
  8
DISTRICTS
 10
631.94097973299995
 20
4673.1312649199999
 30
9.0
  0
VERTEX
  5
1BC8
  8
DISTRICTS
 10
631.91657986099995
 20
4673.2315035800011
 30
9.0
  0
VERTEX
  5
1BC9
  8
DISTRICTS
 10
631.91503267999985
 20
4673.2525024200013
 30
9.0
  0
VERTEX
  5
1BCA
  8
DISTRICTS
 10
631.907638174
 20
4673.3317422399996
 30
9.0
  0
VERTEX
  5
1BCB
  8
DISTRICTS
 10
631.91503267999985
 20
4673.3537375899996
 30
9.0
  0
VERTEX
  5
1BCC
  8
DISTRICTS
 10
631.97731927400002
 20
4673.4319809099998
 30
9.0
  0
SEQEND
  5
1BCD
  8
DISTRICTS
  0
POLYLINE
  5
D40
  8
DISTRICTS
 66
     1
 10
0.0
 20
0.0
 30
10.0
 70
     1
  0
VERTEX
  5
1BCE
  8
DISTRICTS
 10
635.22222222199991
 20
4673.1046577500001
 30
10.0
  0
VERTEX
  5
1BCF
  8
DISTRICTS
 10
635.12200435699992
 20
4673.1199418400001
 30
10.0
  0
VERTEX
  5
1BD0
  8
DISTRICTS
 10
635.09631056800004
 20
4673.1312649199999
 30
10.0
  0
VERTEX
  5
1BD1
  8
DISTRICTS
 10
635.02178649199993
 20
4673.1598724400001
 30
10.0
  0
VERTEX
  5
1BD2
  8
DISTRICTS
 10
634.92156862699994
 20
4673.2049385
 30
10.0
  0
VERTEX
  5
1BD3
  8
DISTRICTS
 10
634.85367321900003
 20
4673.2315035800011
 30
10.0
  0
VERTEX
  5
1BD4
  8
DISTRICTS
 10
634.82135076300005
 20
4673.2442739699991
 30
10.0
  0
VERTEX
  5
1BD5
  8
DISTRICTS
 10
634.72113289800006
 20
4673.2780791499999
 30
10.0
  0
VERTEX
  5
1BD6
  8
DISTRICTS
 10
634.62091503299985
 20
4673.3009404599979
 30
10.0
  0
VERTEX
  5
1BD7
  8
DISTRICTS
 10
634.52069716799986
 20
4673.3142393500002
 30
10.0
  0
VERTEX
  5
1BD8
  8
DISTRICTS
 10
634.42047930299998
 20
4673.31938756
 30
10.0
  0
VERTEX
  5
1BD9
  8
DISTRICTS
 10
634.32026143799987
 20
4673.3169086099997
 30
10.0
  0
VERTEX
  5
1BDA
  8
DISTRICTS
 10
634.22004357299966
 20
4673.3059541100001
 30
10.0
  0
VERTEX
  5
1BDB
  8
DISTRICTS
 10
634.11982570800001
 20
4673.2832056200004
 30
10.0
  0
VERTEX
  5
1BDC
  8
DISTRICTS
 10
634.0196078429999
 20
4673.2420629299986
 30
10.0
  0
VERTEX
  5
1BDD
  8
DISTRICTS
 10
633.99948532300004
 20
4673.2315035800011
 30
10.0
  0
VERTEX
  5
1BDE
  8
DISTRICTS
 10
633.91938997800003
 20
4673.1849045700001
 30
10.0
  0
VERTEX
  5
1BDF
  8
DISTRICTS
 10
633.85164115700002
 20
4673.1312649199999
 30
10.0
  0
VERTEX
  5
1BE0
  8
DISTRICTS
 10
633.81917211300004
 20
4673.0987277300001
 30
10.0
  0
VERTEX
  5
1BE1
  8
DISTRICTS
 10
633.75642216999995
 20
4673.0310262499997
 30
10.0
  0
VERTEX
  5
1BE2
  8
DISTRICTS
 10
633.71895424800005
 20
4672.9790886700002
 30
10.0
  0
VERTEX
  5
1BE3
  8
DISTRICTS
 10
633.68373510499976
 20
4672.9307875900004
 30
10.0
  0
VERTEX
  5
1BE4
  8
DISTRICTS
 10
633.61873638300005
 20
4672.8221376799993
 30
10.0
  0
VERTEX
  5
1BE5
  8
DISTRICTS
 10
633.56460942699994
 20
4672.730310259999
 30
10.0
  0
VERTEX
  5
1BE6
  8
DISTRICTS
 10
633.51851851900005
 20
4672.6424148100023
 30
10.0
  0
VERTEX
  5
1BE7
  8
DISTRICTS
 10
633.51171446900003
 20
4672.6300715999987
 30
10.0
  0
VERTEX
  5
1BE8
  8
DISTRICTS
 10
633.45527627199999
 20
4672.5298329400002
 30
10.0
  0
VERTEX
  5
1BE9
  8
DISTRICTS
 10
633.41830065399995
 20
4672.4633382399998
 30
10.0
  0
VERTEX
  5
1BEA
  8
DISTRICTS
 10
633.39919500600001
 20
4672.4295942700001
 30
10.0
  0
VERTEX
  5
1BEB
  8
DISTRICTS
 10
633.34106993599994
 20
4672.3293556099989
 30
10.0
  0
VERTEX
  5
1BEC
  8
DISTRICTS
 10
633.31808278899985
 20
4672.2902688699987
 30
10.0
  0
VERTEX
  5
1BED
  8
DISTRICTS
 10
633.282415808
 20
4672.2291169500004
 30
10.0
  0
VERTEX
  5
1BEE
  8
DISTRICTS
 10
633.22471322599995
 20
4672.1288782800002
 30
10.0
  0
VERTEX
  5
1BEF
  8
DISTRICTS
 10
633.21786492399985
 20
4672.11771004
 30
10.0
  0
VERTEX
  5
1BF0
  8
DISTRICTS
 10
633.16324847400006
 20
4672.0286396199999
 30
10.0
  0
VERTEX
  5
1BF1
  8
DISTRICTS
 10
633.11764705899986
 20
4671.9609746699998
 30
10.0
  0
VERTEX
  5
1BF2
  8
DISTRICTS
 10
633.09633428400002
 20
4671.928400949997
 30
10.0
  0
VERTEX
  5
1BF3
  8
DISTRICTS
 10
633.01742919399965
 20
4671.8388607099987
 30
10.0
  0
VERTEX
  5
1BF4
  8
DISTRICTS
 10
633.00972123700001
 20
4671.8281622900004
 30
10.0
  0
VERTEX
  5
1BF5
  8
DISTRICTS
 10
632.92319708800005
 20
4671.7279236300001
 30
10.0
  0
VERTEX
  5
1BF6
  8
DISTRICTS
 10
632.917211329
 20
4671.7158239399969
 30
10.0
  0
VERTEX
  5
1BF7
  8
DISTRICTS
 10
632.88676974099985
 20
4671.627684959999
 30
10.0
  0
VERTEX
  5
1BF8
  8
DISTRICTS
 10
632.85068369600003
 20
4671.5274462999978
 30
10.0
  0
VERTEX
  5
1BF9
  8
DISTRICTS
 10
632.84282652499985
 20
4671.4272076399993
 30
10.0
  0
VERTEX
  5
1BFA
  8
DISTRICTS
 10
632.865659704
 20
4671.3269689699991
 30
10.0
  0
VERTEX
  5
1BFB
  8
DISTRICTS
 10
632.917211329
 20
4671.2491205200004
 30
10.0
  0
VERTEX
  5
1BFC
  8
DISTRICTS
 10
632.93413724200002
 20
4671.2267303099989
 30
10.0
  0
VERTEX
  5
1BFD
  8
DISTRICTS
 10
633.01742919399965
 20
4671.1515686299999
 30
10.0
  0
VERTEX
  5
1BFE
  8
DISTRICTS
 10
633.07505812900001
 20
4671.1264916500004
 30
10.0
  0
VERTEX
  5
1BFF
  8
DISTRICTS
 10
633.11764705899986
 20
4671.0997319600001
 30
10.0
  0
VERTEX
  5
1C00
  8
DISTRICTS
 10
633.21786492399985
 20
4671.052421899999
 30
10.0
  0
VERTEX
  5
1C01
  8
DISTRICTS
 10
633.26542754499985
 20
4671.0262529800002
 30
10.0
  0
VERTEX
  5
1C02
  8
DISTRICTS
 10
633.31808278899985
 20
4670.9891874699997
 30
10.0
  0
VERTEX
  5
1C03
  8
DISTRICTS
 10
633.39287947299999
 20
4670.926014319999
 30
10.0
  0
VERTEX
  5
1C04
  8
DISTRICTS
 10
633.41830065399995
 20
4670.9046207399997
 30
10.0
  0
VERTEX
  5
1C05
  8
DISTRICTS
 10
633.50567094599978
 20
4670.8257756599996
 30
10.0
  0
VERTEX
  5
1C06
  8
DISTRICTS
 10
633.51851851900005
 20
4670.8152042199999
 30
10.0
  0
VERTEX
  5
1C07
  8
DISTRICTS
 10
633.61873638300005
 20
4670.7339082300014
 30
10.0
  0
VERTEX
  5
1C08
  8
DISTRICTS
 10
633.62975908999999
 20
4670.7255369900004
 30
10.0
  0
VERTEX
  5
1C09
  8
DISTRICTS
 10
633.71895424800005
 20
4670.6639767200013
 30
10.0
  0
VERTEX
  5
1C0A
  8
DISTRICTS
 10
633.78730211100003
 20
4670.6252983300001
 30
10.0
  0
VERTEX
  5
1C0B
  8
DISTRICTS
 10
633.81917211300004
 20
4670.6078731400003
 30
10.0
  0
VERTEX
  5
1C0C
  8
DISTRICTS
 10
633.91938997800003
 20
4670.5625289700001
 30
10.0
  0
VERTEX
  5
1C0D
  8
DISTRICTS
 10
634.0196078429999
 20
4670.530787589998
 30
10.0
  0
VERTEX
  5
1C0E
  8
DISTRICTS
 10
634.04639905999989
 20
4670.5250596699998
 30
10.0
  0
VERTEX
  5
1C0F
  8
DISTRICTS
 10
634.11982570800001
 20
4670.5074529800004
 30
10.0
  0
VERTEX
  5
1C10
  8
DISTRICTS
 10
634.22004357299966
 20
4670.4943353099989
 30
10.0
  0
VERTEX
  5
1C11
  8
DISTRICTS
 10
634.32026143799987
 20
4670.4918491199996
 30
10.0
  0
VERTEX
  5
1C12
  8
DISTRICTS
 10
634.42047930299998
 20
4670.4999181899993
 30
10.0
  0
VERTEX
  5
1C13
  8
DISTRICTS
 10
634.52069716799986
 20
4670.5192115399987
 30
10.0
  0
VERTEX
  5
1C14
  8
DISTRICTS
 10
634.54049102500005
 20
4670.5250596699998
 30
10.0
  0
VERTEX
  5
1C15
  8
DISTRICTS
 10
634.62091503299985
 20
4670.5468831199987
 30
10.0
  0
VERTEX
  5
1C16
  8
DISTRICTS
 10
634.72113289800006
 20
4670.5871718099997
 30
10.0
  0
VERTEX
  5
1C17
  8
DISTRICTS
 10
634.79235841699995
 20
4670.6252983300001
 30
10.0
  0
VERTEX
  5
1C18
  8
DISTRICTS
 10
634.82135076300005
 20
4670.6414177399993
 30
10.0
  0
VERTEX
  5
1C19
  8
DISTRICTS
 10
634.92156862699994
 20
4670.7092162700001
 30
10.0
  0
VERTEX
  5
1C1A
  8
DISTRICTS
 10
634.94371634200002
 20
4670.7255369900004
 30
10.0
  0
VERTEX
  5
1C1B
  8
DISTRICTS
 10
635.02178649199993
 20
4670.7921175800002
 30
10.0
  0
VERTEX
  5
1C1C
  8
DISTRICTS
 10
635.06399580200002
 20
4670.8257756599996
 30
10.0
  0
VERTEX
  5
1C1D
  8
DISTRICTS
 10
635.12200435699992
 20
4670.889599529999
 30
10.0
  0
VERTEX
  5
1C1E
  8
DISTRICTS
 10
635.16076575399995
 20
4670.926014319999
 30
10.0
  0
VERTEX
  5
1C1F
  8
DISTRICTS
 10
635.20933490499999
 20
4671.0262529800002
 30
10.0
  0
VERTEX
  5
1C20
  8
DISTRICTS
 10
635.22222222199991
 20
4671.056790229999
 30
10.0
  0
VERTEX
  5
1C21
  8
DISTRICTS
 10
635.25427811500003
 20
4671.1264916500004
 30
10.0
  0
VERTEX
  5
1C22
  8
DISTRICTS
 10
635.292721562
 20
4671.2267303099989
 30
10.0
  0
VERTEX
  5
1C23
  8
DISTRICTS
 10
635.32244008700002
 20
4671.3278398700004
 30
10.0
  0
VERTEX
  5
1C24
  8
DISTRICTS
 10
635.35034414199993
 20
4671.4272076399993
 30
10.0
  0
VERTEX
  5
1C25
  8
DISTRICTS
 10
635.37178177899978
 20
4671.5274462999978
 30
10.0
  0
VERTEX
  5
1C26
  8
DISTRICTS
 10
635.388354134
 20
4671.627684959999
 30
10.0
  0
VERTEX
  5
1C27
  8
DISTRICTS
 10
635.40184871099984
 20
4671.7279236300001
 30
10.0
  0
VERTEX
  5
1C28
  8
DISTRICTS
 10
635.41415511100001
 20
4671.8281622900004
 30
10.0
  0
VERTEX
  5
1C29
  8
DISTRICTS
 10
635.42265795200001
 20
4671.8951296000014
 30
10.0
  0
VERTEX
  5
1C2A
  8
DISTRICTS
 10
635.42871077300003
 20
4671.928400949997
 30
10.0
  0
VERTEX
  5
1C2B
  8
DISTRICTS
 10
635.45082280500003
 20
4672.0286396199999
 30
10.0
  0
VERTEX
  5
1C2C
  8
DISTRICTS
 10
635.48543000099994
 20
4672.1288782800002
 30
10.0
  0
VERTEX
  5
1C2D
  8
DISTRICTS
 10
635.52287581699989
 20
4672.1963490799999
 30
10.0
  0
VERTEX
  5
1C2E
  8
DISTRICTS
 10
635.55979449099993
 20
4672.2291169500004
 30
10.0
  0
VERTEX
  5
1C2F
  8
DISTRICTS
 10
635.62309368199999
 20
4672.2664739100001
 30
10.0
  0
SEQEND
  5
1C30
  8
DISTRICTS
  0
POLYLINE
  5
DA4
  8
DISTRICTS
 66
     1
 10
0.0
 20
0.0
 30
11.0
 70
     1
  0
VERTEX
  5
1C31
  8
DISTRICTS
 10
635.22222222199991
 20
4673.1046577500001
 30
11.0
  0
VERTEX
  5
1C32
  8
DISTRICTS
 10
635.32244008700002
 20
4673.13187449
 30
11.0
  0
VERTEX
  5
1C33
  8
DISTRICTS
 10
635.42265795200001
 20
4673.1921013199999
 30
11.0
  0
VERTEX
  5
1C34
  8
DISTRICTS
 10
635.49164003700002
 20
4673.2315035800011
 30
11.0
  0
VERTEX
  5
1C35
  8
DISTRICTS
 10
635.52287581699989
 20
4673.2457331300002
 30
11.0
  0
VERTEX
  5
1C36
  8
DISTRICTS
 10
635.62309368199999
 20
4673.249948579999
 30
11.0
  0
VERTEX
  5
1C37
  8
DISTRICTS
 10
635.72331154699975
 20
4673.2314332299993
 30
11.0
  0
VERTEX
  5
1C38
  8
DISTRICTS
 10
635.82412025500003
 20
4673.2315035800011
 30
11.0
  0
VERTEX
  5
1C39
  8
DISTRICTS
 10
635.92374727699985
 20
4673.2640947600003
 30
11.0
  0
VERTEX
  5
1C3A
  8
DISTRICTS
 10
636.02396514199995
 20
4673.3142015399999
 30
11.0
  0
VERTEX
  5
1C3B
  8
DISTRICTS
 10
636.05628266500003
 20
4673.3317422399996
 30
11.0
  0
VERTEX
  5
1C3C
  8
DISTRICTS
 10
636.12418300699994
 20
4673.36760693
 30
11.0
  0
VERTEX
  5
1C3D
  8
DISTRICTS
 10
636.22440087099994
 20
4673.4137810100001
 30
11.0
  0
VERTEX
  5
1C3E
  8
DISTRICTS
 10
636.27563312899986
 20
4673.4319809099998
 30
11.0
  0
VERTEX
  5
1C3F
  8
DISTRICTS
 10
636.32461873599993
 20
4673.45146226
 30
11.0
  0
VERTEX
  5
1C40
  8
DISTRICTS
 10
636.42483660100004
 20
4673.4806024400004
 30
11.0
  0
VERTEX
  5
1C41
  8
DISTRICTS
 10
636.52505446600003
 20
4673.4976186199992
 30
11.0
  0
VERTEX
  5
1C42
  8
DISTRICTS
 10
636.62527233100002
 20
4673.5034644400002
 30
11.0
  0
VERTEX
  5
1C43
  8
DISTRICTS
 10
636.7254901959999
 20
4673.4980131700004
 30
11.0
  0
VERTEX
  5
1C44
  8
DISTRICTS
 10
636.825708061
 20
4673.4792684399999
 30
11.0
  0
VERTEX
  5
1C45
  8
DISTRICTS
 10
636.92592592599965
 20
4673.4425135700003
 30
11.0
  0
VERTEX
  5
1C46
  8
DISTRICTS
 10
636.94594392799991
 20
4673.4319809099998
 30
11.0
  0
VERTEX
  5
1C47
  8
DISTRICTS
 10
637.02614379099987
 20
4673.3921319499996
 30
11.0
  0
VERTEX
  5
1C48
  8
DISTRICTS
 10
637.10616637899989
 20
4673.3317422399996
 30
11.0
  0
VERTEX
  5
1C49
  8
DISTRICTS
 10
637.12636165599997
 20
4673.3155636800002
 30
11.0
  0
VERTEX
  5
1C4A
  8
DISTRICTS
 10
637.21005196900001
 20
4673.2315035800011
 30
11.0
  0
VERTEX
  5
1C4B
  8
DISTRICTS
 10
637.22657952099985
 20
4673.2114098700004
 30
11.0
  0
VERTEX
  5
1C4C
  8
DISTRICTS
 10
637.28954513400004
 20
4673.1312649199999
 30
11.0
  0
VERTEX
  5
1C4D
  8
DISTRICTS
 10
637.32679738599995
 20
4673.0668236299998
 30
11.0
  0
VERTEX
  5
1C4E
  8
DISTRICTS
 10
637.35145777699995
 20
4673.0310262499997
 30
11.0
  0
VERTEX
  5
1C4F
  8
DISTRICTS
 10
637.40468800199994
 20
4672.9307875900004
 30
11.0
  0
VERTEX
  5
1C50
  8
DISTRICTS
 10
637.42701525099994
 20
4672.8611219599989
 30
11.0
  0
VERTEX
  5
1C51
  8
DISTRICTS
 10
637.4347733653965
 20
4672.8269648263258
 30
11.0
  0
VERTEX
  5
1C52
  8
DISTRICTS
 10
637.43231223731152
 20
4672.7777661746049
 30
11.0
  0
VERTEX
  5
1C53
  8
DISTRICTS
 10
637.42701525099994
 20
4672.6948424700004
 30
11.0
  0
VERTEX
  5
1C54
  8
DISTRICTS
 10
637.403124531
 20
4672.6300715999987
 30
11.0
  0
VERTEX
  5
1C55
  8
DISTRICTS
 10
637.32542600900001
 20
4672.5298329400002
 30
11.0
  0
VERTEX
  5
1C56
  8
DISTRICTS
 10
637.25638109399995
 20
4672.4295942700001
 30
11.0
  0
VERTEX
  5
1C57
  8
DISTRICTS
 10
637.22657952099985
 20
4672.3986276100004
 30
11.0
  0
VERTEX
  5
1C58
  8
DISTRICTS
 10
637.16887930999985
 20
4672.3293556099989
 30
11.0
  0
VERTEX
  5
1C59
  8
DISTRICTS
 10
637.12636165599997
 20
4672.2905080800001
 30
11.0
  0
VERTEX
  5
1C5A
  8
DISTRICTS
 10
637.05359802999965
 20
4672.2291169500004
 30
11.0
  0
VERTEX
  5
1C5B
  8
DISTRICTS
 10
637.02614379099987
 20
4672.208905059998
 30
11.0
  0
VERTEX
  5
1C5C
  8
DISTRICTS
 10
636.92592592599965
 20
4672.1476019399988
 30
11.0
  0
VERTEX
  5
1C5D
  8
DISTRICTS
 10
636.88166766699976
 20
4672.1288782800002
 30
11.0
  0
VERTEX
  5
1C5E
  8
DISTRICTS
 10
636.825708061
 20
4672.1027670900012
 30
11.0
  0
VERTEX
  5
1C5F
  8
DISTRICTS
 10
636.7254901959999
 20
4672.0713992999999
 30
11.0
  0
VERTEX
  5
1C60
  8
DISTRICTS
 10
636.62527233100002
 20
4672.0544658199969
 30
11.0
  0
VERTEX
  5
1C61
  8
DISTRICTS
 10
636.52505446600003
 20
4672.0492018799987
 30
11.0
  0
VERTEX
  5
1C62
  8
DISTRICTS
 10
636.42483660100004
 20
4672.0544450000016
 30
11.0
  0
VERTEX
  5
1C63
  8
DISTRICTS
 10
636.32461873599993
 20
4672.0702523199998
 30
11.0
  0
VERTEX
  5
1C64
  8
DISTRICTS
 10
636.22440087099994
 20
4672.0969267600003
 30
11.0
  0
VERTEX
  5
1C65
  8
DISTRICTS
 10
636.135269988
 20
4672.1288782800002
 30
11.0
  0
VERTEX
  5
1C66
  8
DISTRICTS
 10
636.12418300699994
 20
4672.1331708999969
 30
11.0
  0
VERTEX
  5
1C67
  8
DISTRICTS
 10
636.02396514199995
 20
4672.1739689699998
 30
11.0
  0
VERTEX
  5
1C68
  8
DISTRICTS
 10
635.92374727699985
 20
4672.2188212000001
 30
11.0
  0
VERTEX
  5
1C69
  8
DISTRICTS
 10
635.89289668499976
 20
4672.2291169500004
 30
11.0
  0
VERTEX
  5
1C6A
  8
DISTRICTS
 10
635.82352941199986
 20
4672.2577103399999
 30
11.0
  0
VERTEX
  5
1C6B
  8
DISTRICTS
 10
635.72331154699975
 20
4672.2781506299998
 30
11.0
  0
VERTEX
  5
1C6C
  8
DISTRICTS
 10
635.62309368199999
 20
4672.2664739100001
 30
11.0
  0
SEQEND
  5
1C6D
  8
DISTRICTS
  0
POLYLINE
  5
DE2
  8
DISTRICTS
 66
     1
 10
0.0
 20
0.0
 30
12.0
 70
     1
  0
VERTEX
  5
1C6E
  8
DISTRICTS
 10
637.66322443000001
 20
4674.1336515499997
 30
12.0
  0
VERTEX
  5
1C6F
  8
DISTRICTS
 10
637.62745098000005
 20
4674.1367145800032
 30
12.0
  0
VERTEX
  5
1C70
  8
DISTRICTS
 10
637.52723311499994
 20
4674.1521901300002
 30
12.0
  0
VERTEX
  5
1C71
  8
DISTRICTS
 10
637.42701525099994
 20
4674.1772280900013
 30
12.0
  0
VERTEX
  5
1C72
  8
DISTRICTS
 10
637.32679738599995
 20
4674.2156913199969
 30
12.0
  0
VERTEX
  5
1C73
  8
DISTRICTS
 10
637.29190916000005
 20
4674.23389021
 30
12.0
  0
VERTEX
  5
1C74
  8
DISTRICTS
 10
637.22657952099985
 20
4674.2652421199991
 30
12.0
  0
VERTEX
  5
1C75
  8
DISTRICTS
 10
637.12636165599997
 20
4674.3338649999996
 30
12.0
  0
VERTEX
  5
1C76
  8
DISTRICTS
 10
637.02614379099987
 20
4674.4175176700001
 30
12.0
  0
VERTEX
  5
1C77
  8
DISTRICTS
 10
637.00988753599995
 20
4674.4343675399987
 30
12.0
  0
VERTEX
  5
1C78
  8
DISTRICTS
 10
636.92592592599965
 20
4674.5266163400001
 30
12.0
  0
VERTEX
  5
1C79
  8
DISTRICTS
 10
636.91962692100003
 20
4674.5346062099989
 30
12.0
  0
VERTEX
  5
1C7A
  8
DISTRICTS
 10
636.84551103000001
 20
4674.6348448700001
 30
12.0
  0
VERTEX
  5
1C7B
  8
DISTRICTS
 10
636.825708061
 20
4674.6660920199993
 30
12.0
  0
VERTEX
  5
1C7C
  8
DISTRICTS
 10
636.78382052799986
 20
4674.7350835300003
 30
12.0
  0
VERTEX
  5
1C7D
  8
DISTRICTS
 10
636.73387781999975
 20
4674.8353221999978
 30
12.0
  0
VERTEX
  5
1C7E
  8
DISTRICTS
 10
636.7254901959999
 20
4674.8552384000013
 30
12.0
  0
VERTEX
  5
1C7F
  8
DISTRICTS
 10
636.68947338299995
 20
4674.9355608599981
 30
12.0
  0
VERTEX
  5
1C80
  8
DISTRICTS
 10
636.65234364800006
 20
4675.0357995200002
 30
12.0
  0
VERTEX
  5
1C81
  8
DISTRICTS
 10
636.62527233100002
 20
4675.1213874799987
 30
12.0
  0
VERTEX
  5
1C82
  8
DISTRICTS
 10
636.61968958299985
 20
4675.1360381900004
 30
12.0
  0
VERTEX
  5
1C83
  8
DISTRICTS
 10
636.57935586199994
 20
4675.236276849997
 30
12.0
  0
VERTEX
  5
1C84
  8
DISTRICTS
 10
636.52505446600003
 20
4675.3201953500002
 30
12.0
  0
VERTEX
  5
1C85
  8
DISTRICTS
 10
636.50622194000016
 20
4675.3365155099991
 30
12.0
  0
VERTEX
  5
1C86
  8
DISTRICTS
 10
636.42483660100004
 20
4675.3601408000004
 30
12.0
  0
VERTEX
  5
1C87
  8
DISTRICTS
 10
636.32461873599993
 20
4675.386659499999
 30
12.0
  0
VERTEX
  5
1C88
  8
DISTRICTS
 10
636.25295971900005
 20
4675.4367541800002
 30
12.0
  0
VERTEX
  5
1C89
  8
DISTRICTS
 10
636.22440087099994
 20
4675.44403048
 30
12.0
  0
VERTEX
  5
1C8A
  8
DISTRICTS
 10
636.14579226900003
 20
4675.5369928399969
 30
12.0
  0
VERTEX
  5
1C8B
  8
DISTRICTS
 10
636.14653567000005
 20
4675.6372314999999
 30
12.0
  0
VERTEX
  5
1C8C
  8
DISTRICTS
 10
636.22440087099994
 20
4675.7252446199991
 30
12.0
  0
VERTEX
  5
1C8D
  8
DISTRICTS
 10
636.26239808299999
 20
4675.7374701700001
 30
12.0
  0
VERTEX
  5
1C8E
  8
DISTRICTS
 10
636.32461873599993
 20
4675.7715693199998
 30
12.0
  0
VERTEX
  5
1C8F
  8
DISTRICTS
 10
636.42483660100004
 20
4675.78297578
 30
12.0
  0
VERTEX
  5
1C90
  8
DISTRICTS
 10
636.52505446600003
 20
4675.7579187700003
 30
12.0
  0
VERTEX
  5
1C91
  8
DISTRICTS
 10
636.61944271000004
 20
4675.7374701700001
 30
12.0
  0
VERTEX
  5
1C92
  8
DISTRICTS
 10
636.63054187499995
 20
4675.7374701700001
 30
12.0
  0
VERTEX
  5
1C93
  8
DISTRICTS
 10
636.7254901959999
 20
4675.7798174299969
 30
12.0
  0
VERTEX
  5
1C94
  8
DISTRICTS
 10
636.78516940300005
 20
4675.8377088300003
 30
12.0
  0
VERTEX
  5
1C95
  8
DISTRICTS
 10
636.825708061
 20
4675.8726036199987
 30
12.0
  0
VERTEX
  5
1C96
  8
DISTRICTS
 10
636.88967406999996
 20
4675.9379474899997
 30
12.0
  0
VERTEX
  5
1C97
  8
DISTRICTS
 10
636.92592592599965
 20
4675.9700708099999
 30
12.0
  0
VERTEX
  5
1C98
  8
DISTRICTS
 10
637.00232968599994
 20
4676.0381861599999
 30
12.0
  0
VERTEX
  5
1C99
  8
DISTRICTS
 10
637.02614379099987
 20
4676.0570772800002
 30
12.0
  0
VERTEX
  5
1C9A
  8
DISTRICTS
 10
637.12636165599997
 20
4676.1303475499999
 30
12.0
  0
VERTEX
  5
1C9B
  8
DISTRICTS
 10
637.13894541699995
 20
4676.1384248200002
 30
12.0
  0
VERTEX
  5
1C9C
  8
DISTRICTS
 10
637.22657952099985
 20
4676.1919949299991
 30
12.0
  0
VERTEX
  5
1C9D
  8
DISTRICTS
 10
637.32679738599995
 20
4676.2385485799969
 30
12.0
  0
VERTEX
  5
1C9E
  8
DISTRICTS
 10
637.42701525099994
 20
4676.2776633800004
 30
12.0
  0
VERTEX
  5
1C9F
  8
DISTRICTS
 10
637.52723311499994
 20
4676.3043077100001
 30
12.0
  0
VERTEX
  5
1CA0
  8
DISTRICTS
 10
637.62745098000005
 20
4676.3201200499971
 30
12.0
  0
VERTEX
  5
1CA1
  8
DISTRICTS
 10
637.72766884500004
 20
4676.3263442999978
 30
12.0
  0
VERTEX
  5
1CA2
  8
DISTRICTS
 10
637.82788671000003
 20
4676.3235288599999
 30
12.0
  0
VERTEX
  5
1CA3
  8
DISTRICTS
 10
637.92810457499979
 20
4676.3113652599995
 30
12.0
  0
VERTEX
  5
1CA4
  8
DISTRICTS
 10
638.02832244000001
 20
4676.2887128800003
 30
12.0
  0
VERTEX
  5
1CA5
  8
DISTRICTS
 10
638.128540305
 20
4676.2538330699999
 30
12.0
  0
VERTEX
  5
1CA6
  8
DISTRICTS
 10
638.16209839400005
 20
4676.2386634799977
 30
12.0
  0
VERTEX
  5
1CA7
  8
DISTRICTS
 10
638.22875816999988
 20
4676.2094161799978
 30
12.0
  0
VERTEX
  5
1CA8
  8
DISTRICTS
 10
638.32897603499998
 20
4676.1510431799989
 30
12.0
  0
VERTEX
  5
1CA9
  8
DISTRICTS
 10
638.347719471
 20
4676.1384248200002
 30
12.0
  0
VERTEX
  5
1CAA
  8
DISTRICTS
 10
638.42919389999975
 20
4676.0798678000001
 30
12.0
  0
VERTEX
  5
1CAB
  8
DISTRICTS
 10
638.47954513399975
 20
4676.0381861599999
 30
12.0
  0
VERTEX
  5
1CAC
  8
DISTRICTS
 10
638.52941176499985
 20
4675.99172387
 30
12.0
  0
VERTEX
  5
1CAD
  8
DISTRICTS
 10
638.58376908499963
 20
4675.9379474899997
 30
12.0
  0
VERTEX
  5
1CAE
  8
DISTRICTS
 10
638.62962962999995
 20
4675.8851429799988
 30
12.0
  0
VERTEX
  5
1CAF
  8
DISTRICTS
 10
638.67105584599994
 20
4675.8377088300003
 30
12.0
  0
VERTEX
  5
1CB0
  8
DISTRICTS
 10
638.72984749499994
 20
4675.7591691600001
 30
12.0
  0
VERTEX
  5
1CB1
  8
DISTRICTS
 10
638.74691442000005
 20
4675.7374701700001
 30
12.0
  0
VERTEX
  5
1CB2
  8
DISTRICTS
 10
638.81783711000003
 20
4675.6372314999999
 30
12.0
  0
VERTEX
  5
1CB3
  8
DISTRICTS
 10
638.83006535899995
 20
4675.6187501799986
 30
12.0
  0
VERTEX
  5
1CB4
  8
DISTRICTS
 10
638.88874733800003
 20
4675.5369928399969
 30
12.0
  0
VERTEX
  5
1CB5
  8
DISTRICTS
 10
638.93028322400005
 20
4675.4790191999991
 30
12.0
  0
VERTEX
  5
1CB6
  8
DISTRICTS
 10
638.96163481999963
 20
4675.4367541800002
 30
12.0
  0
VERTEX
  5
1CB7
  8
DISTRICTS
 10
639.03050108900004
 20
4675.3473274399994
 30
12.0
  0
VERTEX
  5
1CB8
  8
DISTRICTS
 10
639.03850226700001
 20
4675.3365155099991
 30
12.0
  0
VERTEX
  5
1CB9
  8
DISTRICTS
 10
639.11463996099997
 20
4675.236276849997
 30
12.0
  0
VERTEX
  5
1CBA
  8
DISTRICTS
 10
639.13071895400003
 20
4675.2145877700013
 30
12.0
  0
VERTEX
  5
1CBB
  8
DISTRICTS
 10
639.18197128700001
 20
4675.1360381900004
 30
12.0
  0
VERTEX
  5
1CBC
  8
DISTRICTS
 10
639.23067431799996
 20
4675.0357995200002
 30
12.0
  0
VERTEX
  5
1CBD
  8
DISTRICTS
 10
639.26779627199994
 20
4674.9355608599981
 30
12.0
  0
VERTEX
  5
1CBE
  8
DISTRICTS
 10
639.28522560800002
 20
4674.8353221999978
 30
12.0
  0
VERTEX
  5
1CBF
  8
DISTRICTS
 10
639.28416270100001
 20
4674.7350835300003
 30
12.0
  0
VERTEX
  5
1CC0
  8
DISTRICTS
 10
639.26301671299996
 20
4674.6348448700001
 30
12.0
  0
VERTEX
  5
1CC1
  8
DISTRICTS
 10
639.23093681900002
 20
4674.562255589999
 30
12.0
  0
VERTEX
  5
1CC2
  8
DISTRICTS
 10
639.21964842800003
 20
4674.5346062099989
 30
12.0
  0
VERTEX
  5
1CC3
  8
DISTRICTS
 10
639.15138789499963
 20
4674.4343675399987
 30
12.0
  0
VERTEX
  5
1CC4
  8
DISTRICTS
 10
639.13071895400003
 20
4674.4110321999997
 30
12.0
  0
VERTEX
  5
1CC5
  8
DISTRICTS
 10
639.04187959000001
 20
4674.3341288800002
 30
12.0
  0
VERTEX
  5
1CC6
  8
DISTRICTS
 10
639.03050108900004
 20
4674.32492009
 30
12.0
  0
VERTEX
  5
1CC7
  8
DISTRICTS
 10
638.93028322400005
 20
4674.2642803099998
 30
12.0
  0
VERTEX
  5
1CC8
  8
DISTRICTS
 10
638.84433069800002
 20
4674.23389021
 30
12.0
  0
VERTEX
  5
1CC9
  8
DISTRICTS
 10
638.83006535899995
 20
4674.2275825200004
 30
12.0
  0
VERTEX
  5
1CCA
  8
DISTRICTS
 10
638.72984749499994
 20
4674.1987020099987
 30
12.0
  0
VERTEX
  5
1CCB
  8
DISTRICTS
 10
638.62962962999995
 20
4674.1816024500004
 30
12.0
  0
VERTEX
  5
1CCC
  8
DISTRICTS
 10
638.52941176499985
 20
4674.1710953299998
 30
12.0
  0
VERTEX
  5
1CCD
  8
DISTRICTS
 10
638.42919389999975
 20
4674.1634124199991
 30
12.0
  0
VERTEX
  5
1CCE
  8
DISTRICTS
 10
638.32897603499998
 20
4674.1560703100004
 30
12.0
  0
VERTEX
  5
1CCF
  8
DISTRICTS
 10
638.22875816999988
 20
4674.14807268
 30
12.0
  0
VERTEX
  5
1CD0
  8
DISTRICTS
 10
638.128540305
 20
4674.1398108099993
 30
12.0
  0
VERTEX
  5
1CD1
  8
DISTRICTS
 10
638.04440585500004
 20
4674.1336515499997
 30
12.0
  0
VERTEX
  5
1CD2
  8
DISTRICTS
 10
638.02832244000001
 20
4674.1322142600011
 30
12.0
  0
VERTEX
  5
1CD3
  8
DISTRICTS
 10
637.92810457499979
 20
4674.1259322400001
 30
12.0
  0
VERTEX
  5
1CD4
  8
DISTRICTS
 10
637.82788671000003
 20
4674.1237227399997
 30
12.0
  0
VERTEX
  5
1CD5
  8
DISTRICTS
 10
637.72766884500004
 20
4674.1270496799998
 30
12.0
  0
SEQEND
  5
1CD6
  8
DISTRICTS
  0
ENDSEC
  0
EOF
