  0
SECTION
  2
HEADER
  9
$ACADVER
  1
AC1009
  9
$INSBASE
 10
0.0
 20
0.0
 30
0.0
  9
$EXTMIN
 10
630.07588043066062
 20
4665.4056531696788
 30
0.013210214471032
  9
$EXTMAX
 10
657.20104084564935
 20
4693.6947229506713
 30
4.0481231376492888
  9
$LIMMIN
 10
0.0
 20
0.0
  9
$LIMMAX
 10
12.0
 20
9.0
  9
$ORTHOMODE
 70
     0
  9
$REGENMODE
 70
     1
  9
$FILLMODE
 70
     1
  9
$QTEXTMODE
 70
     0
  9
$MIRRTEXT
 70
     1
  9
$DRAGMODE
 70
     2
  9
$LTSCALE
 40
1.0
  9
$OSMODE
 70
   613
  9
$ATTMODE
 70
     1
  9
$TEXTSIZE
 40
0.2
  9
$TRACEWID
 40
0.05
  9
$TEXTSTYLE
  7
C
  9
$CLAYER
  8
0
  9
$CELTYPE
  6
BYLAYER
  9
$CECOLOR
 62
   256
  9
$DIMSCALE
 40
1.0
  9
$DIMASZ
 40
0.18
  9
$DIMEXO
 40
0.0625
  9
$DIMDLI
 40
0.38
  9
$DIMRND
 40
0.0
  9
$DIMDLE
 40
0.0
  9
$DIMEXE
 40
0.18
  9
$DIMTP
 40
0.0
  9
$DIMTM
 40
0.0
  9
$DIMTXT
 40
0.18
  9
$DIMCEN
 40
0.09
  9
$DIMTSZ
 40
0.0
  9
$DIMTOL
 70
     0
  9
$DIMLIM
 70
     0
  9
$DIMTIH
 70
     1
  9
$DIMTOH
 70
     1
  9
$DIMSE1
 70
     0
  9
$DIMSE2
 70
     0
  9
$DIMTAD
 70
     0
  9
$DIMZIN
 70
     0
  9
$DIMBLK
  1

  9
$DIMASO
 70
     1
  9
$DIMSHO
 70
     1
  9
$DIMPOST
  1

  9
$DIMAPOST
  1

  9
$DIMALT
 70
     0
  9
$DIMALTD
 70
     2
  9
$DIMALTF
 40
25.399999999999999
  9
$DIMLFAC
 40
1.0
  9
$DIMTOFL
 70
     0
  9
$DIMTVP
 40
0.0
  9
$DIMTIX
 70
     0
  9
$DIMSOXD
 70
     0
  9
$DIMSAH
 70
     0
  9
$DIMBLK1
  1

  9
$DIMBLK2
  1

  9
$DIMSTYLE
  2
STANDARD
  9
$DIMCLRD
 70
     0
  9
$DIMCLRE
 70
     0
  9
$DIMCLRT
 70
     0
  9
$DIMTFAC
 40
1.0
  9
$DIMGAP
 40
0.09
  9
$LUNITS
 70
     2
  9
$LUPREC
 70
     4
  9
$SKETCHINC
 40
0.1
  9
$FILLETRAD
 40
0.5
  9
$AUNITS
 70
     0
  9
$AUPREC
 70
     0
  9
$MENU
  1
.
  9
$ELEVATION
 40
0.0
  9
$PELEVATION
 40
0.0
  9
$THICKNESS
 40
0.0
  9
$LIMCHECK
 70
     0
  9
$BLIPMODE
 70
     0
  9
$CHAMFERA
 40
0.5
  9
$CHAMFERB
 40
0.5
  9
$SKPOLY
 70
     0
  9
$TDCREATE
 40
2451380.7704007518
  9
$TDUPDATE
 40
2455808.6415256141
  9
$TDINDWG
 40
1.6728313542
  9
$TDUSRTIMER
 40
1.6728312383999999
  9
$USRTIMER
 70
     1
  9
$ANGBASE
 50
0.0
  9
$ANGDIR
 70
     0
  9
$PDMODE
 70
     0
  9
$PDSIZE
 40
0.0
  9
$PLINEWID
 40
0.0
  9
$COORDS
 70
     1
  9
$SPLFRAME
 70
     0
  9
$SPLINETYPE
 70
     6
  9
$SPLINESEGS
 70
     8
  9
$ATTDIA
 70
     0
  9
$ATTREQ
 70
     1
  9
$HANDLING
 70
     1
  9
$HANDSEED
  5
C52
  9
$SURFTAB1
 70
     6
  9
$SURFTAB2
 70
     6
  9
$SURFTYPE
 70
     6
  9
$SURFU
 70
     6
  9
$SURFV
 70
     6
  9
$UCSNAME
  2

  9
$UCSORG
 10
0.0
 20
0.0
 30
0.0
  9
$UCSXDIR
 10
1.0
 20
0.0
 30
0.0
  9
$UCSYDIR
 10
0.0
 20
1.0
 30
0.0
  9
$PUCSNAME
  2

  9
$PUCSORG
 10
0.0
 20
0.0
 30
0.0
  9
$PUCSXDIR
 10
1.0
 20
0.0
 30
0.0
  9
$PUCSYDIR
 10
0.0
 20
1.0
 30
0.0
  9
$USERI1
 70
     0
  9
$USERI2
 70
     0
  9
$USERI3
 70
     0
  9
$USERI4
 70
     0
  9
$USERI5
 70
     0
  9
$USERR1
 40
0.0
  9
$USERR2
 40
0.0
  9
$USERR3
 40
0.0
  9
$USERR4
 40
0.0
  9
$USERR5
 40
0.0
  9
$WORLDVIEW
 70
     1
  9
$SHADEDGE
 70
     3
  9
$SHADEDIF
 70
    70
  9
$TILEMODE
 70
     1
  9
$MAXACTVP
 70
    48
  9
$PLIMCHECK
 70
     0
  9
$PEXTMIN
 10
1.0000000000000000E+020
 20
1.0000000000000000E+020
 30
1.0000000000000000E+020
  9
$PEXTMAX
 10
-1.0000000000000000E+020
 20
-1.0000000000000000E+020
 30
-1.0000000000000000E+020
  9
$PLIMMIN
 10
0.0
 20
0.0
  9
$PLIMMAX
 10
12.0
 20
9.0
  9
$UNITMODE
 70
     0
  9
$VISRETAIN
 70
     1
  9
$PLINEGEN
 70
     0
  9
$PSLTSCALE
 70
     1
  0
ENDSEC
  0
SECTION
  2
TABLES
  0
TABLE
  2
VPORT
 70
     1
  0
VPORT
  2
*ACTIVE
 70
     0
 10
0.0
 20
0.0
 11
1.0
 21
1.0
 12
643.63846063815504
 22
4679.5501880601751
 13
0.0
 23
0.0
 14
0.5
 24
0.5
 15
0.5
 25
0.5
 16
0.0
 26
0.0
 36
1.0
 17
0.0
 27
0.0
 37
0.0
 40
28.497845203730321
 41
1.336206896551724
 42
50.0
 43
0.0
 44
0.0
 50
0.0
 51
0.0
 71
     0
 72
   100
 73
     1
 74
     0
 75
     0
 76
     0
 77
     0
 78
     0
  0
ENDTAB
  0
TABLE
  2
LTYPE
 70
     1
  0
LTYPE
  2
CONTINUOUS
 70
     0
  3
Solid line
 72
    65
 73
     0
 40
0.0
  0
ENDTAB
  0
TABLE
  2
LAYER
 70
     2
  0
LAYER
  2
0
 70
     0
 62
     1
  6
CONTINUOUS
  0
LAYER
  2
LOTS
 70
     0
 62
     6
  6
CONTINUOUS
  0
ENDTAB
  0
TABLE
  2
STYLE
 70
     4
  0
STYLE
  2
STANDARD
 70
     0
 40
0.0
 41
1.0
 50
0.0
 71
     0
 42
0.2
  3
simplex.shx
  4

  0
STYLE
  2
ANNOTATIVE
 70
     0
 40
0.0
 41
1.0
 50
0.0
 71
     0
 42
0.2
  3
txt
  4

  0
STYLE
  2
C
 70
     0
 40
0.0
 41
1.0
 50
0.0
 71
     0
 42
0.2
  3
txt
  4

  0
STYLE
  2
LEGEND
 70
     0
 40
0.0
 41
1.0
 50
0.0
 71
     0
 42
0.2
  3
txt
  4

  0
ENDTAB
  0
TABLE
  2
VIEW
 70
     0
  0
ENDTAB
  0
TABLE
  2
UCS
 70
     0
  0
ENDTAB
  0
TABLE
  2
APPID
 70
     7
  0
APPID
  2
ACAD
 70
     0
  0
APPID
  2
ACADANNOTATIVE
 70
     0
  0
APPID
  2
ADE
 70
     0
  0
APPID
  2
DCO15
 70
     0
  0
APPID
  2
ACMAPDMDISPLAYSTYLEREGAPP
 70
     0
  0
APPID
  2
MAPGWS
 70
     0
  0
APPID
  2
ACAD_MLEADERVER
 70
     0
  0
ENDTAB
  0
TABLE
  2
DIMSTYLE
 70
     2
  0
DIMSTYLE
  2
STANDARD
 70
     0
  3

  4

  5

  6

  7

 40
1.0
 41
0.18
 42
0.0625
 43
0.38
 44
0.18
 45
0.0
 46
0.0
 47
0.0
 48
0.0
140
0.18
141
0.09
142
0.0
143
25.399999999999999
144
1.0
145
0.0
146
1.0
147
0.09
 71
     0
 72
     0
 73
     1
 74
     1
 75
     0
 76
     0
 77
     0
 78
     0
170
     0
171
     2
172
     0
173
     0
174
     0
175
     0
176
     0
177
     0
178
     0
  0
DIMSTYLE
  2
ANNOTATIVE
 70
     0
  3

  4

  5

  6

  7

 40
1.0
 41
0.18
 42
0.0625
 43
0.38
 44
0.18
 45
0.0
 46
0.0
 47
0.0
 48
0.0
140
0.18
141
0.09
142
0.0
143
25.399999999999999
144
1.0
145
0.0
146
1.0
147
0.09
 71
     0
 72
     0
 73
     1
 74
     1
 75
     0
 76
     0
 77
     0
 78
     0
170
     0
171
     2
172
     0
173
     0
174
     0
175
     0
176
     0
177
     0
178
     0
  0
ENDTAB
  0
ENDSEC
  0
SECTION
  2
BLOCKS
  0
BLOCK
  8
0
  2
$MODEL_SPACE
 70
     0
 10
0.0
 20
0.0
 30
0.0
  3
$MODEL_SPACE
  1

  0
ENDBLK
  5
9C6
  8
0
  0
BLOCK
 67
     1
  8
0
  2
$PAPER_SPACE
 70
     0
 10
0.0
 20
0.0
 30
0.0
  3
$PAPER_SPACE
  1

  0
ENDBLK
  5
9C2
 67
     1
  8
0
  0
ENDSEC
  0
SECTION
  2
ENTITIES
  0
POLYLINE
  5
2AF
  8
LOTS
 66
     1
 10
0.0
 20
0.0
 30
0.0333333332222222
 70
     1
1001
DCO15
1071
        1
1071
        1
1000
collections
1004
0730374131313400
1001
ADE
1011
-0.0373167257448586
1021
0.0
1031
0.0
1021
-0.0289260239278519
1031
0.0
  0
VERTEX
  5
9FF
  8
LOTS
 10
635.50455197660676
 20
4673.0431657445997
 30
0.0333333332222222
  0
VERTEX
  5
A00
  8
LOTS
 10
635.38270165813833
 20
4673.0248966663166
 30
0.0333333332222222
  0
VERTEX
  5
A01
  8
LOTS
 10
635.36747038919134
 20
4673.0279414793276
 30
0.0333333332222222
  0
VERTEX
  5
A02
  8
LOTS
 10
635.36290104188561
 20
4673.0462105576098
 30
0.0333333332222222
  0
VERTEX
  5
A03
  8
LOTS
 10
635.38117859800036
 20
4673.0797038010523
 30
0.0333333332222222
  0
VERTEX
  5
A04
  8
LOTS
 10
635.41316419603243
 20
4673.1025400988492
 30
0.0333333332222222
  0
VERTEX
  5
A05
  8
LOTS
 10
635.45124253529229
 20
4673.1192867706259
 30
0.0333333332222222
  0
VERTEX
  5
A06
  8
LOTS
 10
635.50759826377475
 20
4673.1253764967569
 30
0.0333333332222222
  0
SEQEND
  5
A07
  8
LOTS
  0
POLYLINE
  5
2B9
  8
LOTS
 66
     1
 10
0.0
 20
0.0
 30
0.0133333333324445
 70
     1
1001
DCO15
1071
        1
1071
        1
1000
collections
1004
0730345031303300
1001
ADE
1011
-0.0250445267948862
1021
0.0
1031
0.0
1021
-0.0025292299469584
1031
0.0
  0
VERTEX
  5
A08
  8
LOTS
 10
634.67370063483816
 20
4693.5449297172927
 30
0.0133333333324445
  0
VERTEX
  5
A09
  8
LOTS
 10
634.65097621046789
 20
4693.5485255914718
 30
0.0133333333324445
  0
VERTEX
  5
A0A
  8
LOTS
 10
634.61914007642395
 20
4693.5514761986196
 30
0.0133333333324445
  0
VERTEX
  5
A0B
  8
LOTS
 10
634.59719136008073
 20
4693.5477903207729
 30
0.0133333333324445
  0
VERTEX
  5
A0C
  8
LOTS
 10
634.59007033326202
 20
4693.5275094766366
 30
0.0133333333324445
  0
VERTEX
  5
A0D
  8
LOTS
 10
634.59965139609983
 20
4693.5118696347017
 30
0.0133333333324445
  0
VERTEX
  5
A0E
  8
LOTS
 10
634.628001728546
 20
4693.5059748720842
 30
0.0133333333324445
  0
VERTEX
  5
A0F
  8
LOTS
 10
634.65511871154979
 20
4693.5058898491907
 30
0.0133333333324445
  0
VERTEX
  5
A10
  8
LOTS
 10
634.67783728004565
 20
4693.5111725356464
 30
0.0133333333324445
  0
VERTEX
  5
A11
  8
LOTS
 10
634.68188598349468
 20
4693.5273258939333
 30
0.0133333333324445
  0
VERTEX
  5
A12
  8
LOTS
 10
634.67601905474226
 20
4693.5417592057311
 30
0.0133333333324445
  0
SEQEND
  5
A13
  8
LOTS
  0
POLYLINE
  5
2C6
  8
LOTS
 66
     1
 10
0.0
 20
0.0
 30
0.0999999995
 70
     1
1001
DCO15
1071
        2
1071
        2
1000
collections
1004
0730304230303600
1001
ADE
1011
-0.012314700477873
1021
0.0
1031
0.0
1021
-0.0131475182715804
1031
0.0
  0
VERTEX
  5
A14
  8
LOTS
 10
630.10500870313342
 20
4677.4120934330322
 30
0.0999999995
  0
VERTEX
  5
A15
  8
LOTS
 10
630.12442048005755
 20
4677.4070684504577
 30
0.0999999995
  0
VERTEX
  5
A16
  8
LOTS
 10
630.13455413181759
 20
4677.3971891846832
 30
0.0999999995
  0
VERTEX
  5
A17
  8
LOTS
 10
630.1370204387847
 20
4677.3842424713321
 30
0.0999999995
  0
VERTEX
  5
A18
  8
LOTS
 10
630.13291298661613
 20
4677.3728886779982
 30
0.0999999995
  0
VERTEX
  5
A19
  8
LOTS
 10
630.12048754971022
 20
4677.3576971305356
 30
0.0999999995
  0
VERTEX
  5
A1A
  8
LOTS
 10
630.10096707722312
 20
4677.3568237435838
 30
0.0999999995
  0
VERTEX
  5
A1B
  8
LOTS
 10
630.09151570438723
 20
4677.3677511774122
 30
0.0999999995
  0
VERTEX
  5
A1C
  8
LOTS
 10
630.08721306246116
 20
4677.3868177331451
 30
0.0999999995
  0
VERTEX
  5
A1D
  8
LOTS
 10
630.08962170663165
 20
4677.3980834988533
 30
0.0999999995
  0
SEQEND
  5
A1E
  8
LOTS
  0
POLYLINE
  5
2D2
  8
LOTS
 66
     1
 10
0.0
 20
0.0
 30
0.099999999
 70
     1
1001
DCO15
1071
        1
1071
        1
1000
collections
1004
0730374131313600
1001
ADE
1011
-0.0525479112457106
1021
0.0
1031
0.0
1021
-0.0106568955898183
1031
0.0
  0
VERTEX
  5
A1F
  8
LOTS
 10
635.62640212818303
 20
4673.058389909761
 30
0.099999999
  0
VERTEX
  5
A20
  8
LOTS
 10
635.62487906804529
 20
4673.131466122778
 30
0.099999999
  0
VERTEX
  5
A21
  8
LOTS
 10
635.66752658771838
 20
4673.1299437162734
 30
0.099999999
  0
VERTEX
  5
A22
  8
LOTS
 10
635.73911358514783
 20
4673.1162419576167
 30
0.099999999
  0
VERTEX
  5
A23
  8
LOTS
 10
635.76348354870606
 20
4673.0934055597081
 30
0.099999999
  0
VERTEX
  5
A24
  8
LOTS
 10
635.7695761230417
 20
4673.058389909761
 30
0.099999999
  0
SEQEND
  5
A25
  8
LOTS
  0
POLYLINE
  5
2DA
  8
LOTS
 66
     1
 10
0.0
 20
0.0
 30
0.0434782608601134
 70
     1
1001
DCO15
1071
        1
1071
        1
1000
collections
1004
0730374130393400
1001
ADE
1011
-0.0128119972923742
1021
0.0
1031
0.0
1021
-0.0492054022970479
1031
0.0
  0
VERTEX
  5
A26
  8
LOTS
 10
637.83338556958915
 20
4678.3214970366216
 30
0.0434782608601134
  0
VERTEX
  5
A27
  8
LOTS
 10
637.85698758468789
 20
4678.438090408923
 30
0.0434782608601134
  0
VERTEX
  5
A28
  8
LOTS
 10
637.9197057120291
 20
4678.4461838017023
 30
0.0434782608601134
  0
VERTEX
  5
A29
  8
LOTS
 10
637.89542357655955
 20
4678.3208244249618
 30
0.0434782608601134
  0
SEQEND
  5
A2A
  8
LOTS
  0
POLYLINE
  5
2E0
  8
LOTS
 66
     1
 10
0.0
 20
0.0
 30
0.0227272727066116
 70
     1
1001
DCO15
1071
        2
1071
        2
1000
collections
1004
0730304131393700
1001
ADE
1011
-0.0523902952995741
1021
0.0
1031
0.0
1021
-0.0492806980437308
1031
0.0
  0
VERTEX
  5
A2B
  8
LOTS
 10
640.41601215121182
 20
4685.9341257285378
 30
0.0227272727066116
  0
VERTEX
  5
A2C
  8
LOTS
 10
640.46016046816101
 20
4685.9409787959494
 30
0.0227272727066116
  0
VERTEX
  5
A2D
  8
LOTS
 10
640.49334739474148
 20
4685.9451323965277
 30
0.0227272727066116
  0
VERTEX
  5
A2E
  8
LOTS
 10
640.54406313123695
 20
4685.9675486799379
 30
0.0227272727066116
  0
VERTEX
  5
A2F
  8
LOTS
 10
640.57485693796013
 20
4685.9993529327212
 30
0.0227272727066116
  0
VERTEX
  5
A30
  8
LOTS
 10
640.59451231516346
 20
4685.9467800190841
 30
0.0227272727066116
  0
VERTEX
  5
A31
  8
LOTS
 10
640.58850617076985
 20
4685.8817852482207
 30
0.0227272727066116
  0
VERTEX
  5
A32
  8
LOTS
 10
640.54763844502361
 20
4685.8435364546358
 30
0.0227272727066116
  0
VERTEX
  5
A33
  8
LOTS
 10
640.49553275576147
 20
4685.8293947609827
 30
0.0227272727066116
  0
VERTEX
  5
A34
  8
LOTS
 10
640.44739625299235
 20
4685.8281005587778
 30
0.0227272727066116
  0
VERTEX
  5
A35
  8
LOTS
 10
640.4293830151247
 20
4685.8330475799248
 30
0.0227272727066116
  0
VERTEX
  5
A36
  8
LOTS
 10
640.43026141175176
 20
4685.8622074721397
 30
0.0227272727066116
  0
VERTEX
  5
A37
  8
LOTS
 10
640.42794419323525
 20
4685.90072281829
 30
0.0227272727066116
  0
VERTEX
  5
A38
  8
LOTS
 10
640.4234038069809
 20
4685.9228082721811
 30
0.0227272727066116
  0
SEQEND
  5
A39
  8
LOTS
  0
POLYLINE
  5
2F0
  8
LOTS
 66
     1
 10
0.0
 20
0.0
 30
0.0416666666319444
 70
     1
1001
DCO15
1071
        2
1071
        2
1000
collections
1004
0730304530343200
1001
ADE
1011
-0.0585902944590089
1021
0.0
1031
0.0
1021
-0.014397771989934
1031
0.0
  0
VERTEX
  5
A3A
  8
LOTS
 10
640.16220116814793
 20
4678.525959553649
 30
0.0416666666319444
  0
VERTEX
  5
A3B
  8
LOTS
 10
640.15057862117658
 20
4678.50123827261
 30
0.0416666666319444
  0
VERTEX
  5
A3C
  8
LOTS
 10
640.1223800357493
 20
4678.4817929946994
 30
0.0416666666319444
  0
VERTEX
  5
A3D
  8
LOTS
 10
640.08036491276596
 20
4678.4722118753843
 30
0.0416666666319444
  0
VERTEX
  5
A3E
  8
LOTS
 10
640.04566665231812
 20
4678.4734534725758
 30
0.0416666666319444
  0
VERTEX
  5
A3F
  8
LOTS
 10
640.01501455858738
 20
4678.4803837217878
 30
0.0416666666319444
  0
VERTEX
  5
A40
  8
LOTS
 10
639.99236801305085
 20
4678.5013340348678
 30
0.0416666666319444
  0
VERTEX
  5
A41
  8
LOTS
 10
639.98518357263151
 20
4678.52676052061
 30
0.0416666666319444
  0
VERTEX
  5
A42
  8
LOTS
 10
639.99509896436962
 20
4678.5551295942623
 30
0.0416666666319444
  0
VERTEX
  5
A43
  8
LOTS
 10
640.01366687334712
 20
4678.5697610750776
 30
0.0416666666319444
  0
VERTEX
  5
A44
  8
LOTS
 10
640.04599057021153
 20
4678.5763783291759
 30
0.0416666666319444
  0
VERTEX
  5
A45
  8
LOTS
 10
640.08616919810345
 20
4678.5774331888533
 30
0.0416666666319444
  0
VERTEX
  5
A46
  8
LOTS
 10
640.10646245736496
 20
4678.5717501330973
 30
0.0416666666319444
  0
VERTEX
  5
A47
  8
LOTS
 10
640.14003026542923
 20
4678.564651071666
 30
0.0416666666319444
  0
VERTEX
  5
A48
  8
LOTS
 10
640.15981316777675
 20
4678.542283914906
 30
0.0416666666319444
  0
SEQEND
  5
A49
  8
LOTS
  0
POLYLINE
  5
301
  8
LOTS
 66
     1
 10
0.0
 20
0.0
 30
0.049999999875
 70
     1
1001
DCO15
1071
        2
1071
        2
1000
collections
1004
0730314132343900
1001
ADE
1011
-0.0055787420585602
1021
0.0
1031
0.0
1021
-0.0073908849763029
1031
0.0
  0
VERTEX
  5
A4A
  8
LOTS
 10
648.51350783170278
 20
4692.0040096808389
 30
0.049999999875
  0
VERTEX
  5
A4B
  8
LOTS
 10
648.50824060540106
 20
4692.0002501642111
 30
0.049999999875
  0
VERTEX
  5
A4C
  8
LOTS
 10
648.50673570212007
 20
4691.9949868409331
 30
0.049999999875
  0
VERTEX
  5
A4D
  8
LOTS
 10
648.50297340070574
 20
4691.9837082786398
 30
0.049999999875
  0
VERTEX
  5
A4E
  8
LOTS
 10
648.50974553028811
 20
4691.9694221030468
 30
0.049999999875
  0
VERTEX
  5
A4F
  8
LOTS
 10
648.52178488617244
 20
4691.9626549607119
 30
0.049999999875
  0
VERTEX
  5
A50
  8
LOTS
 10
648.53909144675185
 20
4691.9641587673632
 30
0.049999999875
  0
VERTEX
  5
A51
  8
LOTS
 10
648.5496258561426
 20
4691.976189232978
 30
0.049999999875
  0
VERTEX
  5
A52
  8
LOTS
 10
648.55037832938922
 20
4691.9904754085719
 30
0.049999999875
  0
VERTEX
  5
A53
  8
LOTS
 10
648.54661602797489
 20
4692.0010020675372
 30
0.049999999875
  0
VERTEX
  5
A54
  8
LOTS
 10
648.52780454250842
 20
4692.0070172941414
 30
0.049999999875
  0
SEQEND
  5
A55
  8
LOTS
  0
POLYLINE
  5
30E
  8
LOTS
 66
     1
 10
0.0
 20
0.0
 30
0.0357142856632653
 70
     1
1001
DCO15
1071
        2
1071
        2
1000
collections
1004
0730314132343500
1001
ADE
1011
-0.0181417715127736
1021
0.0
1031
0.0
1021
0.0369783534933959
1031
0.0
  0
VERTEX
  5
A56
  8
LOTS
 10
648.88603885685905
 20
4691.8964046453748
 30
0.0357142856632653
  0
VERTEX
  5
A57
  8
LOTS
 10
648.90163521991008
 20
4691.8982511386921
 30
0.0357142856632653
  0
VERTEX
  5
A58
  8
LOTS
 10
648.92264053224449
 20
4691.8929048572309
 30
0.0357142856632653
  0
VERTEX
  5
A59
  8
LOTS
 10
648.93039815987197
 20
4691.7857688376344
 30
0.0357142856632653
  0
VERTEX
  5
A5A
  8
LOTS
 10
648.88999184397869
 20
4691.7979790789004
 30
0.0357142856632653
  0
VERTEX
  5
A5B
  8
LOTS
 10
648.87523877423803
 20
4691.8606713959543
 30
0.0357142856632653
  0
SEQEND
  5
A5C
  8
LOTS
  0
POLYLINE
  5
316
  8
LOTS
 66
     1
 10
0.0
 20
0.0
 30
0.0263157894598338
 70
     1
1001
DCO15
1071
        2
1071
        2
1000
collections
1004
0730314132343300
1001
ADE
1011
-0.042176010014714
1021
0.0
1031
0.0
1021
0.0134179333772409
1031
0.0
  0
VERTEX
  5
A5D
  8
LOTS
 10
648.92893488100162
 20
4691.7016557628513
 30
0.0263157894598338
  0
VERTEX
  5
A5E
  8
LOTS
 10
648.96807089810466
 20
4691.6907356488036
 30
0.0263157894598338
  0
VERTEX
  5
A5F
  8
LOTS
 10
648.9961489537892
 20
4691.6873955489464
 30
0.0263157894598338
  0
VERTEX
  5
A60
  8
LOTS
 10
649.03228927105636
 20
4691.6848049044711
 30
0.0263157894598338
  0
VERTEX
  5
A61
  8
LOTS
 10
649.00376957647995
 20
4691.7682133757507
 30
0.0263157894598338
  0
VERTEX
  5
A62
  8
LOTS
 10
648.93104009555111
 20
4691.7839839512953
 30
0.0263157894598338
  0
SEQEND
  5
A63
  8
LOTS
  0
POLYLINE
  5
31E
  8
LOTS
 66
     1
 10
0.0
 20
0.0
 30
0.0256410256377383
 70
     1
1001
DCO15
1071
        2
1071
        2
1000
collections
1004
0739394430343500
1001
ADE
1011
-0.0610366835155674
1021
0.0
1031
0.0
1021
-0.0133432911070486
1031
0.0
  0
VERTEX
  5
A64
  8
LOTS
 10
647.44072849340887
 20
4665.5611378116419
 30
0.0256410256377383
  0
VERTEX
  5
A65
  8
LOTS
 10
647.4237933602916
 20
4665.4798663117163
 30
0.0256410256377383
  0
VERTEX
  5
A66
  8
LOTS
 10
647.4662186290617
 20
4665.4590398675728
 30
0.0256410256377383
  0
VERTEX
  5
A67
  8
LOTS
 10
647.49915446151124
 20
4665.4465936679208
 30
0.0256410256377383
  0
VERTEX
  5
A68
  8
LOTS
 10
647.52487696232436
 20
4665.447825750889
 30
0.0256410256377383
  0
VERTEX
  5
A69
  8
LOTS
 10
647.54344640441104
 20
4665.4820758003007
 30
0.0256410256377383
  0
VERTEX
  5
A6A
  8
LOTS
 10
647.5651362581109
 20
4665.5223370282647
 30
0.0256410256377383
  0
VERTEX
  5
A6B
  8
LOTS
 10
647.57201932816031
 20
4665.5512973149152
 30
0.0256410256377383
  0
VERTEX
  5
A6C
  8
LOTS
 10
647.57984409573726
 20
4665.5748048540408
 30
0.0256410256377383
  0
SEQEND
  5
A6D
  8
LOTS
  0
POLYLINE
  5
329
  8
LOTS
 66
     1
 10
0.0
 20
0.0
 30
0.1086956521266541
 70
     1
1001
DCO15
1071
        2
1071
        2
1000
collections
1004
0730314233373300
1001
ADE
1011
0.0051129587034211
1021
0.0
1031
0.0
1021
-0.0798659261463399
1031
0.0
  0
VERTEX
  5
A6E
  8
LOTS
 10
638.81073119294695
 20
4691.3323230224869
 30
0.1086956521266541
  0
VERTEX
  5
A6F
  8
LOTS
 10
638.79571915455335
 20
4691.1832999826811
 30
0.1086956521266541
  0
VERTEX
  5
A70
  8
LOTS
 10
638.77795141830632
 20
4691.152082970254
 30
0.1086956521266541
  0
VERTEX
  5
A71
  8
LOTS
 10
638.75083080945501
 20
4691.1582626785539
 30
0.1086956521266541
  0
VERTEX
  5
A72
  8
LOTS
 10
638.73638307865053
 20
4691.2026288289862
 30
0.1086956521266541
  0
VERTEX
  5
A73
  8
LOTS
 10
638.73724300592005
 20
4691.269608379871
 30
0.1086956521266541
  0
VERTEX
  5
A74
  8
LOTS
 10
638.73613006286757
 20
4691.3293126566932
 30
0.1086956521266541
  0
VERTEX
  5
A75
  8
LOTS
 10
638.74330060871239
 20
4691.3700389108444
 30
0.1086956521266541
  0
VERTEX
  5
A76
  8
LOTS
 10
638.78483633691792
 20
4691.3680779438664
 30
0.1086956521266541
  0
SEQEND
  5
A77
  8
LOTS
  0
POLYLINE
  5
334
  8
LOTS
 66
     1
 10
0.0
 20
0.0
 30
0.0937499998828125
 70
     1
1001
DCO15
1071
        2
1071
        2
1000
collections
1004
0730304131373400
1001
ADE
1011
-0.0461172664944343
1021
0.0
1031
0.0
1021
-0.0342977050277114
1031
0.0
  0
VERTEX
  5
A78
  8
LOTS
 10
636.98150269840096
 20
4684.6100548331879
 30
0.0937499998828125
  0
VERTEX
  5
A79
  8
LOTS
 10
637.07827912902019
 20
4684.6554752143311
 30
0.0937499998828125
  0
VERTEX
  5
A7A
  8
LOTS
 10
637.1013376990569
 20
4684.681360655587
 30
0.0937499998828125
  0
VERTEX
  5
A7B
  8
LOTS
 10
637.0984523103989
 20
4684.62015053296
 30
0.0937499998828125
  0
VERTEX
  5
A7C
  8
LOTS
 10
637.10129620588077
 20
4684.5486136749223
 30
0.0937499998828125
  0
VERTEX
  5
A7D
  8
LOTS
 10
637.05463093216235
 20
4684.5669257330301
 30
0.0937499998828125
  0
VERTEX
  5
A7E
  8
LOTS
 10
637.01696187428195
 20
4684.5724773298998
 30
0.0937499998828125
  0
VERTEX
  5
A7F
  8
LOTS
 10
636.9862432827324
 20
4684.5703111463472
 30
0.0937499998828125
  0
SEQEND
  5
A80
  8
LOTS
  0
POLYLINE
  5
33E
  8
LOTS
 66
     1
 10
0.0
 20
0.0
 30
0.0749999999625
 70
     1
1001
DCO15
1071
        2
1071
        2
1000
collections
1004
0730304330353800
1001
ADE
1011
-0.0537156680380804
1021
0.0
1031
0.0
1021
-0.0138422180862108
1031
0.0
  0
VERTEX
  5
A81
  8
LOTS
 10
639.64947258816164
 20
4676.312515795028
 30
0.0749999999625
  0
VERTEX
  5
A82
  8
LOTS
 10
639.67272871251976
 20
4676.3356796389053
 30
0.0749999999625
  0
VERTEX
  5
A83
  8
LOTS
 10
639.70152900330174
 20
4676.3595294210563
 30
0.0749999999625
  0
VERTEX
  5
A84
  8
LOTS
 10
639.72942251045947
 20
4676.3803630384718
 30
0.0749999999625
  0
VERTEX
  5
A85
  8
LOTS
 10
639.62688309757004
 20
4676.4758531191928
 30
0.0749999999625
  0
VERTEX
  5
A86
  8
LOTS
 10
639.60572380421945
 20
4676.4589906204492
 30
0.0749999999625
  0
VERTEX
  5
A87
  8
LOTS
 10
639.58720479927251
 20
4676.4373625061125
 30
0.0749999999625
  0
VERTEX
  5
A88
  8
LOTS
 10
639.56383469021546
 20
4676.4097804268022
 30
0.0749999999625
  0
VERTEX
  5
A89
  8
LOTS
 10
639.55534932756404
 20
4676.3914856631873
 30
0.0749999999625
  0
SEQEND
  5
A8A
  8
LOTS
  0
POLYLINE
  5
349
  8
LOTS
 66
     1
 10
0.0
 20
0.0
 30
0.099999999
 70
     1
1001
DCO15
1071
        2
1071
        2
1000
collections
1004
0730304130383700
1001
ADE
1011
-0.0299887738580083
1021
0.0
1031
0.0
1021
-0.0221080636183615
1031
0.0
  0
VERTEX
  5
A8B
  8
LOTS
 10
637.20571318566795
 20
4679.0388811918629
 30
0.099999999
  0
VERTEX
  5
A8C
  8
LOTS
 10
637.14567076391586
 20
4679.0359197685902
 30
0.099999999
  0
VERTEX
  5
A8D
  8
LOTS
 10
637.08718434621176
 20
4679.0417360138854
 30
0.099999999
  0
VERTEX
  5
A8E
  8
LOTS
 10
637.02348250066689
 20
4679.0579395570112
 30
0.099999999
  0
VERTEX
  5
A8F
  8
LOTS
 10
636.96803017007085
 20
4679.0903164411502
 30
0.099999999
  0
VERTEX
  5
A90
  8
LOTS
 10
636.93276868752412
 20
4679.1265429541963
 30
0.099999999
  0
VERTEX
  5
A91
  8
LOTS
 10
636.924879224596
 20
4679.1679505319471
 30
0.099999999
  0
VERTEX
  5
A92
  8
LOTS
 10
636.94410788358255
 20
4679.193587505898
 30
0.099999999
  0
VERTEX
  5
A93
  8
LOTS
 10
637.00647829333127
 20
4679.1845651343419
 30
0.099999999
  0
VERTEX
  5
A94
  8
LOTS
 10
637.07555337747465
 20
4679.166280498458
 30
0.099999999
  0
VERTEX
  5
A95
  8
LOTS
 10
637.14385954257398
 20
4679.154432410869
 30
0.099999999
  0
VERTEX
  5
A96
  8
LOTS
 10
637.19432407848387
 20
4679.1340767495967
 30
0.099999999
  0
VERTEX
  5
A97
  8
LOTS
 10
637.21775147837207
 20
4679.1061614753089
 30
0.099999999
  0
VERTEX
  5
A98
  8
LOTS
 10
637.2207067718349
 20
4679.0747688837519
 30
0.099999999
  0
SEQEND
  5
A99
  8
LOTS
  0
POLYLINE
  5
359
  8
LOTS
 66
     1
 10
0.0
 20
0.0
 30
0.1136363635847107
 70
     1
1001
DCO15
1071
        2
1071
        2
1000
collections
1004
0730314232383500
1001
ADE
1011
-0.0044311540938224
1021
0.0
1031
0.0
1021
0.0026768624502438
1031
0.0
  0
VERTEX
  5
A9A
  8
LOTS
 10
639.06875617960725
 20
4687.1870497762047
 30
0.1136363635847107
  0
VERTEX
  5
A9B
  8
LOTS
 10
639.08070929669918
 20
4687.1659614121754
 30
0.1136363635847107
  0
VERTEX
  5
A9C
  8
LOTS
 10
639.11244863446609
 20
4687.1575714513301
 30
0.1136363635847107
  0
VERTEX
  5
A9D
  8
LOTS
 10
639.16456131555299
 20
4687.1480122228886
 30
0.1136363635847107
  0
VERTEX
  5
A9E
  8
LOTS
 10
639.13447077995465
 20
4687.2203149292309
 30
0.1136363635847107
  0
VERTEX
  5
A9F
  8
LOTS
 10
639.09746227146945
 20
4687.2091878724568
 30
0.1136363635847107
  0
VERTEX
  5
AA0
  8
LOTS
 10
639.08749260152285
 20
4687.1942687436867
 30
0.1136363635847107
  0
SEQEND
  5
AA1
  8
LOTS
  0
POLYLINE
  5
362
  8
LOTS
 66
     1
 10
0.0
 20
0.0
 30
0.0833333331944445
 70
     1
1001
DCO15
1071
        2
1071
        2
1000
collections
1004
0730314232383900
1001
ADE
1011
-0.0018136025421427
1021
0.0
1031
0.0
1021
-0.0088735769613777
1031
0.0
  0
VERTEX
  5
AA2
  8
LOTS
 10
639.22372650451746
 20
4687.1847278998639
 30
0.0833333331944445
  0
VERTEX
  5
AA3
  8
LOTS
 10
639.17093072733508
 20
4687.1533082739898
 30
0.0833333331944445
  0
VERTEX
  5
AA4
  8
LOTS
 10
639.21744450388417
 20
4687.1299049366926
 30
0.0833333331944445
  0
VERTEX
  5
AA5
  8
LOTS
 10
639.23853286791359
 20
4687.1418580537838
 30
0.0833333331944445
  0
VERTEX
  5
AA6
  8
LOTS
 10
639.25196653526575
 20
4687.1734527015633
 30
0.0833333331944445
  0
SEQEND
  5
AA7
  8
LOTS
  0
POLYLINE
  5
369
  8
LOTS
 66
     1
 10
0.0
 20
0.0
 30
0.1041666666232639
 70
     1
1001
DCO15
1071
        2
1071
        2
1000
collections
1004
0730314132363600
1001
ADE
1011
-0.0529646196611111
1021
0.0
1031
0.0
1021
0.0218206707186255
1031
0.0
  0
VERTEX
  5
AA8
  8
LOTS
 10
648.37898500970311
 20
4689.3736699130259
 30
0.1041666666232639
  0
VERTEX
  5
AA9
  8
LOTS
 10
648.39715145218042
 20
4689.3996678343374
 30
0.1041666666232639
  0
VERTEX
  5
AAA
  8
LOTS
 10
648.41117295968115
 20
4689.4300998707013
 30
0.1041666666232639
  0
VERTEX
  5
AAB
  8
LOTS
 10
648.39479800134166
 20
4689.4644819441128
 30
0.1041666666232639
  0
VERTEX
  5
AAC
  8
LOTS
 10
648.36762483451355
 20
4689.4739304282939
 30
0.1041666666232639
  0
VERTEX
  5
AAD
  8
LOTS
 10
648.33906447893003
 20
4689.4939647637038
 30
0.1041666666232639
  0
VERTEX
  5
AAE
  8
LOTS
 10
648.31464716439916
 20
4689.507839787243
 30
0.1041666666232639
  0
VERTEX
  5
AAF
  8
LOTS
 10
648.2887090205943
 20
4689.4955121079056
 30
0.1041666666232639
  0
VERTEX
  5
AB0
  8
LOTS
 10
648.26405093995322
 20
4689.4599627786902
 30
0.1041666666232639
  0
VERTEX
  5
AB1
  8
LOTS
 10
648.26024928078903
 20
4689.4373062315026
 30
0.1041666666232639
  0
VERTEX
  5
AB2
  8
LOTS
 10
648.27094184358828
 20
4689.4084790089018
 30
0.1041666666232639
  0
VERTEX
  5
AB3
  8
LOTS
 10
648.28828010420716
 20
4689.4021187033113
 30
0.1041666666232639
  0
VERTEX
  5
AB4
  8
LOTS
 10
648.31204223576867
 20
4689.3860529301637
 30
0.1041666666232639
  0
VERTEX
  5
AB5
  8
LOTS
 10
648.33440013326435
 20
4689.365046236876
 30
0.1041666666232639
  0
VERTEX
  5
AB6
  8
LOTS
 10
648.36601877868566
 20
4689.3700938685852
 30
0.1041666666232639
  0
SEQEND
  5
AB7
  8
LOTS
  0
POLYLINE
  5
37A
  8
LOTS
 66
     1
 10
0.0
 20
0.0
 30
0.0749999998125
 70
     1
1001
DCO15
1071
        2
1071
        2
1000
collections
1004
0739394230323600
1001
ADE
1011
-0.0208877386992299
1021
0.0
1031
0.0
1021
0.0200937086374324
1031
0.0
  0
VERTEX
  5
AB8
  8
LOTS
 10
648.26944464543919
 20
4671.9343933094651
 30
0.0749999998125
  0
VERTEX
  5
AB9
  8
LOTS
 10
648.28629657470651
 20
4671.950212947374
 30
0.0749999998125
  0
VERTEX
  5
ABA
  8
LOTS
 10
648.30016047152185
 20
4671.962110188334
 30
0.0749999998125
  0
VERTEX
  5
ABB
  8
LOTS
 10
648.31290475285618
 20
4671.967925951999
 30
0.0749999998125
  0
VERTEX
  5
ABC
  8
LOTS
 10
648.34087985982308
 20
4671.9973811977243
 30
0.0749999998125
  0
VERTEX
  5
ABD
  8
LOTS
 10
648.34133082443293
 20
4672.0219977702691
 30
0.0749999998125
  0
VERTEX
  5
ABE
  8
LOTS
 10
648.33297175548671
 20
4672.0573355193364
 30
0.0749999998125
  0
VERTEX
  5
ABF
  8
LOTS
 10
648.3322719174289
 20
4672.0853670752604
 30
0.0749999998125
  0
VERTEX
  5
AC0
  8
LOTS
 10
648.31539441436746
 20
4672.1004681628001
 30
0.0749999998125
  0
VERTEX
  5
AC1
  8
LOTS
 10
648.30819300957126
 20
4672.107168079443
 30
0.0749999998125
  0
VERTEX
  5
AC2
  8
LOTS
 10
648.30131345533584
 20
4672.1083990327279
 30
0.0749999998125
  0
VERTEX
  5
AC3
  8
LOTS
 10
648.29379051200078
 20
4672.1089061342736
 30
0.0749999998125
  0
VERTEX
  5
AC4
  8
LOTS
 10
648.27687028294565
 20
4672.1023169313894
 30
0.0749999998125
  0
VERTEX
  5
AC5
  8
LOTS
 10
648.26716985897633
 20
4672.0949917139142
 30
0.0749999998125
  0
VERTEX
  5
AC6
  8
LOTS
 10
648.24238051032069
 20
4672.0786521875643
 30
0.0749999998125
  0
VERTEX
  5
AC7
  8
LOTS
 10
648.23373795150439
 20
4672.073077811815
 30
0.0749999998125
  0
VERTEX
  5
AC8
  8
LOTS
 10
648.22073388195975
 20
4672.0653998686166
 30
0.0749999998125
  0
VERTEX
  5
AC9
  8
LOTS
 10
648.21720756077593
 20
4672.063450989006
 30
0.0749999998125
  0
VERTEX
  5
ACA
  8
LOTS
 10
648.22622810708867
 20
4672.046462772184
 30
0.0749999998125
  0
SEQEND
  5
ACB
  8
LOTS
  0
POLYLINE
  5
38F
  8
LOTS
 66
     1
 10
0.0
 20
0.0
 30
0.0999999995
 70
     1
1001
DCO15
1071
        2
1071
        2
1000
collections
1004
0730304330373500
1001
ADE
1011
-0.0217842701516702
1021
0.0
1031
0.0
1021
-0.0109547249567186
1031
0.0
  0
VERTEX
  5
ACC
  8
LOTS
 10
647.10342566186443
 20
4681.863585855459
 30
0.0999999995
  0
VERTEX
  5
ACD
  8
LOTS
 10
647.08496922052393
 20
4681.8368076259922
 30
0.0999999995
  0
VERTEX
  5
ACE
  8
LOTS
 10
647.07141322302812
 20
4681.7987086482572
 30
0.0999999995
  0
VERTEX
  5
ACF
  8
LOTS
 10
647.0747877805336
 20
4681.7645275920604
 30
0.0999999995
  0
VERTEX
  5
AD0
  8
LOTS
 10
647.09038715754559
 20
4681.7529849614366
 30
0.0999999995
  0
VERTEX
  5
AD1
  8
LOTS
 10
647.11262116009505
 20
4681.7620312349409
 30
0.0999999995
  0
VERTEX
  5
AD2
  8
LOTS
 10
647.14243911071662
 20
4681.7986586743536
 30
0.0999999995
  0
VERTEX
  5
AD3
  8
LOTS
 10
647.15922032482786
 20
4681.8331641670238
 30
0.0999999995
  0
VERTEX
  5
AD4
  8
LOTS
 10
647.14080476066545
 20
4681.8600677504983
 30
0.0999999995
  0
VERTEX
  5
AD5
  8
LOTS
 10
647.11620885172579
 20
4681.8674041776821
 30
0.0999999995
  0
SEQEND
  5
AD6
  8
LOTS
  0
POLYLINE
  5
39B
  8
LOTS
 66
     1
 10
0.0
 20
0.0
 30
0.03749999998125
 70
     1
1001
DCO15
1071
        2
1071
        2
1000
collections
1004
0739394130333200
1001
ADE
1011
-0.027558881504774
1021
0.0
1031
0.0
1021
-0.019722499974705
1031
0.0
  0
VERTEX
  5
AD7
  8
LOTS
 10
653.3234971752571
 20
4678.0029392266224
 30
0.03749999998125
  0
VERTEX
  5
AD8
  8
LOTS
 10
653.31936264463297
 20
4678.0020876071112
 30
0.03749999998125
  0
VERTEX
  5
AD9
  8
LOTS
 10
653.31281856181852
 20
4677.9968776281839
 30
0.03749999998125
  0
VERTEX
  5
ADA
  8
LOTS
 10
653.30344727158092
 20
4677.9831075178699
 30
0.03749999998125
  0
VERTEX
  5
ADB
  8
LOTS
 10
653.29097706566529
 20
4677.9678000283011
 30
0.03749999998125
  0
VERTEX
  5
ADC
  8
LOTS
 10
653.27995160711896
 20
4677.964264711125
 30
0.03749999998125
  0
VERTEX
  5
ADD
  8
LOTS
 10
653.26871453346916
 20
4677.9656437881604
 30
0.03749999998125
  0
VERTEX
  5
ADE
  8
LOTS
 10
653.26084736009591
 20
4677.9701398201951
 30
0.03749999998125
  0
VERTEX
  5
ADF
  8
LOTS
 10
653.24878816619776
 20
4677.9803103233262
 30
0.03749999998125
  0
VERTEX
  5
AE0
  8
LOTS
 10
653.24637048577893
 20
4677.9849523001303
 30
0.03749999998125
  0
VERTEX
  5
AE1
  8
LOTS
 10
653.29450000080556
 20
4678.035266036647
 30
0.03749999998125
  0
VERTEX
  5
AE2
  8
LOTS
 10
653.31817115401361
 20
4678.0090497993242
 30
0.03749999998125
  0
SEQEND
  5
AE3
  8
LOTS
  0
POLYLINE
  5
3A9
  8
LOTS
 66
     1
 10
0.0
 20
0.0
 30
0.0285714285306123
 70
     1
1001
DCO15
1071
        2
1071
        2
1000
collections
1004
0739394130343000
1001
ADE
1011
-0.0268759213342946
1021
0.0
1031
0.0
1021
-0.012185094112283
1031
0.0
  0
VERTEX
  5
AE4
  8
LOTS
 10
653.53380741961905
 20
4678.3238578906003
 30
0.0285714285306123
  0
VERTEX
  5
AE5
  8
LOTS
 10
653.5331487597025
 20
4678.3234500805956
 30
0.0285714285306123
  0
VERTEX
  5
AE6
  8
LOTS
 10
653.51677231370411
 20
4678.3205714667711
 30
0.0285714285306123
  0
VERTEX
  5
AE7
  8
LOTS
 10
653.50456841609935
 20
4678.3207113024446
 30
0.0285714285306123
  0
VERTEX
  5
AE8
  8
LOTS
 10
653.49175401334901
 20
4678.324728170006
 30
0.0285714285306123
  0
VERTEX
  5
AE9
  8
LOTS
 10
653.4814788956221
 20
4678.3295197185471
 30
0.0285714285306123
  0
VERTEX
  5
AEA
  8
LOTS
 10
653.46986603103176
 20
4678.334475442929
 30
0.0285714285306123
  0
VERTEX
  5
AEB
  8
LOTS
 10
653.46533105473407
 20
4678.3439941107417
 30
0.0285714285306123
  0
VERTEX
  5
AEC
  8
LOTS
 10
653.46429245134971
 20
4678.3598731611974
 30
0.0285714285306123
  0
VERTEX
  5
AED
  8
LOTS
 10
653.46601448415731
 20
4678.3672660381271
 30
0.0285714285306123
  0
VERTEX
  5
AEE
  8
LOTS
 10
653.47310573548623
 20
4678.3807894515248
 30
0.0285714285306123
  0
VERTEX
  5
AEF
  8
LOTS
 10
653.48390134786007
 20
4678.3824519230902
 30
0.0285714285306123
  0
VERTEX
  5
AF0
  8
LOTS
 10
653.49422266379122
 20
4678.3868883938867
 30
0.0285714285306123
  0
VERTEX
  5
AF1
  8
LOTS
 10
653.50963715386717
 20
4678.3863545362001
 30
0.0285714285306123
  0
VERTEX
  5
AF2
  8
LOTS
 10
653.52145189749479
 20
4678.3808308779098
 30
0.0285714285306123
  0
VERTEX
  5
AF3
  8
LOTS
 10
653.53156770741703
 20
4678.3725283523536
 30
0.0285714285306123
  0
VERTEX
  5
AF4
  8
LOTS
 10
653.53716801317216
 20
4678.365051574021
 30
0.0285714285306123
  0
VERTEX
  5
AF5
  8
LOTS
 10
653.54147801133036
 20
4678.3514868304492
 30
0.0285714285306123
  0
VERTEX
  5
AF6
  8
LOTS
 10
653.5423329667467
 20
4678.3429629537277
 30
0.0285714285306123
  0
VERTEX
  5
AF7
  8
LOTS
 10
653.5421408237745
 20
4678.3391844273419
 30
0.0285714285306123
  0
VERTEX
  5
AF8
  8
LOTS
 10
653.53439393919211
 20
4678.3237709760488
 30
0.0285714285306123
  0
SEQEND
  5
AF9
  8
LOTS
  0
POLYLINE
  5
3C0
  8
LOTS
 66
     1
 10
0.0
 20
0.0
 30
0.0555555554938272
 70
     1
1001
DCO15
1071
        1
1071
        1
1000
collections
1004
0730374330323300
1001
ADE
1011
0.0053723106354937
1021
0.0
1031
0.0
1021
-0.0046988813146527
1031
0.0
  0
VERTEX
  5
AFA
  8
LOTS
 10
657.10308552297465
 20
4693.3324337962449
 30
0.0555555554938272
  0
VERTEX
  5
AFB
  8
LOTS
 10
657.11785927590245
 20
4693.3458590284554
 30
0.0555555554938272
  0
VERTEX
  5
AFC
  8
LOTS
 10
657.12591770132792
 20
4693.3512291213383
 30
0.0555555554938272
  0
VERTEX
  5
AFD
  8
LOTS
 10
657.13800542052138
 20
4693.3539141677784
 30
0.0555555554938272
  0
VERTEX
  5
AFE
  8
LOTS
 10
657.15949450095161
 20
4693.3498865981173
 30
0.0555555554938272
  0
VERTEX
  5
AFF
  8
LOTS
 10
657.17292531806845
 20
4693.3378038891296
 30
0.0555555554938272
  0
VERTEX
  5
B00
  8
LOTS
 10
657.1809837434937
 20
4693.3310912730258
 30
0.0555555554938272
  0
VERTEX
  5
B01
  8
LOTS
 10
657.15680846721796
 20
4693.29887081581
 30
0.0555555554938272
  0
SEQEND
  5
B02
  8
LOTS
  0
POLYLINE
  5
3CA
  8
LOTS
 66
     1
 10
0.0
 20
0.0
 30
0.1363636362396694
 70
     1
1001
DCO15
1071
        2
1071
        2
1000
collections
1004
0739394130303800
1001
ADE
1011
-0.0134668720687614
1021
0.0
1031
0.0
1021
-0.0092731682279918
1031
0.0
  0
VERTEX
  5
B03
  8
LOTS
 10
652.62777710030446
 20
4677.3316073312144
 30
0.1363636362396694
  0
VERTEX
  5
B04
  8
LOTS
 10
652.62566495824206
 20
4677.3052258623911
 30
0.1363636362396694
  0
VERTEX
  5
B05
  8
LOTS
 10
652.66019484688775
 20
4677.3055689007024
 30
0.1363636362396694
  0
VERTEX
  5
B06
  8
LOTS
 10
652.68204325801901
 20
4677.3083226590406
 30
0.1363636362396694
  0
VERTEX
  5
B07
  8
LOTS
 10
652.69544588900135
 20
4677.3163916774674
 30
0.1363636362396694
  0
VERTEX
  5
B08
  8
LOTS
 10
652.70561511581025
 20
4677.3319940306737
 30
0.1363636362396694
  0
VERTEX
  5
B09
  8
LOTS
 10
652.70203972462889
 20
4677.3482634454604
 30
0.1363636362396694
  0
VERTEX
  5
B0A
  8
LOTS
 10
652.68680399179266
 20
4677.3553929647296
 30
0.1363636362396694
  0
VERTEX
  5
B0B
  8
LOTS
 10
652.667019084098
 20
4677.3555924520624
 30
0.1363636362396694
  0
VERTEX
  5
B0C
  8
LOTS
 10
652.64264587617117
 20
4677.3485962409586
 30
0.1363636362396694
  0
SEQEND
  5
B0D
  8
LOTS
  0
POLYLINE
  5
3D6
  8
LOTS
 66
     1
 10
0.0
 20
0.0
 30
0.062499999921875
 70
     1
1001
DCO15
1071
        2
1071
        2
1000
collections
1004
0739394530393600
1001
ADE
1011
-0.0538428017669048
1021
0.0
1031
0.0
1021
0.0250508473618538
1031
0.0
  0
VERTEX
  5
B0E
  8
LOTS
 10
654.31495936140595
 20
4671.9339733884408
 30
0.062499999921875
  0
VERTEX
  5
B0F
  8
LOTS
 10
654.31469654024761
 20
4671.9285734694176
 30
0.062499999921875
  0
VERTEX
  5
B10
  8
LOTS
 10
654.31591367054864
 20
4671.9216838077909
 30
0.062499999921875
  0
VERTEX
  5
B11
  8
LOTS
 10
654.31792368234414
 20
4671.9129673652433
 30
0.062499999921875
  0
VERTEX
  5
B12
  8
LOTS
 10
654.32102684903475
 20
4671.9059596763746
 30
0.062499999921875
  0
VERTEX
  5
B13
  8
LOTS
 10
654.32667641278329
 20
4671.8953757032205
 30
0.062499999921875
  0
VERTEX
  5
B14
  8
LOTS
 10
654.33329855878253
 20
4671.8841020241707
 30
0.062499999921875
  0
VERTEX
  5
B15
  8
LOTS
 10
654.34537066239079
 20
4671.867940331611
 30
0.062499999921875
  0
VERTEX
  5
B16
  8
LOTS
 10
654.3577256423581
 20
4671.8501163509054
 30
0.062499999921875
  0
VERTEX
  5
B17
  8
LOTS
 10
654.36884645734756
 20
4671.8365294564665
 30
0.062499999921875
  0
VERTEX
  5
B18
  8
LOTS
 10
654.3799052957512
 20
4671.8207939827562
 30
0.062499999921875
  0
VERTEX
  5
B19
  8
LOTS
 10
654.38869541033955
 20
4671.8078367219332
 30
0.062499999921875
  0
VERTEX
  5
B1A
  8
LOTS
 10
654.40105610324565
 20
4671.8005328334848
 30
0.062499999921875
  0
VERTEX
  5
B1B
  8
LOTS
 10
654.41240733957329
 20
4671.8006685587252
 30
0.062499999921875
  0
VERTEX
  5
B1C
  8
LOTS
 10
654.43831614828014
 20
4671.8077286956459
 30
0.062499999921875
  0
VERTEX
  5
B1D
  8
LOTS
 10
654.44545349629016
 20
4671.8120220455558
 30
0.062499999921875
  0
VERTEX
  5
B1E
  8
LOTS
 10
654.45243001680012
 20
4671.8187681447289
 30
0.062499999921875
  0
VERTEX
  5
B1F
  8
LOTS
 10
654.4584959316453
 20
4671.8283525290608
 30
0.062499999921875
  0
VERTEX
  5
B20
  8
LOTS
 10
654.46306609878604
 20
4671.8457213800293
 30
0.062499999921875
  0
VERTEX
  5
B21
  8
LOTS
 10
654.46374974554806
 20
4671.8728624493997
 30
0.062499999921875
  0
VERTEX
  5
B22
  8
LOTS
 10
654.46454401529195
 20
4671.879753795376
 30
0.062499999921875
  0
VERTEX
  5
B23
  8
LOTS
 10
654.46508051093531
 20
4671.8972059165662
 30
0.062499999921875
  0
VERTEX
  5
B24
  8
LOTS
 10
654.46271484051942
 20
4671.9080921553987
 30
0.062499999921875
  0
VERTEX
  5
B25
  8
LOTS
 10
654.45471518704949
 20
4671.9209273673641
 30
0.062499999921875
  0
VERTEX
  5
B26
  8
LOTS
 10
654.44752347970473
 20
4671.9285122278598
 30
0.062499999921875
  0
VERTEX
  5
B27
  8
LOTS
 10
654.42940675488489
 20
4671.9369746283191
 30
0.062499999921875
  0
VERTEX
  5
B28
  8
LOTS
 10
654.41497694430393
 20
4671.9413607700117
 30
0.062499999921875
  0
VERTEX
  5
B29
  8
LOTS
 10
654.39436678726975
 20
4671.9493988559298
 30
0.062499999921875
  0
VERTEX
  5
B2A
  8
LOTS
 10
654.38845139150305
 20
4671.9531419727518
 30
0.062499999921875
  0
VERTEX
  5
B2B
  8
LOTS
 10
654.38197785776981
 20
4671.9572274958082
 30
0.062499999921875
  0
SEQEND
  5
B2C
  8
LOTS
  0
POLYLINE
  5
3F6
  8
LOTS
 66
     1
 10
0.0
 20
0.0
 30
0.2499999997222222
 70
     1
1001
DCO15
1071
        2
1071
        2
1000
collections
1004
0739394230323900
1001
ADE
1011
-0.0597784949205789
1021
0.0
1031
0.0
1021
0.020198453363264
1031
0.0
  0
VERTEX
  5
B2D
  8
LOTS
 10
649.44306151195997
 20
4670.9174144260032
 30
0.2499999997222222
  0
VERTEX
  5
B2E
  8
LOTS
 10
649.44319695241961
 20
4670.9093875995459
 30
0.2499999997222222
  0
VERTEX
  5
B2F
  8
LOTS
 10
649.44845578593902
 20
4670.8907462204052
 30
0.2499999997222222
  0
VERTEX
  5
B30
  8
LOTS
 10
649.45088760060867
 20
4670.8643485977218
 30
0.2499999997222222
  0
VERTEX
  5
B31
  8
LOTS
 10
649.44585655034712
 20
4670.8414464857651
 30
0.2499999997222222
  0
VERTEX
  5
B32
  8
LOTS
 10
649.43411755863747
 20
4670.8191029961999
 30
0.2499999997222222
  0
VERTEX
  5
B33
  8
LOTS
 10
649.47365846991738
 20
4670.80718738216
 30
0.2499999997222222
  0
VERTEX
  5
B34
  8
LOTS
 10
649.49784356744726
 20
4670.7950836935406
 30
0.2499999997222222
  0
VERTEX
  5
B35
  8
LOTS
 10
649.4967256085979
 20
4670.8191029961999
 30
0.2499999997222222
  0
VERTEX
  5
B36
  8
LOTS
 10
649.50734664145818
 20
4670.8447980037899
 30
0.2499999997222222
  0
VERTEX
  5
B37
  8
LOTS
 10
649.52132164504224
 20
4670.8615556480072
 30
0.2499999997222222
  0
VERTEX
  5
B38
  8
LOTS
 10
649.52747065415326
 20
4670.8649071660329
 30
0.2499999997222222
  0
VERTEX
  5
B39
  8
LOTS
 10
649.53194258372685
 20
4670.8660243567392
 30
0.2499999997222222
  0
VERTEX
  5
B3A
  8
LOTS
 10
649.55161171676491
 20
4670.866001177551
 30
0.2499999997222222
  0
VERTEX
  5
B3B
  8
LOTS
 10
649.5610106439201
 20
4670.8649071660329
 30
0.2499999997222222
  0
VERTEX
  5
B3C
  8
LOTS
 10
649.57486650941905
 20
4670.8790245352729
 30
0.2499999997222222
  0
VERTEX
  5
B3D
  8
LOTS
 10
649.58728366572643
 20
4670.8945123140447
 30
0.2499999997222222
  0
VERTEX
  5
B3E
  8
LOTS
 10
649.60059518620164
 20
4670.9039099524234
 30
0.2499999997222222
  0
VERTEX
  5
B3F
  8
LOTS
 10
649.57220412835261
 20
4670.9065265801346
 30
0.2499999997222222
  0
VERTEX
  5
B40
  8
LOTS
 10
649.54120575858724
 20
4670.9040821870594
 30
0.2499999997222222
  0
VERTEX
  5
B41
  8
LOTS
 10
649.50822223431976
 20
4670.9048998417002
 30
0.2499999997222222
  0
VERTEX
  5
B42
  8
LOTS
 10
649.4905226218109
 20
4670.9024934567451
 30
0.2499999997222222
  0
VERTEX
  5
B43
  8
LOTS
 10
649.47260967920954
 20
4670.9082557654183
 30
0.2499999997222222
  0
SEQEND
  5
B44
  8
LOTS
  0
POLYLINE
  5
40F
  8
LOTS
 66
     1
 10
0.0
 20
0.0
 30
0.1923076922337278
 70
     1
1001
DCO15
1071
        2
1071
        2
1000
collections
1004
0730314233363500
1001
ADE
1011
-0.0001486359180944
1021
0.0
1031
0.0
1021
-0.021739542828982
1031
0.0
  0
VERTEX
  5
B45
  8
LOTS
 10
638.72171163920291
 20
4690.9853164653596
 30
0.1923076922337278
  0
VERTEX
  5
B46
  8
LOTS
 10
638.74250378771671
 20
4690.895035190023
 30
0.1923076922337278
  0
VERTEX
  5
B47
  8
LOTS
 10
638.82858584215455
 20
4690.886994956697
 30
0.1923076922337278
  0
VERTEX
  5
B48
  8
LOTS
 10
638.77050621962871
 20
4690.9704336585801
 30
0.1923076922337278
  0
SEQEND
  5
B49
  8
LOTS
  0
POLYLINE
  5
415
  8
LOTS
 66
     1
 10
0.0
 20
0.0
 30
0.1999999998
 70
     1
1001
DCO15
1071
        2
1071
        2
1000
collections
1004
0730304330333100
1001
ADE
1011
-0.0215051788836718
1021
0.0
1031
0.0
1021
-0.0135343190431741
1031
0.0
  0
VERTEX
  5
B4A
  8
LOTS
 10
643.29193396433595
 20
4675.4915173772733
 30
0.1999999998
  0
VERTEX
  5
B4B
  8
LOTS
 10
643.29539181996211
 20
4675.459704557813
 30
0.1999999998
  0
VERTEX
  5
B4C
  8
LOTS
 10
643.27884186030315
 20
4675.4343923974548
 30
0.1999999998
  0
VERTEX
  5
B4D
  8
LOTS
 10
643.25454028082925
 20
4675.4208379318916
 30
0.1999999998
  0
VERTEX
  5
B4E
  8
LOTS
 10
643.21936389594805
 20
4675.4149682835587
 30
0.1999999998
  0
VERTEX
  5
B4F
  8
LOTS
 10
643.18608130989355
 20
4675.4330690490406
 30
0.1999999998
  0
VERTEX
  5
B50
  8
LOTS
 10
643.1946865792886
 20
4675.4740068839619
 30
0.1999999998
  0
VERTEX
  5
B51
  8
LOTS
 10
643.20618440104886
 20
4675.5082589837484
 30
0.1999999998
  0
VERTEX
  5
B52
  8
LOTS
 10
643.23035796047088
 20
4675.5287159095878
 30
0.1999999998
  0
VERTEX
  5
B53
  8
LOTS
 10
643.25324858151885
 20
4675.5279492129084
 30
0.1999999998
  0
VERTEX
  5
B54
  8
LOTS
 10
643.28372732029516
 20
4675.5206721105251
 30
0.1999999998
  0
SEQEND
  5
B55
  8
LOTS
  0
POLYLINE
  5
422
  8
LOTS
 66
     1
 10
0.0
 20
0.0
 30
0.214285714132653
 70
     1
1001
DCO15
1071
        2
1071
        2
1000
collections
1004
0730314431313700
1001
ADE
1011
-0.0150801578098481
1021
0.0
1031
0.0
1021
-0.0073355043505217
1031
0.0
  0
VERTEX
  5
B56
  8
LOTS
 10
646.46190509851795
 20
4689.6185612605514
 30
0.214285714132653
  0
VERTEX
  5
B57
  8
LOTS
 10
646.39351305037746
 20
4689.6274488439121
 30
0.214285714132653
  0
VERTEX
  5
B58
  8
LOTS
 10
646.38451159377507
 20
4689.6252206298559
 30
0.214285714132653
  0
VERTEX
  5
B59
  8
LOTS
 10
646.37996088351395
 20
4689.5998139121393
 30
0.214285714132653
  0
VERTEX
  5
B5A
  8
LOTS
 10
646.39338657153041
 20
4689.5547108670762
 30
0.214285714132653
  0
VERTEX
  5
B5B
  8
LOTS
 10
646.41651435328015
 20
4689.5554315093214
 30
0.214285714132653
  0
VERTEX
  5
B5C
  8
LOTS
 10
646.45167347261895
 20
4689.5575843804609
 30
0.214285714132653
  0
VERTEX
  5
B5D
  8
LOTS
 10
646.45770334583915
 20
4689.571239471049
 30
0.214285714132653
  0
VERTEX
  5
B5E
  8
LOTS
 10
646.4645462495306
 20
4689.6034512139859
 30
0.214285714132653
  0
SEQEND
  5
B5F
  8
LOTS
  0
POLYLINE
  5
42D
  8
LOTS
 66
     1
 10
0.0
 20
0.0
 30
0.2499999997916666
 70
     1
1001
DCO15
1071
        2
1071
        2
1000
collections
1004
0730314233363400
1001
ADE
1011
-0.0505423372803762
1021
0.0
1031
0.0
1021
0.0290094590627632
1031
0.0
  0
VERTEX
  5
B60
  8
LOTS
 10
638.87763685237906
 20
4690.8347354848902
 30
0.2499999997916666
  0
VERTEX
  5
B61
  8
LOTS
 10
638.80200338534326
 20
4690.7737475463782
 30
0.2499999997916666
  0
VERTEX
  5
B62
  8
LOTS
 10
638.76959465146172
 20
4690.8127610720894
 30
0.2499999997916666
  0
VERTEX
  5
B63
  8
LOTS
 10
638.74334801635575
 20
4690.8390231735902
 30
0.2499999997916666
  0
VERTEX
  5
B64
  8
LOTS
 10
638.71053942555216
 20
4690.864620034572
 30
0.2499999997916666
  0
VERTEX
  5
B65
  8
LOTS
 10
638.74402872327119
 20
4690.8849699545008
 30
0.2499999997916666
  0
VERTEX
  5
B66
  8
LOTS
 10
638.82842304364362
 20
4690.8769111561969
 30
0.2499999997916666
  0
SEQEND
  5
B67
  8
LOTS
  0
POLYLINE
  5
436
  8
LOTS
 66
     1
 10
0.0
 20
0.0
 30
0.249999999875
 70
     1
1001
DCO15
1071
        2
1071
        2
1000
collections
1004
0730304530343000
1001
ADE
1011
-0.0528049787063765
1021
0.0
1031
0.0
1021
0.0000433825389337
1031
0.0
  0
VERTEX
  5
B68
  8
LOTS
 10
639.67131189669635
 20
4678.5701592081678
 30
0.249999999875
  0
VERTEX
  5
B69
  8
LOTS
 10
639.63407501871052
 20
4678.5681427083246
 30
0.249999999875
  0
VERTEX
  5
B6A
  8
LOTS
 10
639.59453216733039
 20
4678.5880090439023
 30
0.249999999875
  0
VERTEX
  5
B6B
  8
LOTS
 10
639.56805558017516
 20
4678.6128019973858
 30
0.249999999875
  0
VERTEX
  5
B6C
  8
LOTS
 10
639.54536480401521
 20
4678.6512118823739
 30
0.249999999875
  0
VERTEX
  5
B6D
  8
LOTS
 10
639.55048375570516
 20
4678.688683080507
 30
0.249999999875
  0
VERTEX
  5
B6E
  8
LOTS
 10
639.57418489116367
 20
4678.7161820574984
 30
0.249999999875
  0
VERTEX
  5
B6F
  8
LOTS
 10
639.62459609592383
 20
4678.727890821463
 30
0.249999999875
  0
VERTEX
  5
B70
  8
LOTS
 10
639.67802323704609
 20
4678.7283225034098
 30
0.249999999875
  0
SEQEND
  5
B71
  8
LOTS
  0
POLYLINE
  5
441
  8
LOTS
 66
     1
 10
0.0
 20
0.0
 30
0.2499999997916666
 70
     1
1001
DCO15
1071
        2
1071
        2
1000
collections
1004
0730304430323500
1001
ADE
1011
-0.0718425791721984
1021
0.0
1031
0.0
1021
0.0229366349649354
1031
0.0
  0
VERTEX
  5
B72
  8
LOTS
 10
639.87604383935525
 20
4676.1406001260038
 30
0.2499999997916666
  0
VERTEX
  5
B73
  8
LOTS
 10
639.85518172576235
 20
4676.1673890743032
 30
0.2499999997916666
  0
VERTEX
  5
B74
  8
LOTS
 10
639.83789518037281
 20
4676.1935331306049
 30
0.2499999997916666
  0
VERTEX
  5
B75
  8
LOTS
 10
639.80887710812692
 20
4676.2255063150778
 30
0.2499999997916666
  0
VERTEX
  5
B76
  8
LOTS
 10
639.77990008215409
 20
4676.2483597649234
 30
0.2499999997916666
  0
VERTEX
  5
B77
  8
LOTS
 10
639.74936086053788
 20
4676.2427921962899
 30
0.2499999997916666
  0
VERTEX
  5
B78
  8
LOTS
 10
639.71239578906966
 20
4676.2130739376889
 30
0.2499999997916666
  0
VERTEX
  5
B79
  8
LOTS
 10
639.70031009010631
 20
4676.1730425010983
 30
0.2499999997916666
  0
VERTEX
  5
B7A
  8
LOTS
 10
639.71134888673612
 20
4676.1296512476902
 30
0.2499999997916666
  0
VERTEX
  5
B7B
  8
LOTS
 10
639.71790702952762
 20
4676.0946652944631
 30
0.2499999997916666
  0
VERTEX
  5
B7C
  8
LOTS
 10
639.74177105976321
 20
4676.0664172831121
 30
0.2499999997916666
  0
VERTEX
  5
B7D
  8
LOTS
 10
639.79713435952306
 20
4676.0702391289533
 30
0.2499999997916666
  0
VERTEX
  5
B7E
  8
LOTS
 10
639.83640319135282
 20
4676.0714366324682
 30
0.2499999997916666
  0
SEQEND
  5
B7F
  8
LOTS
  0
POLYLINE
  5
450
  8
LOTS
 66
     1
 10
0.0
 20
0.0
 30
0.24999999984375
 70
     1
1001
DCO15
1071
        2
1071
        2
1000
collections
1004
0730304330373600
1001
ADE
1011
-0.0052793142918972
1021
0.0
1031
0.0
1021
-0.0171646147209685
1031
0.0
  0
VERTEX
  5
B80
  8
LOTS
 10
647.0446633173907
 20
4681.9219051611144
 30
0.24999999984375
  0
VERTEX
  5
B81
  8
LOTS
 10
647.02327056579691
 20
4681.8954879321918
 30
0.24999999984375
  0
VERTEX
  5
B82
  8
LOTS
 10
647.01171569157032
 20
4681.8760929638902
 30
0.24999999984375
  0
VERTEX
  5
B83
  8
LOTS
 10
647.00176601645785
 20
4681.8428886906413
 30
0.24999999984375
  0
VERTEX
  5
B84
  8
LOTS
 10
647.02151703545644
 20
4681.8423011683071
 30
0.24999999984375
  0
VERTEX
  5
B85
  8
LOTS
 10
647.03682993894745
 20
4681.8596279942212
 30
0.24999999984375
  0
VERTEX
  5
B86
  8
LOTS
 10
647.05359712618645
 20
4681.8758607185773
 30
0.24999999984375
  0
VERTEX
  5
B87
  8
LOTS
 10
647.05461183198895
 20
4681.9054627830938
 30
0.24999999984375
  0
SEQEND
  5
B88
  8
LOTS
  0
POLYLINE
  5
45A
  8
LOTS
 66
     1
 10
0.0
 20
0.0
 30
0.1538461537278106
 70
     1
1001
DCO15
1071
        2
1071
        2
1000
collections
1004
0739394530393700
1001
ADE
1011
-0.0523092881712728
1021
0.0
1031
0.0
1021
0.0082136807959614
1031
0.0
  0
VERTEX
  5
B89
  8
LOTS
 10
654.44228418300656
 20
4671.9316928009384
 30
0.1538461537278106
  0
VERTEX
  5
B8A
  8
LOTS
 10
654.44739492205474
 20
4671.9296500664504
 30
0.1538461537278106
  0
VERTEX
  5
B8B
  8
LOTS
 10
654.45557206686203
 20
4671.92113846544
 30
0.1538461537278106
  0
VERTEX
  5
B8C
  8
LOTS
 10
654.46374911749524
 20
4671.908200894637
 30
0.1538461537278106
  0
VERTEX
  5
B8D
  8
LOTS
 10
654.46579345078408
 20
4671.897987005872
 30
0.1538461537278106
  0
VERTEX
  5
B8E
  8
LOTS
 10
654.46545272856918
 20
4671.8853899358865
 30
0.1538461537278106
  0
VERTEX
  5
B8F
  8
LOTS
 10
654.46511200635427
 20
4671.877559282425
 30
0.1538461537278106
  0
VERTEX
  5
B90
  8
LOTS
 10
654.47362987337647
 20
4671.877559282425
 30
0.1538461537278106
  0
VERTEX
  5
B91
  8
LOTS
 10
654.48759910748765
 20
4671.8782402299739
 30
0.1538461537278106
  0
VERTEX
  5
B92
  8
LOTS
 10
654.4988426580544
 20
4671.8789211234443
 30
0.1538461537278106
  0
VERTEX
  5
B93
  8
LOTS
 10
654.51110837526528
 20
4671.8833471473172
 30
0.1538461537278106
  0
VERTEX
  5
B94
  8
LOTS
 10
654.5226926480467
 20
4671.887092223641
 30
0.1538461537278106
  0
VERTEX
  5
B95
  8
LOTS
 10
654.54810783923313
 20
4671.9003026682058
 30
0.1538461537278106
  0
VERTEX
  5
B96
  8
LOTS
 10
654.55871501033437
 20
4671.9113440216051
 30
0.1538461537278106
  0
VERTEX
  5
B97
  8
LOTS
 10
654.56253349499718
 20
4671.9255917110531
 30
0.1538461537278106
  0
VERTEX
  5
B98
  8
LOTS
 10
654.56282398860844
 20
4671.937956212585
 30
0.1538461537278106
  0
VERTEX
  5
B99
  8
LOTS
 10
654.55899944481587
 20
4671.9498770102573
 30
0.1538461537278106
  0
VERTEX
  5
B9A
  8
LOTS
 10
654.5522552499566
 20
4671.9603602281859
 30
0.1538461537278106
  0
VERTEX
  5
B9B
  8
LOTS
 10
654.53642663827202
 20
4671.9644228105672
 30
0.1538461537278106
  0
VERTEX
  5
B9C
  8
LOTS
 10
654.52197553405767
 20
4671.9669238600336
 30
0.1538461537278106
  0
VERTEX
  5
B9D
  8
LOTS
 10
654.5023961272351
 20
4671.9694074244926
 30
0.1538461537278106
  0
VERTEX
  5
B9E
  8
LOTS
 10
654.49094223136842
 20
4671.9668596329439
 30
0.1538461537278106
  0
VERTEX
  5
B9F
  8
LOTS
 10
654.4716437965925
 20
4671.9641742118411
 30
0.1538461537278106
  0
VERTEX
  5
BA0
  8
LOTS
 10
654.46146474865645
 20
4671.9576528210682
 30
0.1538461537278106
  0
VERTEX
  5
BA1
  8
LOTS
 10
654.44976485075722
 20
4671.9500174098639
 30
0.1538461537278106
  0
VERTEX
  5
BA2
  8
LOTS
 10
654.44239898572221
 20
4671.935508137688
 30
0.1538461537278106
  0
SEQEND
  5
BA3
  8
LOTS
  0
POLYLINE
  5
476
  8
LOTS
 66
     1
 10
0.0
 20
0.0
 30
0.2499999997222222
 70
     1
1001
DCO15
1071
        2
1071
        2
1000
collections
1004
0739394230313800
1001
ADE
1011
-0.0160581785030445
1021
0.0
1031
0.0
1021
-0.0138459648005664
1031
0.0
  0
VERTEX
  5
BA4
  8
LOTS
 10
649.81791281001847
 20
4671.5658873762877
 30
0.2499999997222222
  0
VERTEX
  5
BA5
  8
LOTS
 10
649.78367885057253
 20
4671.5794084562003
 30
0.2499999997222222
  0
VERTEX
  5
BA6
  8
LOTS
 10
649.75505941843892
 20
4671.5842146941022
 30
0.2499999997222222
  0
VERTEX
  5
BA7
  8
LOTS
 10
649.72329134059555
 20
4671.5761712382782
 30
0.2499999997222222
  0
VERTEX
  5
BA8
  8
LOTS
 10
649.7094891941083
 20
4671.5686046328819
 30
0.2499999997222222
  0
VERTEX
  5
BA9
  8
LOTS
 10
649.70857416596891
 20
4671.5464936289691
 30
0.2499999997222222
  0
VERTEX
  5
BAA
  8
LOTS
 10
649.7123917745721
 20
4671.5291464489856
 30
0.2499999997222222
  0
VERTEX
  5
BAB
  8
LOTS
 10
649.72067599427078
 20
4671.5166002055339
 30
0.2499999997222222
  0
VERTEX
  5
BAC
  8
LOTS
 10
649.73679222096825
 20
4671.5135382599001
 30
0.2499999997222222
  0
VERTEX
  5
BAD
  8
LOTS
 10
649.76079627957824
 20
4671.5145287613341
 30
0.2499999997222222
  0
VERTEX
  5
BAE
  8
LOTS
 10
649.79267169475361
 20
4671.5029103333982
 30
0.2499999997222222
  0
VERTEX
  5
BAF
  8
LOTS
 10
649.79656690498734
 20
4671.529878722321
 30
0.2499999997222222
  0
VERTEX
  5
BB0
  8
LOTS
 10
649.80579079055246
 20
4671.5435080926982
 30
0.2499999997222222
  0
SEQEND
  5
BB1
  8
LOTS
  0
POLYLINE
  5
485
  8
LOTS
 66
     1
 10
0.0
 20
0.0
 30
0.2499999997916666
 70
     1
1001
DCO15
1071
        2
1071
        2
1000
collections
1004
0739394230313700
1001
ADE
1011
-0.0081208029249638
1021
0.0
1031
0.0
1021
-0.0202314617199591
1031
0.0
  0
VERTEX
  5
BB2
  8
LOTS
 10
649.85682681689445
 20
4671.4975084942816
 30
0.2499999997916666
  0
VERTEX
  5
BB3
  8
LOTS
 10
649.84729827710089
 20
4671.489172120916
 30
0.2499999997916666
  0
VERTEX
  5
BB4
  8
LOTS
 10
649.83324850525548
 20
4671.4876065301723
 30
0.2499999997916666
  0
VERTEX
  5
BB5
  8
LOTS
 10
649.81580838775756
 20
4671.4889547466782
 30
0.2499999997916666
  0
VERTEX
  5
BB6
  8
LOTS
 10
649.79390899069881
 20
4671.5024534327504
 30
0.2499999997916666
  0
VERTEX
  5
BB7
  8
LOTS
 10
649.79744371076538
 20
4671.5285910273178
 30
0.2499999997916666
  0
VERTEX
  5
BB8
  8
LOTS
 10
649.80097843083195
 20
4671.5345955876228
 30
0.2499999997916666
  0
VERTEX
  5
BB9
  8
LOTS
 10
649.81372789791851
 20
4671.5556897595943
 30
0.2499999997916666
  0
VERTEX
  5
BBA
  8
LOTS
 10
649.81865193567035
 20
4671.5653248951012
 30
0.2499999997916666
  0
VERTEX
  5
BBB
  8
LOTS
 10
649.83166887952495
 20
4671.5637637785603
 30
0.2499999997916666
  0
VERTEX
  5
BBC
  8
LOTS
 10
649.84658502810123
 20
4671.5559875964718
 30
0.2499999997916666
  0
VERTEX
  5
BBD
  8
LOTS
 10
649.86143911432634
 20
4671.5555425572793
 30
0.2499999997916666
  0
VERTEX
  5
BBE
  8
LOTS
 10
649.87450041722741
 20
4671.5533157196523
 30
0.2499999997916666
  0
SEQEND
  5
BBF
  8
LOTS
  0
POLYLINE
  5
494
  8
LOTS
 66
     1
 10
0.0
 20
0.0
 30
0.2499999996875
 70
     1
1001
DCO15
1071
        2
1071
        2
1000
collections
1004
0739394230313600
1001
ADE
1011
-0.0068020543027387
1021
0.0
1031
0.0
1021
-0.0124787237200508
1031
0.0
  0
VERTEX
  5
BC0
  8
LOTS
 10
649.85863196755679
 20
4671.4965406884312
 30
0.2499999996875
  0
VERTEX
  5
BC1
  8
LOTS
 10
649.88685532392685
 20
4671.4966713625918
 30
0.2499999996875
  0
VERTEX
  5
BC2
  8
LOTS
 10
649.90328716374802
 20
4671.4900397457359
 30
0.2499999996875
  0
VERTEX
  5
BC3
  8
LOTS
 10
649.92635685786149
 20
4671.4979406765679
 30
0.2499999996875
  0
VERTEX
  5
BC4
  8
LOTS
 10
649.93929262761822
 20
4671.5148490547908
 30
0.2499999996875
  0
VERTEX
  5
BC5
  8
LOTS
 10
649.94621490784721
 20
4671.5353083919299
 30
0.2499999996875
  0
VERTEX
  5
BC6
  8
LOTS
 10
649.93971864247885
 20
4671.5470627958757
 30
0.2499999996875
  0
VERTEX
  5
BC7
  8
LOTS
 10
649.92970853080078
 20
4671.5530697359463
 30
0.2499999996875
  0
VERTEX
  5
BC8
  8
LOTS
 10
649.91123518587676
 20
4671.5567317206369
 30
0.2499999996875
  0
VERTEX
  5
BC9
  8
LOTS
 10
649.89589239839484
 20
4671.5556177185481
 30
0.2499999996875
  0
VERTEX
  5
BCA
  8
LOTS
 10
649.87561269885066
 20
4671.5541076406953
 30
0.2499999996875
  0
SEQEND
  5
BCB
  8
LOTS
  0
POLYLINE
  5
4A1
  8
LOTS
 66
     1
 10
0.0
 20
0.0
 30
0.2499999997222222
 70
     1
1001
DCO15
1071
        1
1071
        1
1000
collections
1004
0730374330313800
1001
ADE
1011
-0.0194745146018249
1021
0.0
1031
0.0
1021
-0.0033562580092621
1031
0.0
  0
VERTEX
  5
BCC
  8
LOTS
 10
657.0601070378907
 20
4693.247854933421
 30
0.2499999997222222
  0
VERTEX
  5
BCD
  8
LOTS
 10
657.03861795746047
 20
4693.2626226888469
 30
0.2499999997222222
  0
VERTEX
  5
BCE
  8
LOTS
 10
657.02115800868705
 20
4693.2787329674984
 30
0.2499999997222222
  0
VERTEX
  5
BCF
  8
LOTS
 10
657.02384420453291
 20
4693.29887081581
 30
0.2499999997222222
  0
VERTEX
  5
BD0
  8
LOTS
 10
657.02787333618926
 20
4693.3122960480159
 30
0.2499999997222222
  0
VERTEX
  5
BD1
  8
LOTS
 10
657.03861795746047
 20
4693.3230361337
 30
0.2499999997222222
  0
VERTEX
  5
BD2
  8
LOTS
 10
657.0507056766545
 20
4693.3310912730258
 30
0.2499999997222222
  0
VERTEX
  5
BD3
  8
LOTS
 10
657.06413633165926
 20
4693.3351188426868
 30
0.2499999997222222
  0
VERTEX
  5
BD4
  8
LOTS
 10
657.09234090170355
 20
4693.3297487498057
 30
0.2499999997222222
  0
VERTEX
  5
BD5
  8
LOTS
 10
657.10845775255427
 20
4693.3216936104809
 30
0.2499999997222222
  0
VERTEX
  5
BD6
  8
LOTS
 10
657.11382998213367
 20
4693.317666040818
 30
0.2499999997222222
  0
SEQEND
  5
BD7
  8
LOTS
  0
POLYLINE
  5
4AE
  8
LOTS
 66
     1
 10
0.0
 20
0.0
 30
0.29999999988
 70
     1
1001
DCO15
1071
        2
1071
        2
1000
collections
1004
0730304530323200
1001
ADE
1011
-0.0142242873580472
1021
0.0
1031
0.0
1021
-0.0430240772939214
1031
0.0
  0
VERTEX
  5
BD8
  8
LOTS
 10
645.92933669590752
 20
4680.7655329491581
 30
0.29999999988
  0
VERTEX
  5
BD9
  8
LOTS
 10
645.86889233138595
 20
4680.6028518522062
 30
0.29999999988
  0
VERTEX
  5
BDA
  8
LOTS
 10
645.82965752483028
 20
4680.620526852671
 30
0.29999999988
  0
VERTEX
  5
BDB
  8
LOTS
 10
645.80349849069034
 20
4680.6523532669507
 30
0.29999999988
  0
VERTEX
  5
BDC
  8
LOTS
 10
645.79400801419717
 20
4680.666780948869
 30
0.29999999988
  0
VERTEX
  5
BDD
  8
LOTS
 10
645.82233536766921
 20
4680.738539555593
 30
0.29999999988
  0
VERTEX
  5
BDE
  8
LOTS
 10
645.84138448244914
 20
4680.7717302738511
 30
0.29999999988
  0
VERTEX
  5
BDF
  8
LOTS
 10
645.85612380543569
 20
4680.7949544041876
 30
0.29999999988
  0
SEQEND
  5
BE0
  8
LOTS
  0
POLYLINE
  5
4B8
  8
LOTS
 66
     1
 10
0.0
 20
0.0
 30
0.3999999998857143
 70
     1
1001
DCO15
1071
        2
1071
        2
1000
collections
1004
0730304530343100
1001
ADE
1011
-0.0428044785707016
1021
0.0
1031
0.0
1021
0.0584032970164117
1031
0.0
  0
VERTEX
  5
BE1
  8
LOTS
 10
639.6833174352239
 20
4678.7282317979107
 30
0.3999999998857143
  0
VERTEX
  5
BE2
  8
LOTS
 10
639.72474409457595
 20
4678.7235073000647
 30
0.3999999998857143
  0
VERTEX
  5
BE3
  8
LOTS
 10
639.74979907978945
 20
4678.7097792237537
 30
0.3999999998857143
  0
VERTEX
  5
BE4
  8
LOTS
 10
639.77177821697535
 20
4678.6930399693483
 30
0.3999999998857143
  0
VERTEX
  5
BE5
  8
LOTS
 10
639.78626692114528
 20
4678.6707635180892
 30
0.3999999998857143
  0
VERTEX
  5
BE6
  8
LOTS
 10
639.76865364981575
 20
4678.627061679178
 30
0.3999999998857143
  0
VERTEX
  5
BE7
  8
LOTS
 10
639.73280449767833
 20
4678.5988992140992
 30
0.3999999998857143
  0
VERTEX
  5
BE8
  8
LOTS
 10
639.69115863096965
 20
4678.5700172695251
 30
0.3999999998857143
  0
VERTEX
  5
BE9
  8
LOTS
 10
639.67366434496853
 20
4678.5710301428317
 30
0.3999999998857143
  0
SEQEND
  5
BEA
  8
LOTS
  0
POLYLINE
  5
4C3
  8
LOTS
 66
     1
 10
0.0
 20
0.0
 30
0.4999999998214287
 70
     1
1001
DCO15
1071
        2
1071
        2
1000
collections
1004
0739394230323500
1001
ADE
1011
-0.0292288273502663
1021
0.0
1031
0.0
1021
-0.0199206734059772
1031
0.0
  0
VERTEX
  5
BEB
  8
LOTS
 10
648.21497851948322
 20
4672.0621251001212
 30
0.4999999998214287
  0
VERTEX
  5
BEC
  8
LOTS
 10
648.18640472259312
 20
4672.0506624215659
 30
0.4999999998214287
  0
VERTEX
  5
BED
  8
LOTS
 10
648.17326498953969
 20
4672.0264600130513
 30
0.4999999998214287
  0
VERTEX
  5
BEE
  8
LOTS
 10
648.16355895217805
 20
4671.9977105308008
 30
0.4999999998214287
  0
VERTEX
  5
BEF
  8
LOTS
 10
648.1624583610311
 20
4671.97426939865
 30
0.4999999998214287
  0
VERTEX
  5
BF0
  8
LOTS
 10
648.17761090818021
 20
4671.9176436723619
 30
0.4999999998214287
  0
VERTEX
  5
BF1
  8
LOTS
 10
648.20950966018438
 20
4671.8974637718156
 30
0.4999999998214287
  0
VERTEX
  5
BF2
  8
LOTS
 10
648.24785384199186
 20
4671.9157091397619
 30
0.4999999998214287
  0
VERTEX
  5
BF3
  8
LOTS
 10
648.26788560415537
 20
4671.9348820107234
 30
0.4999999998214287
  0
SEQEND
  5
BF4
  8
LOTS
  0
POLYLINE
  5
4CE
  8
LOTS
 66
     1
 10
0.0
 20
0.0
 30
0.5217391302079398
 70
     1
1001
DCO15
1071
        2
1071
        2
1000
collections
1004
0730304330363500
1001
ADE
1011
-0.0046679131909286
1021
0.0
1031
0.0
1021
-0.0091144154130234
1031
0.0
  0
VERTEX
  5
BF5
  8
LOTS
 10
646.00470126151265
 20
4681.7458395790436
 30
0.5217391302079398
  0
VERTEX
  5
BF6
  8
LOTS
 10
645.96056905943351
 20
4681.6721963234113
 30
0.5217391302079398
  0
VERTEX
  5
BF7
  8
LOTS
 10
645.99666442158161
 20
4681.6491584305704
 30
0.5217391302079398
  0
VERTEX
  5
BF8
  8
LOTS
 10
646.02640537579839
 20
4681.6245083154363
 30
0.5217391302079398
  0
VERTEX
  5
BF9
  8
LOTS
 10
646.06170644982035
 20
4681.7118699399571
 30
0.5217391302079398
  0
VERTEX
  5
BFA
  8
LOTS
 10
646.01968418895638
 20
4681.7387314569532
 30
0.5217391302079398
  0
SEQEND
  5
BFB
  8
LOTS
  0
POLYLINE
  5
4D6
  8
LOTS
 66
     1
 10
0.0
 20
0.0
 30
0.5661712666823937
 70
     1
1001
DCO15
1071
        2
1071
        2
1000
collections
1004
0730314233373000
1001
ADE
1011
-0.0033505898786643
1021
0.0
1031
0.0
1021
-0.0567941207500553
1031
0.0
  0
VERTEX
  5
BFC
  8
LOTS
 10
638.90458430182605
 20
4691.2730914425674
 30
0.5661712666823937
  0
VERTEX
  5
BFD
  8
LOTS
 10
638.8622879006216
 20
4691.1617240776932
 30
0.5661712666823937
  0
VERTEX
  5
BFE
  8
LOTS
 10
638.8652121031696
 20
4691.1281343380206
 30
0.5661712666823937
  0
VERTEX
  5
BFF
  8
LOTS
 10
638.90311888298913
 20
4691.111854407377
 30
0.5661712666823937
  0
VERTEX
  5
C00
  8
LOTS
 10
638.95323965819205
 20
4691.1091210962923
 30
0.5661712666823937
  0
VERTEX
  5
C01
  8
LOTS
 10
638.97797610092607
 20
4691.2574755647611
 30
0.5661712666823937
  0
VERTEX
  5
C02
  8
LOTS
 10
638.95436971979495
 20
4691.2718142810818
 30
0.5661712666823937
  0
VERTEX
  5
C03
  8
LOTS
 10
638.90471211351939
 20
4691.273914007651
 30
0.5661712666823937
  0
SEQEND
  5
C04
  8
LOTS
  0
POLYLINE
  5
4E0
  8
LOTS
 66
     1
 10
0.0
 20
0.0
 30
1.421052631204986
 70
     1
1001
DCO15
1071
        2
1071
        2
1000
collections
1004
0739394130313300
1001
ADE
1011
-0.0184276718814545
1021
0.0
1031
0.0
1021
0.0305715099293593
1031
0.0
  0
VERTEX
  5
C05
  8
LOTS
 10
652.54031062858667
 20
4677.5181102753713
 30
1.421052631204986
  0
VERTEX
  5
C06
  8
LOTS
 10
652.55668678794643
 20
4677.5463699472339
 30
1.421052631204986
  0
VERTEX
  5
C07
  8
LOTS
 10
652.57006864602965
 20
4677.5671991684276
 30
1.421052631204986
  0
VERTEX
  5
C08
  8
LOTS
 10
652.58348962948628
 20
4677.5882940561123
 30
1.421052631204986
  0
VERTEX
  5
C09
  8
LOTS
 10
652.60235823135122
 20
4677.5781866578072
 30
1.421052631204986
  0
VERTEX
  5
C0A
  8
LOTS
 10
652.61942039753467
 20
4677.5646753276287
 30
1.421052631204986
  0
VERTEX
  5
C0B
  8
LOTS
 10
652.65452513827165
 20
4677.5384932576771
 30
1.421052631204986
  0
VERTEX
  5
C0C
  8
LOTS
 10
652.61280636953165
 20
4677.4660477429516
 30
1.421052631204986
  0
VERTEX
  5
C0D
  8
LOTS
 10
652.59129638223158
 20
4677.4791157591926
 30
1.421052631204986
  0
VERTEX
  5
C0E
  8
LOTS
 10
652.5709593686521
 20
4677.4921537000373
 30
1.421052631204986
  0
SEQEND
  5
C0F
  8
LOTS
  0
POLYLINE
  5
4EC
  8
LOTS
 66
     1
 10
0.0
 20
0.0
 30
1.77
 70
     1
1001
DCO15
1071
        2
1071
        2
1000
collections
1004
0739394130313400
1001
ADE
1011
-0.0197788719024175
1021
0.0
1031
0.0
1021
0.0129563045557006
1031
0.0
  0
VERTEX
  5
C10
  8
LOTS
 10
652.61981203888547
 20
4677.5658447625619
 30
1.77
  0
VERTEX
  5
C11
  8
LOTS
 10
652.64521071764113
 20
4677.5816470932941
 30
1.77
  0
VERTEX
  5
C12
  8
LOTS
 10
652.67789783758565
 20
4677.5879617508062
 30
1.77
  0
VERTEX
  5
C13
  8
LOTS
 10
652.70484752946015
 20
4677.5848070875718
 30
1.77
  0
VERTEX
  5
C14
  8
LOTS
 10
652.7209092457947
 20
4677.5666987802379
 30
1.77
  0
VERTEX
  5
C15
  8
LOTS
 10
652.73378103398613
 20
4677.5398316897681
 30
1.77
  0
VERTEX
  5
C16
  8
LOTS
 10
652.73723711881576
 20
4677.5135369878881
 30
1.77
  0
VERTEX
  5
C17
  8
LOTS
 10
652.72154879393474
 20
4677.4862617312492
 30
1.77
  0
VERTEX
  5
C18
  8
LOTS
 10
652.69918933252416
 20
4677.5058403805278
 30
1.77
  0
SEQEND
  5
C19
  8
LOTS
  0
POLYLINE
  5
4F7
  8
LOTS
 66
     1
 10
0.0
 20
0.0
 30
4.048
 70
     1
1001
DCO15
1071
        1
1071
        1
1000
collections
1004
0730374330323100
1001
ADE
1011
-0.0302192169287992
1021
0.0
1031
0.0
1021
0.0114114473763039
1031
0.0
  0
VERTEX
  5
C1A
  8
LOTS
 10
657.08696851001207
 20
4693.2733628746164
 30
4.048
  0
VERTEX
  5
C1B
  8
LOTS
 10
657.1541222713721
 20
4693.2236895154474
 30
4.048
  0
VERTEX
  5
C1C
  8
LOTS
 10
657.13397612675305
 20
4693.1995240974711
 30
4.048
  0
VERTEX
  5
C1D
  8
LOTS
 10
657.06682252750511
 20
4693.24516988698
 30
4.048
  0
SEQEND
  5
C1E
  8
LOTS
  0
ENDSEC
  0
EOF
