  0
SECTION
  2
HEADER
  9
$ACADVER
  1
AC1009
  9
$INSBASE
 10
0.0
 20
0.0
 30
0.0
  9
$EXTMIN
 10
629.50041825885376
 20
4665.1801875621031
 30
0.0001136344332405
  9
$EXTMAX
 10
667.38164220844214
 20
4697.7947969753004
 30
0.5000152557923006
  9
$LIMMIN
 10
0.0
 20
0.0
  9
$LIMMAX
 10
12.0
 20
9.0
  9
$ORTHOMODE
 70
     0
  9
$REGENMODE
 70
     1
  9
$FILLMODE
 70
     1
  9
$QTEXTMODE
 70
     0
  9
$MIRRTEXT
 70
     1
  9
$DRAGMODE
 70
     2
  9
$LTSCALE
 40
1.0
  9
$OSMODE
 70
   613
  9
$ATTMODE
 70
     1
  9
$TEXTSIZE
 40
0.2
  9
$TRACEWID
 40
0.05
  9
$TEXTSTYLE
  7
C
  9
$CLAYER
  8
0
  9
$CELTYPE
  6
BYLAYER
  9
$CECOLOR
 62
   256
  9
$DIMSCALE
 40
1.0
  9
$DIMASZ
 40
0.18
  9
$DIMEXO
 40
0.0625
  9
$DIMDLI
 40
0.38
  9
$DIMRND
 40
0.0
  9
$DIMDLE
 40
0.0
  9
$DIMEXE
 40
0.18
  9
$DIMTP
 40
0.0
  9
$DIMTM
 40
0.0
  9
$DIMTXT
 40
0.18
  9
$DIMCEN
 40
0.09
  9
$DIMTSZ
 40
0.0
  9
$DIMTOL
 70
     0
  9
$DIMLIM
 70
     0
  9
$DIMTIH
 70
     1
  9
$DIMTOH
 70
     1
  9
$DIMSE1
 70
     0
  9
$DIMSE2
 70
     0
  9
$DIMTAD
 70
     0
  9
$DIMZIN
 70
     0
  9
$DIMBLK
  1

  9
$DIMASO
 70
     1
  9
$DIMSHO
 70
     1
  9
$DIMPOST
  1

  9
$DIMAPOST
  1

  9
$DIMALT
 70
     0
  9
$DIMALTD
 70
     2
  9
$DIMALTF
 40
25.399999999999999
  9
$DIMLFAC
 40
1.0
  9
$DIMTOFL
 70
     0
  9
$DIMTVP
 40
0.0
  9
$DIMTIX
 70
     0
  9
$DIMSOXD
 70
     0
  9
$DIMSAH
 70
     0
  9
$DIMBLK1
  1

  9
$DIMBLK2
  1

  9
$DIMSTYLE
  2
STANDARD
  9
$DIMCLRD
 70
     0
  9
$DIMCLRE
 70
     0
  9
$DIMCLRT
 70
     0
  9
$DIMTFAC
 40
1.0
  9
$DIMGAP
 40
0.09
  9
$LUNITS
 70
     2
  9
$LUPREC
 70
     4
  9
$SKETCHINC
 40
0.1
  9
$FILLETRAD
 40
0.5
  9
$AUNITS
 70
     0
  9
$AUPREC
 70
     0
  9
$MENU
  1
.
  9
$ELEVATION
 40
0.0
  9
$PELEVATION
 40
0.0
  9
$THICKNESS
 40
0.0
  9
$LIMCHECK
 70
     0
  9
$BLIPMODE
 70
     0
  9
$CHAMFERA
 40
0.5
  9
$CHAMFERB
 40
0.5
  9
$SKPOLY
 70
     0
  9
$TDCREATE
 40
2451380.8120674188
  9
$TDUPDATE
 40
2454465.6835680092
  9
$TDINDWG
 40
1.6666197801
  9
$TDUSRTIMER
 40
1.6666195485999999
  9
$USRTIMER
 70
     1
  9
$ANGBASE
 50
0.0
  9
$ANGDIR
 70
     0
  9
$PDMODE
 70
     0
  9
$PDSIZE
 40
0.0
  9
$PLINEWID
 40
0.0
  9
$COORDS
 70
     1
  9
$SPLFRAME
 70
     0
  9
$SPLINETYPE
 70
     6
  9
$SPLINESEGS
 70
     8
  9
$ATTDIA
 70
     0
  9
$ATTREQ
 70
     1
  9
$HANDLING
 70
     1
  9
$HANDSEED
  5
286
  9
$SURFTAB1
 70
     6
  9
$SURFTAB2
 70
     6
  9
$SURFTYPE
 70
     6
  9
$SURFU
 70
     6
  9
$SURFV
 70
     6
  9
$UCSNAME
  2

  9
$UCSORG
 10
0.0
 20
0.0
 30
0.0
  9
$UCSXDIR
 10
1.0
 20
0.0
 30
0.0
  9
$UCSYDIR
 10
0.0
 20
1.0
 30
0.0
  9
$PUCSNAME
  2

  9
$PUCSORG
 10
0.0
 20
0.0
 30
0.0
  9
$PUCSXDIR
 10
1.0
 20
0.0
 30
0.0
  9
$PUCSYDIR
 10
0.0
 20
1.0
 30
0.0
  9
$USERI1
 70
     0
  9
$USERI2
 70
     0
  9
$USERI3
 70
     0
  9
$USERI4
 70
     0
  9
$USERI5
 70
     0
  9
$USERR1
 40
0.0
  9
$USERR2
 40
0.0
  9
$USERR3
 40
0.0
  9
$USERR4
 40
0.0
  9
$USERR5
 40
0.0
  9
$WORLDVIEW
 70
     1
  9
$SHADEDGE
 70
     3
  9
$SHADEDIF
 70
    70
  9
$TILEMODE
 70
     1
  9
$MAXACTVP
 70
    48
  9
$PLIMCHECK
 70
     0
  9
$PEXTMIN
 10
1.0000000000000000E+020
 20
1.0000000000000000E+020
 30
1.0000000000000000E+020
  9
$PEXTMAX
 10
-1.0000000000000000E+020
 20
-1.0000000000000000E+020
 30
-1.0000000000000000E+020
  9
$PLIMMIN
 10
0.0
 20
0.0
  9
$PLIMMAX
 10
12.0
 20
9.0
  9
$UNITMODE
 70
     0
  9
$VISRETAIN
 70
     1
  9
$PLINEGEN
 70
     0
  9
$PSLTSCALE
 70
     1
  0
ENDSEC
  0
SECTION
  2
TABLES
  0
TABLE
  2
VPORT
 70
     1
  0
VPORT
  2
*ACTIVE
 70
     0
 10
0.0
 20
0.0
 11
1.0
 21
1.0
 12
657.69550054066008
 22
4672.256768556349
 13
0.0
 23
0.0
 14
0.5
 24
0.5
 15
0.5
 25
0.5
 16
0.0
 26
0.0
 36
1.0
 17
0.0
 27
0.0
 37
0.0
 40
84.012714460725917
 41
1.336206896551724
 42
50.0
 43
0.0
 44
0.0
 50
0.0
 51
0.0
 71
     0
 72
   100
 73
     1
 74
     0
 75
     0
 76
     0
 77
     0
 78
     0
  0
ENDTAB
  0
TABLE
  2
LTYPE
 70
     1
  0
LTYPE
  2
CONTINUOUS
 70
     0
  3
Solid line
 72
    65
 73
     0
 40
0.0
  0
ENDTAB
  0
TABLE
  2
LAYER
 70
     2
  0
LAYER
  2
0
 70
     0
 62
     1
  6
CONTINUOUS
  0
LAYER
  2
LOTS
 70
     0
 62
     6
  6
CONTINUOUS
  0
ENDTAB
  0
TABLE
  2
STYLE
 70
     2
  0
STYLE
  2
STANDARD
 70
     0
 40
0.0
 41
1.0
 50
0.0
 71
     0
 42
0.2
  3
simplex.shx
  4

  0
STYLE
  2
C
 70
     0
 40
0.0
 41
1.0
 50
0.0
 71
     0
 42
0.2
  3
txt
  4

  0
ENDTAB
  0
TABLE
  2
VIEW
 70
     0
  0
ENDTAB
  0
TABLE
  2
UCS
 70
     0
  0
ENDTAB
  0
TABLE
  2
APPID
 70
     3
  0
APPID
  2
ACAD
 70
     0
  0
APPID
  2
ADE
 70
     0
  0
APPID
  2
DCO15
 70
     0
  0
ENDTAB
  0
TABLE
  2
DIMSTYLE
 70
     1
  0
DIMSTYLE
  2
STANDARD
 70
     0
  3

  4

  5

  6

  7

 40
1.0
 41
0.18
 42
0.0625
 43
0.38
 44
0.18
 45
0.0
 46
0.0
 47
0.0
 48
0.0
140
0.18
141
0.09
142
0.0
143
25.399999999999999
144
1.0
145
0.0
146
1.0
147
0.09
 71
     0
 72
     0
 73
     1
 74
     1
 75
     0
 76
     0
 77
     0
 78
     0
170
     0
171
     2
172
     0
173
     0
174
     0
175
     0
176
     0
177
     0
178
     0
  0
ENDTAB
  0
ENDSEC
  0
SECTION
  2
BLOCKS
  0
BLOCK
  8
0
  2
$MODEL_SPACE
 70
     0
 10
0.0
 20
0.0
 30
0.0
  3
$MODEL_SPACE
  1

  0
ENDBLK
  5
15
  8
0
  0
BLOCK
 67
     1
  8
0
  2
$PAPER_SPACE
 70
     0
 10
0.0
 20
0.0
 30
0.0
  3
$PAPER_SPACE
  1

  0
ENDBLK
  5
1A
 67
     1
  8
0
  0
ENDSEC
  0
SECTION
  2
ENTITIES
  0
POLYLINE
  5
6B
  8
LOTS
 66
     1
 10
0.0
 20
0.0
 30
0.0256410256377383
 70
     1
1001
DCO15
1071
        2
1071
        2
1000
collections
1004
0739394430343500
1001
ADE
1011
-0.0610366835155674
1021
0.0
1031
0.0
1021
-0.0133432911070486
1031
0.0
  0
VERTEX
  5
B5
  8
LOTS
 10
647.44072849340887
 20
4665.5611378116419
 30
0.0256410256377383
  0
VERTEX
  5
B6
  8
LOTS
 10
647.4237933602916
 20
4665.4798663117163
 30
0.0256410256377383
  0
VERTEX
  5
B7
  8
LOTS
 10
647.4662186290617
 20
4665.4590398675728
 30
0.0256410256377383
  0
VERTEX
  5
B8
  8
LOTS
 10
647.49915446151124
 20
4665.4465936679208
 30
0.0256410256377383
  0
VERTEX
  5
B9
  8
LOTS
 10
647.52487696232436
 20
4665.447825750889
 30
0.0256410256377383
  0
VERTEX
  5
BA
  8
LOTS
 10
647.54344640441104
 20
4665.4820758003007
 30
0.0256410256377383
  0
VERTEX
  5
BB
  8
LOTS
 10
647.5651362581109
 20
4665.5223370282647
 30
0.0256410256377383
  0
VERTEX
  5
BC
  8
LOTS
 10
647.57201932816031
 20
4665.5512973149152
 30
0.0256410256377383
  0
VERTEX
  5
BD
  8
LOTS
 10
647.57984409573726
 20
4665.5748048540408
 30
0.0256410256377383
  0
SEQEND
  5
BE
  8
LOTS
  0
POLYLINE
  5
6E
  8
LOTS
 66
     1
 10
0.0
 20
0.0
 30
0.0749999998125
 70
     1
1001
DCO15
1071
        2
1071
        2
1000
collections
1004
0739394430383400
1001
ADE
1011
-0.0413376635541454
1021
0.0
1031
0.0
1021
-0.0151439593255418
1031
0.0
  0
VERTEX
  5
BF
  8
LOTS
 10
648.97960252387895
 20
4668.7658475053677
 30
0.0749999998125
  0
VERTEX
  5
C0
  8
LOTS
 10
648.97983277335754
 20
4668.8043467195903
 30
0.0749999998125
  0
VERTEX
  5
C1
  8
LOTS
 10
648.9503589344979
 20
4668.8273980750882
 30
0.0749999998125
  0
VERTEX
  5
C2
  8
LOTS
 10
648.91695834131485
 20
4668.8191519504862
 30
0.0749999998125
  0
VERTEX
  5
C3
  8
LOTS
 10
648.8917106746469
 20
4668.789212366024
 30
0.0749999998125
  0
VERTEX
  5
C4
  8
LOTS
 10
648.88086159683564
 20
4668.7613514976938
 30
0.0749999998125
  0
VERTEX
  5
C5
  8
LOTS
 10
648.88801441463806
 20
4668.7400747446991
 30
0.0749999998125
  0
VERTEX
  5
C6
  8
LOTS
 10
648.91222293747137
 20
4668.7279166875696
 30
0.0749999998125
  0
VERTEX
  5
C7
  8
LOTS
 10
648.94392236384476
 20
4668.7372168390148
 30
0.0749999998125
  0
SEQEND
  5
C8
  8
LOTS
  0
POLYLINE
  5
6F
  8
LOTS
 66
     1
 10
0.0
 20
0.0
 30
0.1415428166377147
 70
     1
1001
DCO15
1071
        2
1071
        2
1000
collections
1004
0739394430373900
1001
ADE
1011
-0.0499429161706075
1021
0.0
1031
0.0
1021
-0.0241492526765796
1031
0.0
  0
VERTEX
  5
C9
  8
LOTS
 10
649.27271955119613
 20
4669.3279677790952
 30
0.1415428166377147
  0
VERTEX
  5
CA
  8
LOTS
 10
649.2426323656407
 20
4669.3471607057099
 30
0.1415428166377147
  0
VERTEX
  5
CB
  8
LOTS
 10
649.20125779570003
 20
4669.3603470969638
 30
0.1415428166377147
  0
VERTEX
  5
CC
  8
LOTS
 10
649.17039867415338
 20
4669.3498551668481
 30
0.1415428166377147
  0
VERTEX
  5
CD
  8
LOTS
 10
649.15096136136083
 20
4669.3216676176853
 30
0.1415428166377147
  0
VERTEX
  5
CE
  8
LOTS
 10
649.12997923230785
 20
4669.2867958276674
 30
0.1415428166377147
  0
VERTEX
  5
CF
  8
LOTS
 10
649.12376818988196
 20
4669.2739002296312
 30
0.1415428166377147
  0
VERTEX
  5
D0
  8
LOTS
 10
649.20908301816405
 20
4669.2362164025508
 30
0.1415428166377147
  0
VERTEX
  5
D1
  8
LOTS
 10
649.21346519836641
 20
4669.2449742106619
 30
0.1415428166377147
  0
VERTEX
  5
D2
  8
LOTS
 10
649.23592373064048
 20
4669.2811002975623
 30
0.1415428166377147
  0
VERTEX
  5
D3
  8
LOTS
 10
649.26112107845324
 20
4669.3144895187252
 30
0.1415428166377147
  0
VERTEX
  5
D4
  8
LOTS
 10
649.26659870953051
 20
4669.3210578883272
 30
0.1415428166377147
  0
SEQEND
  5
D5
  8
LOTS
  0
POLYLINE
  5
70
  8
LOTS
 66
     1
 10
0.0
 20
0.0
 30
0.0333333332777778
 70
     1
1001
DCO15
1071
        2
1071
        2
1000
collections
1004
0739394430383600
1001
ADE
1011
-0.0355650643663239
1021
0.0
1031
0.0
1021
-0.0077990628315092
1031
0.0
  0
VERTEX
  5
D6
  8
LOTS
 10
649.21382221816225
 20
4669.5255815582241
 30
0.0333333332777778
  0
VERTEX
  5
D7
  8
LOTS
 10
649.22524091042635
 20
4669.5168984202537
 30
0.0333333332777778
  0
VERTEX
  5
D8
  8
LOTS
 10
649.23591382932955
 20
4669.5030414809489
 30
0.0333333332777778
  0
VERTEX
  5
D9
  8
LOTS
 10
649.25032309575931
 20
4669.482232396339
 30
0.0333333332777778
  0
VERTEX
  5
DA
  8
LOTS
 10
649.25945119840253
 20
4669.4616912161891
 30
0.0333333332777778
  0
VERTEX
  5
DB
  8
LOTS
 10
649.26554449205082
 20
4669.4474637254471
 30
0.0333333332777778
  0
VERTEX
  5
DC
  8
LOTS
 10
649.26660360666312
 20
4669.444239290905
 30
0.0333333332777778
  0
VERTEX
  5
DD
  8
LOTS
 10
649.2327789239805
 20
4669.4070966616
 30
0.0333333332777778
  0
VERTEX
  5
DE
  8
LOTS
 10
649.22358739139293
 20
4669.4181643645752
 30
0.0333333332777778
  0
VERTEX
  5
DF
  8
LOTS
 10
649.20187115952444
 20
4669.4416769563304
 30
0.0333333332777778
  0
VERTEX
  5
E0
  8
LOTS
 10
649.17553709533263
 20
4669.4538963355853
 30
0.0333333332777778
  0
VERTEX
  5
E1
  8
LOTS
 10
649.15620867832104
 20
4669.4609534524598
 30
0.0333333332777778
  0
SEQEND
  5
E2
  8
LOTS
  0
POLYLINE
  5
71
  8
LOTS
 66
     1
 10
0.0
 20
0.0
 30
0.0178571428443878
 70
     1
1001
DCO15
1071
        2
1071
        2
1000
collections
1004
0739394231303000
1001
ADE
1011
-0.0393423782451237
1021
0.0
1031
0.0
1021
0.0159298111211683
1031
0.0
  0
VERTEX
  5
E3
  8
LOTS
 10
636.90157665355673
 20
4669.0197857136127
 30
0.0178571428443878
  0
VERTEX
  5
E4
  8
LOTS
 10
636.93273890922933
 20
4669.0274626270202
 30
0.0178571428443878
  0
VERTEX
  5
E5
  8
LOTS
 10
636.96145972387706
 20
4669.0203265100317
 30
0.0178571428443878
  0
VERTEX
  5
E6
  8
LOTS
 10
636.9784806996912
 20
4668.9940306862318
 30
0.0178571428443878
  0
VERTEX
  5
E7
  8
LOTS
 10
636.99213480080073
 20
4668.9618832876922
 30
0.0178571428443878
  0
VERTEX
  5
E8
  8
LOTS
 10
636.9909157356127
 20
4668.9415300443843
 30
0.0178571428443878
  0
VERTEX
  5
E9
  8
LOTS
 10
636.97452656197015
 20
4668.9295497135699
 30
0.0178571428443878
  0
VERTEX
  5
EA
  8
LOTS
 10
636.93735827925298
 20
4668.9388789295917
 30
0.0178571428443878
  0
VERTEX
  5
EB
  8
LOTS
 10
636.90740355303228
 20
4668.9579636541184
 30
0.0178571428443878
  0
VERTEX
  5
EC
  8
LOTS
 10
636.89589437750453
 20
4668.9772114827474
 30
0.0178571428443878
  0
VERTEX
  5
ED
  8
LOTS
 10
636.89264980511405
 20
4668.9996350960637
 30
0.0178571428443878
  0
SEQEND
  5
EE
  8
LOTS
  0
POLYLINE
  5
72
  8
LOTS
 66
     1
 10
0.0
 20
0.0
 30
0.0535714285331633
 70
     1
1001
DCO15
1071
        2
1071
        2
1000
collections
1004
0739394430343300
1001
ADE
1011
0.0034312495308768
1021
0.0
1031
0.0
1021
-0.0587006372834367
1031
0.0
  0
VERTEX
  5
EF
  8
LOTS
 10
647.42219494922949
 20
4665.4826150848921
 30
0.0535714285331633
  0
VERTEX
  5
F0
  8
LOTS
 10
647.39425109972808
 20
4665.4891511360447
 30
0.0535714285331633
  0
VERTEX
  5
F1
  8
LOTS
 10
647.36153663658115
 20
4665.5073298370653
 30
0.0535714285331633
  0
VERTEX
  5
F2
  8
LOTS
 10
647.33781983863662
 20
4665.5237051018921
 30
0.0535714285331633
  0
VERTEX
  5
F3
  8
LOTS
 10
647.32751623184208
 20
4665.541042047872
 30
0.0535714285331633
  0
VERTEX
  5
F4
  8
LOTS
 10
647.33695684221925
 20
4665.5755380861292
 30
0.0535714285331633
  0
VERTEX
  5
F5
  8
LOTS
 10
647.34685101845912
 20
4665.6092116785421
 30
0.0535714285331633
  0
VERTEX
  5
F6
  8
LOTS
 10
647.35637079780406
 20
4665.6353357476773
 30
0.0535714285331633
  0
VERTEX
  5
F7
  8
LOTS
 10
647.36685225830149
 20
4665.6480466256617
 30
0.0535714285331633
  0
VERTEX
  5
F8
  8
LOTS
 10
647.39729358179022
 20
4665.6525411140101
 30
0.0535714285331633
  0
VERTEX
  5
F9
  8
LOTS
 10
647.42289850180998
 20
4665.6430650568336
 30
0.0535714285331633
  0
VERTEX
  5
FA
  8
LOTS
 10
647.455686823581
 20
4665.6350753468423
 30
0.0535714285331633
  0
SEQEND
  5
FB
  8
LOTS
  0
POLYLINE
  5
73
  8
LOTS
 66
     1
 10
0.0
 20
0.0
 30
0.105263157867036
 70
     1
1001
DCO15
1071
        2
1071
        2
1000
collections
1004
0739394130313300
1001
ADE
1011
-0.0184276718814545
1021
0.0
1031
0.0
1021
0.0305715099293593
1031
0.0
  0
VERTEX
  5
FC
  8
LOTS
 10
652.54031062858667
 20
4677.5181102753713
 30
0.105263157867036
  0
VERTEX
  5
FD
  8
LOTS
 10
652.55668678794643
 20
4677.5463699472339
 30
0.105263157867036
  0
VERTEX
  5
FE
  8
LOTS
 10
652.57006864602965
 20
4677.5671991684276
 30
0.105263157867036
  0
VERTEX
  5
FF
  8
LOTS
 10
652.58348962948628
 20
4677.5882940561123
 30
0.105263157867036
  0
VERTEX
  5
100
  8
LOTS
 10
652.60235823135122
 20
4677.5781866578072
 30
0.105263157867036
  0
VERTEX
  5
101
  8
LOTS
 10
652.61942039753467
 20
4677.5646753276287
 30
0.105263157867036
  0
VERTEX
  5
102
  8
LOTS
 10
652.65452513827165
 20
4677.5384932576771
 30
0.105263157867036
  0
VERTEX
  5
103
  8
LOTS
 10
652.61280636953165
 20
4677.4660477429516
 30
0.105263157867036
  0
VERTEX
  5
104
  8
LOTS
 10
652.59129638223158
 20
4677.4791157591926
 30
0.105263157867036
  0
VERTEX
  5
105
  8
LOTS
 10
652.5709593686521
 20
4677.4921537000373
 30
0.105263157867036
  0
SEQEND
  5
106
  8
LOTS
  0
POLYLINE
  5
74
  8
LOTS
 66
     1
 10
0.0
 20
0.0
 30
0.0535714285331633
 70
     1
1001
DCO15
1071
        2
1071
        2
1000
collections
1004
0739394130313500
1001
ADE
1011
-0.0235301033616224
1021
0.0
1031
0.0
1021
-0.017498699112366
1031
0.0
  0
VERTEX
  5
107
  8
LOTS
 10
652.61331516295365
 20
4677.4655393196999
 30
0.0535714285331633
  0
VERTEX
  5
108
  8
LOTS
 10
652.63106424491366
 20
4677.4542590449691
 30
0.0535714285331633
  0
VERTEX
  5
109
  8
LOTS
 10
652.64826059707627
 20
4677.4438550659188
 30
0.0535714285331633
  0
VERTEX
  5
10A
  8
LOTS
 10
652.6737626501357
 20
4677.4308707424598
 30
0.0535714285331633
  0
VERTEX
  5
10B
  8
LOTS
 10
652.69062087575423
 20
4677.4476594186453
 30
0.0535714285331633
  0
VERTEX
  5
10C
  8
LOTS
 10
652.70194551129055
 20
4677.458205897372
 30
0.0535714285331633
  0
VERTEX
  5
10D
  8
LOTS
 10
652.71771015668639
 20
4677.4767841993798
 30
0.0535714285331633
  0
VERTEX
  5
10E
  8
LOTS
 10
652.72066455885272
 20
4677.485620749364
 30
0.0535714285331633
  0
VERTEX
  5
10F
  8
LOTS
 10
652.65503393169365
 20
4677.5372222818096
 30
0.0535714285331633
  0
VERTEX
  5
110
  8
LOTS
 10
652.63824470371082
 20
4677.5082440759188
 30
0.0535714285331633
  0
SEQEND
  5
111
  8
LOTS
  0
POLYLINE
  5
75
  8
LOTS
 66
     1
 10
0.0
 20
0.0
 30
0.0666666664444445
 70
     1
1001
DCO15
1071
        2
1071
        2
1000
collections
1004
0730304131303500
1001
ADE
1011
-0.011188333057703
1021
0.0
1031
0.0
1021
-0.0716050759801874
1031
0.0
  0
VERTEX
  5
112
  8
LOTS
 10
633.86643731023753
 20
4682.9876157223453
 30
0.0666666664444445
  0
VERTEX
  5
113
  8
LOTS
 10
633.84542278997765
 20
4682.9589090826003
 30
0.0666666664444445
  0
VERTEX
  5
114
  8
LOTS
 10
633.77010689156816
 20
4682.7643871553482
 30
0.0666666664444445
  0
VERTEX
  5
115
  8
LOTS
 10
633.82781983580753
 20
4682.7876139682066
 30
0.0666666664444445
  0
VERTEX
  5
116
  8
LOTS
 10
633.87726037394896
 20
4682.9045456221656
 30
0.0666666664444445
  0
VERTEX
  5
117
  8
LOTS
 10
633.88426169674244
 20
4682.9568012971858
 30
0.0666666664444445
  0
SEQEND
  5
118
  8
LOTS
  0
POLYLINE
  5
76
  8
LOTS
 66
     1
 10
0.0
 20
0.0
 30
0.0638
 70
     1
1001
DCO15
1071
        2
1071
        2
1000
collections
1004
0730304530323300
1001
ADE
1011
-0.0642939287366744
1021
0.0
1031
0.0
1021
0.0349841398947319
1031
0.0
  0
VERTEX
  5
119
  8
LOTS
 10
646.10228879565022
 20
4680.5956371138454
 30
0.0638
  0
VERTEX
  5
11A
  8
LOTS
 10
646.06390680867935
 20
4680.5668186703306
 30
0.0638
  0
VERTEX
  5
11B
  8
LOTS
 10
646.04020579323833
 20
4680.5383423356807
 30
0.0638
  0
VERTEX
  5
11C
  8
LOTS
 10
646.02073853165052
 20
4680.5013668650163
 30
0.0638
  0
VERTEX
  5
11D
  8
LOTS
 10
645.99806913481905
 20
4680.4649785298452
 30
0.0638
  0
VERTEX
  5
11E
  8
LOTS
 10
645.95406275371067
 20
4680.5047662594416
 30
0.0638
  0
VERTEX
  5
11F
  8
LOTS
 10
645.91258255309504
 20
4680.5462973222084
 30
0.0638
  0
VERTEX
  5
120
  8
LOTS
 10
645.87873395340762
 20
4680.5798094918719
 30
0.0638
  0
VERTEX
  5
121
  8
LOTS
 10
645.87236092439525
 20
4680.585666904999
 30
0.0638
  0
VERTEX
  5
122
  8
LOTS
 10
645.90466912894601
 20
4680.6746236270819
 30
0.0638
  0
SEQEND
  5
123
  8
LOTS
  0
POLYLINE
  5
77
  8
LOTS
 66
     1
 10
0.0
 20
0.0
 30
0.0333333332222222
 70
     1
1001
DCO15
1071
        2
1071
        2
1000
collections
1004
0730304231383700
1001
ADE
1011
0.0131542807187088
1021
0.0
1031
0.0
1021
-0.0109391398964363
1031
0.0
  0
VERTEX
  5
124
  8
LOTS
 10
629.57892601508922
 20
4680.1921929490736
 30
0.0333333332222222
  0
VERTEX
  5
125
  8
LOTS
 10
629.53098494178209
 20
4680.1940016217968
 30
0.0333333332222222
  0
VERTEX
  5
126
  8
LOTS
 10
629.53690442472669
 20
4680.167806089331
 30
0.0333333332222222
  0
VERTEX
  5
127
  8
LOTS
 10
629.53013929524411
 20
4680.1365404760181
 30
0.0333333332222222
  0
VERTEX
  5
128
  8
LOTS
 10
629.61109440777227
 20
4680.1259484560569
 30
0.0333333332222222
  0
VERTEX
  5
129
  8
LOTS
 10
629.60404694715885
 20
4680.1603563557383
 30
0.0333333332222222
  0
SEQEND
  5
12A
  8
LOTS
  0
POLYLINE
  5
78
  8
LOTS
 66
     1
 10
0.0
 20
0.0
 30
0.099999999
 70
     1
1001
DCO15
1071
        2
1071
        2
1000
collections
1004
0730304231383500
1001
ADE
1011
-0.030417616731711
1021
0.0
1031
0.0
1021
-0.0223901241952262
1031
0.0
  0
VERTEX
  5
12B
  8
LOTS
 10
630.07359536264391
 20
4680.1397691731063
 30
0.099999999
  0
VERTEX
  5
12C
  8
LOTS
 10
630.01514923536115
 20
4680.1156033340858
 30
0.099999999
  0
VERTEX
  5
12D
  8
LOTS
 10
630.00392841722191
 20
4680.1187860202008
 30
0.099999999
  0
VERTEX
  5
12E
  8
LOTS
 10
629.99493796853301
 20
4680.0850635144488
 30
0.099999999
  0
VERTEX
  5
12F
  8
LOTS
 10
630.0788411076536
 20
4680.0994368201691
 30
0.099999999
  0
SEQEND
  5
130
  8
LOTS
  0
POLYLINE
  5
79
  8
LOTS
 66
     1
 10
0.0
 20
0.0
 30
0.0156249999902344
 70
     1
1001
DCO15
1071
        2
1071
        2
1000
collections
1004
0730304430313200
1001
ADE
1011
-0.0643595413018829
1021
0.0
1031
0.0
1021
-0.0220025616736166
1031
0.0
  0
VERTEX
  5
131
  8
LOTS
 10
644.07978800182843
 20
4676.4527318141609
 30
0.0156249999902344
  0
VERTEX
  5
132
  8
LOTS
 10
644.08123794666346
 20
4676.4173741861759
 30
0.0156249999902344
  0
VERTEX
  5
133
  8
LOTS
 10
644.07508203275324
 20
4676.3876993783033
 30
0.0156249999902344
  0
VERTEX
  5
134
  8
LOTS
 10
644.06808670590556
 20
4676.3574905877194
 30
0.0156249999902344
  0
VERTEX
  5
135
  8
LOTS
 10
644.04704016500625
 20
4676.3284109800234
 30
0.0156249999902344
  0
VERTEX
  5
136
  8
LOTS
 10
644.0017139471355
 20
4676.3125473349264
 30
0.0156249999902344
  0
VERTEX
  5
137
  8
LOTS
 10
643.9586085322652
 20
4676.3101595254657
 30
0.0156249999902344
  0
VERTEX
  5
138
  8
LOTS
 10
643.92904017049614
 20
4676.3212809529286
 30
0.0156249999902344
  0
VERTEX
  5
139
  8
LOTS
 10
643.91400794392246
 20
4676.3538938703623
 30
0.0156249999902344
  0
VERTEX
  5
13A
  8
LOTS
 10
643.92150976586095
 20
4676.3948553599739
 30
0.0156249999902344
  0
VERTEX
  5
13B
  8
LOTS
 10
643.93652490852764
 20
4676.4386916609328
 30
0.0156249999902344
  0
VERTEX
  5
13C
  8
LOTS
 10
643.95990636439205
 20
4676.4608214989748
 30
0.0156249999902344
  0
VERTEX
  5
13D
  8
LOTS
 10
644.00029663707119
 20
4676.4781708994951
 30
0.0156249999902344
  0
VERTEX
  5
13E
  8
LOTS
 10
644.03143354568022
 20
4676.4758474833188
 30
0.0156249999902344
  0
VERTEX
  5
13F
  8
LOTS
 10
644.05743935790576
 20
4676.4659063810541
 30
0.0156249999902344
  0
SEQEND
  5
140
  8
LOTS
  0
POLYLINE
  5
7A
  8
LOTS
 66
     1
 10
0.0
 20
0.0
 30
0.0166666666555556
 70
     1
1001
DCO15
1071
        2
1071
        2
1000
collections
1004
0730304430303700
1001
ADE
1011
-0.0693867992487185
1021
0.0
1031
0.0
1021
-0.0212173549025465
1031
0.0
  0
VERTEX
  5
141
  8
LOTS
 10
644.03451511674302
 20
4676.9157073091728
 30
0.0166666666555556
  0
VERTEX
  5
142
  8
LOTS
 10
644.02785927852483
 20
4676.9528324681196
 30
0.0166666666555556
  0
VERTEX
  5
143
  8
LOTS
 10
644.03737875785657
 20
4676.9849190687009
 30
0.0166666666555556
  0
VERTEX
  5
144
  8
LOTS
 10
644.08246459589805
 20
4677.002443798654
 30
0.0166666666555556
  0
VERTEX
  5
145
  8
LOTS
 10
644.13986751832203
 20
4677.0023172022338
 30
0.0166666666555556
  0
VERTEX
  5
146
  8
LOTS
 10
644.18535307679451
 20
4676.9869907156681
 30
0.0166666666555556
  0
VERTEX
  5
147
  8
LOTS
 10
644.21459235364728
 20
4676.9733924450993
 30
0.0166666666555556
  0
VERTEX
  5
148
  8
LOTS
 10
644.22014682515135
 20
4676.9492623621281
 30
0.0166666666555556
  0
VERTEX
  5
149
  8
LOTS
 10
644.21199482779525
 20
4676.916594469456
 30
0.0166666666555556
  0
VERTEX
  5
14A
  8
LOTS
 10
644.18060746419906
 20
4676.8943602660529
 30
0.0166666666555556
  0
VERTEX
  5
14B
  8
LOTS
 10
644.13281239763921
 20
4676.8920729890224
 30
0.0166666666555556
  0
VERTEX
  5
14C
  8
LOTS
 10
644.08323413984249
 20
4676.896723654304
 30
0.0166666666555556
  0
VERTEX
  5
14D
  8
LOTS
 10
644.05736226134115
 20
4676.9000381581582
 30
0.0166666666555556
  0
SEQEND
  5
14E
  8
LOTS
  0
POLYLINE
  5
7B
  8
LOTS
 66
     1
 10
0.0
 20
0.0
 30
0.2105263156786703
 70
     1
1001
DCO15
1071
        2
1071
        2
1000
collections
1004
0739394430383800
1001
ADE
1011
-0.0000921166807757
1021
0.0
1031
0.0
1021
-0.0189930229917081
1031
0.0
  0
VERTEX
  5
14F
  8
LOTS
 10
646.6405274962284
 20
4669.6696092095272
 30
0.2105263156786703
  0
VERTEX
  5
150
  8
LOTS
 10
646.62843323478387
 20
4669.6639694358009
 30
0.2105263156786703
  0
VERTEX
  5
151
  8
LOTS
 10
646.60992481136145
 20
4669.672372379483
 30
0.2105263156786703
  0
VERTEX
  5
152
  8
LOTS
 10
646.60598559097195
 20
4669.7112800187297
 30
0.2105263156786703
  0
VERTEX
  5
153
  8
LOTS
 10
646.63072749325136
 20
4669.7561022280943
 30
0.2105263156786703
  0
VERTEX
  5
154
  8
LOTS
 10
646.6542569251942
 20
4669.7645859126787
 30
0.2105263156786703
  0
VERTEX
  5
155
  8
LOTS
 10
646.67129151386848
 20
4669.7587559296917
 30
0.2105263156786703
  0
VERTEX
  5
156
  8
LOTS
 10
646.67172004000361
 20
4669.7358433100353
 30
0.2105263156786703
  0
SEQEND
  5
157
  8
LOTS
  0
POLYLINE
  5
7C
  8
LOTS
 66
     1
 10
0.0
 20
0.0
 30
0.0333333332222222
 70
     1
1001
DCO15
1071
        2
1071
        2
1000
collections
1004
0730314431373700
1001
ADE
1011
-0.0034955808638415
1021
0.0
1031
0.0
1021
-0.0043392390116424
1031
0.0
  0
VERTEX
  5
158
  8
LOTS
 10
637.9999640777213
 20
4697.6514250931923
 30
0.0333333332222222
  0
VERTEX
  5
159
  8
LOTS
 10
638.01433866307445
 20
4697.64653647041
 30
0.0333333332222222
  0
VERTEX
  5
15A
  8
LOTS
 10
638.03964903115627
 20
4697.6363427432798
 30
0.0333333332222222
  0
VERTEX
  5
15B
  8
LOTS
 10
638.03823255493728
 20
4697.6170675812182
 30
0.0333333332222222
  0
VERTEX
  5
15C
  8
LOTS
 10
638.03123069820435
 20
4697.5978138091714
 30
0.0333333332222222
  0
VERTEX
  5
15D
  8
LOTS
 10
638.01398729863536
 20
4697.5968594242067
 30
0.0333333332222222
  0
VERTEX
  5
15E
  8
LOTS
 10
637.9979480459175
 20
4697.6018081284383
 30
0.0333333332222222
  0
VERTEX
  5
15F
  8
LOTS
 10
637.98958475873428
 20
4697.6197243778888
 30
0.0333333332222222
  0
VERTEX
  5
160
  8
LOTS
 10
637.99344413151266
 20
4697.6317935310099
 30
0.0333333332222222
  0
SEQEND
  5
161
  8
LOTS
  0
POLYLINE
  5
7D
  8
LOTS
 66
     1
 10
0.0
 20
0.0
 30
0.0217391304253308
 70
     1
1001
DCO15
1071
        2
1071
        2
1000
collections
1004
0730314531333900
1001
ADE
1011
-0.0170960291424081
1021
0.0
1031
0.0
1021
-0.0468765521636669
1031
0.0
  0
VERTEX
  5
162
  8
LOTS
 10
650.46115501219606
 20
4693.05134939037
 30
0.0217391304253308
  0
VERTEX
  5
163
  8
LOTS
 10
650.45330598024839
 20
4693.0839872372962
 30
0.0217391304253308
  0
VERTEX
  5
164
  8
LOTS
 10
650.43056270052637
 20
4693.1235300269873
 30
0.0217391304253308
  0
VERTEX
  5
165
  8
LOTS
 10
650.39637020410703
 20
4693.1435744926803
 30
0.0217391304253308
  0
VERTEX
  5
166
  8
LOTS
 10
650.37543690515531
 20
4693.0946326378744
 30
0.0217391304253308
  0
VERTEX
  5
167
  8
LOTS
 10
650.35715178062605
 20
4693.0173821841563
 30
0.0217391304253308
  0
VERTEX
  5
168
  8
LOTS
 10
650.42348882509521
 20
4693.0106727703906
 30
0.0217391304253308
  0
SEQEND
  5
169
  8
LOTS
  0
POLYLINE
  5
7E
  8
LOTS
 66
     1
 10
0.0
 20
0.0
 30
0.0227272727169422
 70
     1
1001
DCO15
1071
        2
1071
        2
1000
collections
1004
0730314233333400
1001
ADE
1011
0.0092202969234449
1021
0.0
1031
0.0
1021
-0.0059731182091127
1031
0.0
  0
VERTEX
  5
16A
  8
LOTS
 10
638.01574650914517
 20
4689.1021146022731
 30
0.0227272727169422
  0
VERTEX
  5
16B
  8
LOTS
 10
638.04021139762665
 20
4689.0553495425429
 30
0.0227272727169422
  0
VERTEX
  5
16C
  8
LOTS
 10
638.0121720680005
 20
4689.0538093728292
 30
0.0227272727169422
  0
VERTEX
  5
16D
  8
LOTS
 10
637.97131252821066
 20
4689.056507697097
 30
0.0227272727169422
  0
VERTEX
  5
16E
  8
LOTS
 10
637.94494569849132
 20
4689.0729601864614
 30
0.0227272727169422
  0
VERTEX
  5
16F
  8
LOTS
 10
637.94760570512494
 20
4689.088272130798
 30
0.0227272727169422
  0
VERTEX
  5
170
  8
LOTS
 10
637.97774571676723
 20
4689.0979101396606
 30
0.0227272727169422
  0
SEQEND
  5
171
  8
LOTS
  0
POLYLINE
  5
7F
  8
LOTS
 66
     1
 10
0.0
 20
0.0
 30
0.0001288881251072
 70
     1
1001
DCO15
1071
        2
1071
        2
1000
collections
1004
0730345031353900
1001
ADE
1011
-0.031872858000952
1021
0.0
1031
0.0
1021
0.0096220328023264
1031
0.0
  0
VERTEX
  5
172
  8
LOTS
 10
635.2619573395383
 20
4691.9557920283378
 30
0.0001288881251072
  0
VERTEX
  5
173
  8
LOTS
 10
635.336824434812
 20
4691.9324762319784
 30
0.0001288881251072
  0
VERTEX
  5
174
  8
LOTS
 10
635.3514089333047
 20
4691.9285902663223
 30
0.0001288881251072
  0
VERTEX
  5
175
  8
LOTS
 10
635.3747441326135
 20
4692.0189389751122
 30
0.0001288881251072
  0
VERTEX
  5
176
  8
LOTS
 10
635.32612913548724
 20
4692.0218534493561
 30
0.0001288881251072
  0
VERTEX
  5
177
  8
LOTS
 10
635.28723713735587
 20
4692.029625381876
 30
0.0001288881251072
  0
VERTEX
  5
178
  8
LOTS
 10
635.2502897398839
 20
4692.0247679248032
 30
0.0001288881251072
  0
SEQEND
  5
179
  8
LOTS
  0
POLYLINE
  5
80
  8
LOTS
 66
     1
 10
0.0
 20
0.0
 30
0.0001375894331308
 70
     1
1001
DCO15
1071
        2
1071
        2
1000
collections
1004
0730345031343800
1001
ADE
1011
-0.0170463472416032
1021
0.0
1031
0.0
1021
0.0281513247609837
1031
0.0
  0
VERTEX
  5
17A
  8
LOTS
 10
634.88956645952794
 20
4691.7993818973273
 30
0.0001375894331308
  0
VERTEX
  5
17B
  8
LOTS
 10
634.91095705817747
 20
4691.7576077640842
 30
0.0001375894331308
  0
VERTEX
  5
17C
  8
LOTS
 10
634.91095705817747
 20
4691.7576077640842
 30
0.0001375894331308
  0
VERTEX
  5
17D
  8
LOTS
 10
634.90804015933918
 20
4691.726520035204
 30
0.0001375894331308
  0
VERTEX
  5
17E
  8
LOTS
 10
634.87984346053281
 20
4691.7138906468081
 30
0.0001375894331308
  0
VERTEX
  5
17F
  8
LOTS
 10
634.84678526222865
 20
4691.726520035204
 30
0.0001375894331308
  0
VERTEX
  5
180
  8
LOTS
 10
634.82733926423839
 20
4691.7809235592422
 30
0.0001375894331308
  0
VERTEX
  5
181
  8
LOTS
 10
634.83900686174229
 20
4691.8129827783359
 30
0.0001375894331308
  0
VERTEX
  5
182
  8
LOTS
 10
634.86623126021925
 20
4691.8197832194419
 30
0.0001375894331308
  0
SEQEND
  5
183
  8
LOTS
  0
POLYLINE
  5
81
  8
LOTS
 66
     1
 10
0.0
 20
0.0
 30
0.0227272727066116
 70
     1
1001
DCO15
1071
        1
1071
        1
1000
collections
1004
0730345030313900
1001
ADE
1011
-0.0039270316937063
1021
0.0
1031
0.0
1021
-0.0276277183420461
1031
0.0
  0
VERTEX
  5
184
  8
LOTS
 10
636.15570079711335
 20
4690.8477970436643
 30
0.0227272727066116
  0
VERTEX
  5
185
  8
LOTS
 10
636.14919817777195
 20
4690.8581762141321
 30
0.0227272727066116
  0
VERTEX
  5
186
  8
LOTS
 10
636.13375291712441
 20
4690.8666330870083
 30
0.0227272727066116
  0
VERTEX
  5
187
  8
LOTS
 10
636.11687112731363
 20
4690.8705096381364
 30
0.0227272727066116
  0
VERTEX
  5
188
  8
LOTS
 10
636.10176531096351
 20
4690.8707904143284
 30
0.0227272727066116
  0
VERTEX
  5
189
  8
LOTS
 10
636.08506865233198
 20
4690.8631459670378
 30
0.0227272727066116
  0
VERTEX
  5
18A
  8
LOTS
 10
636.07425941351914
 20
4690.8533342849923
 30
0.0227272727066116
  0
VERTEX
  5
18B
  8
LOTS
 10
636.07334449181485
 20
4690.8355067554148
 30
0.0227272727066116
  0
VERTEX
  5
18C
  8
LOTS
 10
636.08037670760029
 20
4690.8205721452232
 30
0.0227272727066116
  0
VERTEX
  5
18D
  8
LOTS
 10
636.08515608554956
 20
4690.8034066111977
 30
0.0227272727066116
  0
VERTEX
  5
18E
  8
LOTS
 10
636.09080952520719
 20
4690.7886511961506
 30
0.0227272727066116
  0
VERTEX
  5
18F
  8
LOTS
 10
636.10355795465352
 20
4690.7788623431779
 30
0.0227272727066116
  0
VERTEX
  5
190
  8
LOTS
 10
636.11409440625903
 20
4690.7822599769843
 30
0.0227272727066116
  0
VERTEX
  5
191
  8
LOTS
 10
636.12556267260845
 20
4690.7928272466488
 30
0.0227272727066116
  0
VERTEX
  5
192
  8
LOTS
 10
636.14040871170403
 20
4690.8099658456968
 30
0.0227272727066116
  0
VERTEX
  5
193
  8
LOTS
 10
636.14551269385981
 20
4690.8168736513571
 30
0.0227272727066116
  0
VERTEX
  5
194
  8
LOTS
 10
636.15223240032185
 20
4690.829740554891
 30
0.0227272727066116
  0
SEQEND
  5
195
  8
LOTS
  0
POLYLINE
  5
82
  8
LOTS
 66
     1
 10
0.0
 20
0.0
 30
0.0131578947299169
 70
     1
1001
DCO15
1071
        1
1071
        1
1000
collections
1004
0730374230393900
1001
ADE
1011
-0.0354577817142854
1021
0.0
1031
0.0
1021
-0.0146846534544238
1031
0.0
  0
VERTEX
  5
196
  8
LOTS
 10
630.92836899799295
 20
4695.2739591393329
 30
0.0131578947299169
  0
VERTEX
  5
197
  8
LOTS
 10
630.92730099252003
 20
4695.293184081459
 30
0.0131578947299169
  0
VERTEX
  5
198
  8
LOTS
 10
630.92943700346575
 20
4695.315611352793
 30
0.0131578947299169
  0
VERTEX
  5
199
  8
LOTS
 10
630.93798104725272
 20
4695.3273568821796
 30
0.0131578947299169
  0
VERTEX
  5
19A
  8
LOTS
 10
630.95934115671832
 20
4695.3316229988277
 30
0.0131578947299169
  0
VERTEX
  5
19B
  8
LOTS
 10
630.9924706865022
 20
4695.3284206696217
 30
0.0131578947299169
  0
VERTEX
  5
19C
  8
LOTS
 10
631.02239619986346
 20
4695.3188136820008
 30
0.0131578947299169
  0
VERTEX
  5
19D
  8
LOTS
 10
631.03200824912346
 20
4695.3102704818184
 30
0.0131578947299169
  0
VERTEX
  5
19E
  8
LOTS
 10
631.0341442600693
 20
4695.295322623223
 30
0.0131578947299169
  0
VERTEX
  5
19F
  8
LOTS
 10
631.02666822175524
 20
4695.2782362228636
 30
0.0131578947299169
  0
VERTEX
  5
1A0
  8
LOTS
 10
631.01169478502175
 20
4695.269693022683
 30
0.0131578947299169
  0
VERTEX
  5
1A1
  8
LOTS
 10
631.00208273576209
 20
4695.2632773973874
 30
0.0131578947299169
  0
SEQEND
  5
1A2
  8
LOTS
  0
POLYLINE
  5
83
  8
LOTS
 66
     1
 10
0.0
 20
0.0
 30
0.0166666666388889
 70
     1
1001
DCO15
1071
        1
1071
        1
1000
collections
1004
0730374231303400
1001
ADE
1011
-0.0203027840507275
1021
0.0
1031
0.0
1021
-0.0096179545043924
1031
0.0
  0
VERTEX
  5
1A3
  8
LOTS
 10
630.96664631415842
 20
4694.9709332546327
 30
0.0166666666388889
  0
VERTEX
  5
1A4
  8
LOTS
 10
630.95917027584414
 20
4694.9773488799301
 30
0.0166666666388889
  0
VERTEX
  5
1A5
  8
LOTS
 10
630.95917027584414
 20
4694.9890944093167
 30
0.0166666666388889
  0
VERTEX
  5
1A6
  8
LOTS
 10
630.96771431963134
 20
4694.9987013969367
 30
0.0166666666388889
  0
VERTEX
  5
1A7
  8
LOTS
 10
630.98480240720164
 20
4695.0029784804701
 30
0.0166666666388889
  0
VERTEX
  5
1A8
  8
LOTS
 10
631.0072305221438
 20
4695.0008399387043
 30
0.0166666666388889
  0
VERTEX
  5
1A9
  8
LOTS
 10
631.02967999719112
 20
4694.9954990677334
 30
0.0166666666388889
  0
VERTEX
  5
1AA
  8
LOTS
 10
631.03395201908643
 20
4694.984817325786
 30
0.0166666666388889
  0
VERTEX
  5
1AB
  8
LOTS
 10
631.02861199171821
 20
4694.9741355838432
 30
0.0166666666388889
  0
VERTEX
  5
1AC
  8
LOTS
 10
631.01579592603935
 20
4694.9698694671906
 30
0.0166666666388889
  0
VERTEX
  5
1AD
  8
LOTS
 10
630.98907442909695
 20
4694.9688056797486
 30
0.0166666666388889
  0
SEQEND
  5
1AE
  8
LOTS
  0
POLYLINE
  5
84
  8
LOTS
 66
     1
 10
0.0
 20
0.0
 30
0.0999999999
 70
     1
1001
DCO15
1071
        1
1071
        1
1000
collections
1004
0730374230373600
1001
ADE
1011
-0.008554723839552
1021
0.0
1031
0.0
1021
-0.0037342229270507
1031
0.0
  0
VERTEX
  5
1AF
  8
LOTS
 10
630.46981016797145
 20
4694.7557849861641
 30
0.0999999999
  0
VERTEX
  5
1B0
  8
LOTS
 10
630.4569941022927
 20
4694.7600620696958
 30
0.0999999999
  0
VERTEX
  5
1B1
  8
LOTS
 10
630.45058606945145
 20
4694.7675414824344
 30
0.0999999999
  0
VERTEX
  5
1B2
  8
LOTS
 10
630.45165407492436
 20
4694.7835531284709
 30
0.0999999999
  0
VERTEX
  5
1B3
  8
LOTS
 10
630.45913011323853
 20
4694.7952986578584
 30
0.0999999999
  0
VERTEX
  5
1B4
  8
LOTS
 10
630.47517155544836
 20
4694.7995757413883
 30
0.0999999999
  0
VERTEX
  5
1B5
  8
LOTS
 10
630.49119163754585
 20
4694.7931710829744
 30
0.0999999999
  0
VERTEX
  5
1B6
  8
LOTS
 10
630.49973568133282
 20
4694.779287011821
 30
0.0999999999
  0
VERTEX
  5
1B7
  8
LOTS
 10
630.49759967038699
 20
4694.762200611457
 30
0.0999999999
  0
VERTEX
  5
1B8
  8
LOTS
 10
630.49012363207294
 20
4694.7557849861641
 30
0.0999999999
  0
SEQEND
  5
1B9
  8
LOTS
  0
POLYLINE
  5
85
  8
LOTS
 66
     1
 10
0.0
 20
0.0
 30
0.4999999997727273
 70
     1
1001
DCO15
1071
        1
1071
        1
1000
collections
1004
0730374230383100
1001
ADE
1011
-0.003214696473151
1021
0.0
1031
0.0
1021
-0.011213635666536
1031
0.0
  0
VERTEX
  5
1BA
  8
LOTS
 10
630.09906274796595
 20
4694.7162822813489
 30
0.4999999997727273
  0
VERTEX
  5
1BB
  8
LOTS
 10
630.10869615733452
 20
4694.708802868613
 30
0.4999999997727273
  0
VERTEX
  5
1BC
  8
LOTS
 10
630.11296817922619
 20
4694.6959825849017
 30
0.4999999997727273
  0
VERTEX
  5
1BD
  8
LOTS
 10
630.11296817922619
 20
4694.684237055515
 30
0.4999999997727273
  0
VERTEX
  5
1BE
  8
LOTS
 10
630.11083216828035
 20
4694.6703529843617
 30
0.4999999997727273
  0
VERTEX
  5
1BF
  8
LOTS
 10
630.10122011902035
 20
4694.659682209297
 30
0.4999999997727273
  0
VERTEX
  5
1C0
  8
LOTS
 10
630.08838269323314
 20
4694.6457981381463
 30
0.4999999997727273
  0
VERTEX
  5
1C1
  8
LOTS
 10
630.07663463302345
 20
4694.6425958089367
 30
0.4999999997727273
  0
VERTEX
  5
1C2
  8
LOTS
 10
630.06809058924046
 20
4694.6468619255857
 30
0.4999999997727273
  0
VERTEX
  5
1C3
  8
LOTS
 10
630.06915859471326
 20
4694.6628845385039
 30
0.4999999997727273
  0
VERTEX
  5
1C4
  8
LOTS
 10
630.07556662755087
 20
4694.6885141390439
 30
0.4999999997727273
  0
VERTEX
  5
1C5
  8
LOTS
 10
630.08517867681076
 20
4694.7077390811719
 30
0.4999999997727273
  0
VERTEX
  5
1C6
  8
LOTS
 10
630.09051870417898
 20
4694.7109414103761
 30
0.4999999997727273
  0
SEQEND
  5
1C7
  8
LOTS
  0
POLYLINE
  5
86
  8
LOTS
 66
     1
 10
0.0
 20
0.0
 30
0.2231
 70
     1
1001
DCO15
1071
        1
1071
        1
1000
collections
1004
0730374230383700
1001
ADE
1011
-0.0251088086752134
1021
0.0
1031
0.0
1021
-0.0101443647845372
1031
0.0
  0
VERTEX
  5
1C8
  8
LOTS
 10
630.06809058924046
 20
4694.4407613338171
 30
0.2231
  0
VERTEX
  5
1C9
  8
LOTS
 10
630.0606145509264
 20
4694.452506863202
 30
0.2231
  0
VERTEX
  5
1CA
  8
LOTS
 10
630.05634252903087
 20
4694.4727955927719
 30
0.2231
  0
VERTEX
  5
1CB
  8
LOTS
 10
630.05527452355796
 20
4694.4898819931332
 30
0.2231
  0
VERTEX
  5
1CC
  8
LOTS
 10
630.05954654545326
 20
4694.5059046060533
 30
0.2231
  0
VERTEX
  5
1CD
  8
LOTS
 10
630.0712946056592
 20
4694.5176501354399
 30
0.2231
  0
VERTEX
  5
1CE
  8
LOTS
 10
630.09051870417898
 20
4694.5283318773854
 30
0.2231
  0
VERTEX
  5
1CF
  8
LOTS
 10
630.10442413543922
 20
4694.5293956648293
 30
0.2231
  0
VERTEX
  5
1D0
  8
LOTS
 10
630.13432828869554
 20
4694.5272571230616
 30
0.2231
  0
VERTEX
  5
1D1
  8
LOTS
 10
630.14821235984709
 20
4694.4973614058708
 30
0.2231
  0
VERTEX
  5
1D2
  8
LOTS
 10
630.15034837079281
 20
4694.4749341345378
 30
0.2231
  0
VERTEX
  5
1D3
  8
LOTS
 10
630.14714435437406
 20
4694.4557091924116
 30
0.2231
  0
SEQEND
  5
1D4
  8
LOTS
  0
POLYLINE
  5
87
  8
LOTS
 66
     1
 10
0.0
 20
0.0
 30
0.1086956521266541
 70
     1
1001
DCO15
1071
        1
1071
        1
1000
collections
1004
0730374230383600
1001
ADE
1011
-0.0267001368338242
1021
0.0
1031
0.0
1021
-0.0117455293875537
1031
0.0
  0
VERTEX
  5
1D5
  8
LOTS
 10
630.06915859471326
 20
4694.4343566754023
 30
0.1086956521266541
  0
VERTEX
  5
1D6
  8
LOTS
 10
630.05741053450402
 20
4694.4322181336374
 30
0.1086956521266541
  0
VERTEX
  5
1D7
  8
LOTS
 10
630.0413690922976
 20
4694.4236749334559
 30
0.1086956521266541
  0
VERTEX
  5
1D8
  8
LOTS
 10
630.03709707040252
 20
4694.4044499913289
 30
0.1086956521266541
  0
VERTEX
  5
1D9
  8
LOTS
 10
630.0413690922976
 20
4694.3927044619431
 30
0.1086956521266541
  0
VERTEX
  5
1DA
  8
LOTS
 10
630.05207050713921
 20
4694.3884273784097
 30
0.1086956521266541
  0
VERTEX
  5
1DB
  8
LOTS
 10
630.07877064397326
 20
4694.3895021327353
 30
0.1086956521266541
  0
VERTEX
  5
1DC
  8
LOTS
 10
630.11190017375316
 20
4694.3905659201773
 30
0.1086956521266541
  0
VERTEX
  5
1DD
  8
LOTS
 10
630.12471623943566
 20
4694.3948430037071
 30
0.1086956521266541
  0
VERTEX
  5
1DE
  8
LOTS
 10
630.1193762120671
 20
4694.443963663025
 30
0.1086956521266541
  0
SEQEND
  5
1DF
  8
LOTS
  0
POLYLINE
  5
88
  8
LOTS
 66
     1
 10
0.0
 20
0.0
 30
0.1415428166187919
 70
     1
1001
DCO15
1071
        1
1071
        1
1000
collections
1004
0730374230383400
1001
ADE
1011
0.0037273391008057
1021
0.0
1031
0.0
1021
-0.0090805773425018
1031
0.0
  0
VERTEX
  5
1E0
  8
LOTS
 10
630.26896105866035
 20
4694.498425193311
 30
0.1415428166187919
  0
VERTEX
  5
1E1
  8
LOTS
 10
630.2764370969744
 20
4694.4856158764833
 30
0.1415428166187919
  0
VERTEX
  5
1E2
  8
LOTS
 10
630.29459319001751
 20
4694.4781364637456
 30
0.1415428166187919
  0
VERTEX
  5
1E3
  8
LOTS
 10
630.31597465959555
 20
4694.4770726763036
 30
0.1415428166187919
  0
VERTEX
  5
1E4
  8
LOTS
 10
630.32451870338252
 20
4694.4877434513674
 30
0.1415428166187919
  0
VERTEX
  5
1E5
  8
LOTS
 10
630.32558670885555
 20
4694.498425193311
 30
0.1415428166187919
  0
VERTEX
  5
1E6
  8
LOTS
 10
630.31917867601442
 20
4694.5112454770242
 30
0.1415428166187919
  0
VERTEX
  5
1E7
  8
LOTS
 10
630.31597465959555
 20
4694.5144478062321
 30
0.1415428166187919
  0
SEQEND
  5
1E8
  8
LOTS
  0
POLYLINE
  5
89
  8
LOTS
 66
     1
 10
0.0
 20
0.0
 30
0.1818181817355372
 70
     1
1001
DCO15
1071
        1
1071
        1
1000
collections
1004
0730374231313200
1001
ADE
1011
-0.0128053856242332
1021
0.0
1031
0.0
1021
-0.0058782481346498
1031
0.0
  0
VERTEX
  5
1E9
  8
LOTS
 10
631.47734517138451
 20
4694.92664898977
 30
0.1818181817355372
  0
VERTEX
  5
1EA
  8
LOTS
 10
631.47520916043845
 20
4694.9351921899506
 30
0.1818181817355372
  0
VERTEX
  5
1EB
  8
LOTS
 10
631.47520916043845
 20
4694.9469486862199
 30
0.1818181817355372
  0
VERTEX
  5
1EC
  8
LOTS
 10
631.48161719327993
 20
4694.95761946128
 30
0.1818181817355372
  0
VERTEX
  5
1ED
  8
LOTS
 10
631.49018259717525
 20
4694.9608217904888
 30
0.1818181817355372
  0
VERTEX
  5
1EE
  8
LOTS
 10
631.50193065738119
 20
4694.9608217904888
 30
0.1818181817355372
  0
VERTEX
  5
1EF
  8
LOTS
 10
631.5232907668468
 20
4694.9565556738426
 30
0.1818181817355372
  0
VERTEX
  5
1F0
  8
LOTS
 10
631.53076680516085
 20
4694.9501510154278
 30
0.1818181817355372
  0
VERTEX
  5
1F1
  8
LOTS
 10
631.53290281610634
 20
4694.9437353901303
 30
0.1818181817355372
  0
VERTEX
  5
1F2
  8
LOTS
 10
631.53183481063365
 20
4694.9373307317173
 30
0.1818181817355372
  0
VERTEX
  5
1F3
  8
LOTS
 10
631.52863079421513
 20
4694.9298622858569
 30
0.1818181817355372
  0
VERTEX
  5
1F4
  8
LOTS
 10
631.51474672305994
 20
4694.9255852023289
 30
0.1818181817355372
  0
VERTEX
  5
1F5
  8
LOTS
 10
631.50406666832725
 20
4694.9213190856781
 30
0.1818181817355372
  0
VERTEX
  5
1F6
  8
LOTS
 10
631.48268519875273
 20
4694.9234466605621
 30
0.1818181817355372
  0
SEQEND
  5
1F7
  8
LOTS
  0
POLYLINE
  5
8A
  8
LOTS
 66
     1
 10
0.0
 20
0.0
 30
0.1415428166683517
 70
     1
1001
DCO15
1071
        1
1071
        1
1000
collections
1004
0730374231363800
1001
ADE
1011
-0.0135489593394596
1021
0.0
1031
0.0
1021
-0.0045130111766412
1031
0.0
  0
VERTEX
  5
1F8
  8
LOTS
 10
665.36843491336913
 20
4691.0667401371729
 30
0.1415428166683517
  0
VERTEX
  5
1F9
  8
LOTS
 10
665.27355649584558
 20
4691.0727685061929
 30
0.1415428166683517
  0
VERTEX
  5
1FA
  8
LOTS
 10
665.27657332605645
 20
4691.0863130501202
 30
0.1415428166683517
  0
VERTEX
  5
1FB
  8
LOTS
 10
665.28258913540765
 20
4691.0968489199277
 30
0.1415428166683517
  0
VERTEX
  5
1FC
  8
LOTS
 10
665.29313911560519
 20
4691.1013674414971
 30
0.1415428166683517
  0
VERTEX
  5
1FD
  8
LOTS
 10
665.31272173536479
 20
4691.1028772889476
 30
0.1415428166683517
  0
VERTEX
  5
1FE
  8
LOTS
 10
665.33228650405715
 20
4691.1028772889476
 30
0.1415428166683517
  0
VERTEX
  5
1FF
  8
LOTS
 10
665.36090176337893
 20
4691.0953500932592
 30
0.1415428166683517
  0
VERTEX
  5
200
  8
LOTS
 10
665.37295123314834
 20
4691.092341419142
 30
0.1415428166683517
  0
SEQEND
  5
201
  8
LOTS
  0
POLYLINE
  5
8B
  8
LOTS
 66
     1
 10
0.0
 20
0.0
 30
0.0192307692233728
 70
     1
1001
DCO15
1071
        1
1071
        1
1000
collections
1004
0730374231363700
1001
ADE
1011
-0.0248576098583726
1021
0.0
1031
0.0
1021
0.0007549237261628
1031
0.0
  0
VERTEX
  5
202
  8
LOTS
 10
665.36543593422539
 20
4691.0592129414872
 30
0.0192307692233728
  0
VERTEX
  5
203
  8
LOTS
 10
665.36241910401804
 20
4691.0291041587316
 30
0.0192307692233728
  0
VERTEX
  5
204
  8
LOTS
 10
665.34433597383031
 20
4691.0306140061848
 30
0.0192307692233728
  0
VERTEX
  5
205
  8
LOTS
 10
665.32175437492697
 20
4691.0321128328533
 30
0.0192307692233728
  0
VERTEX
  5
206
  8
LOTS
 10
665.29915492496002
 20
4691.0336226803029
 30
0.0192307692233728
  0
VERTEX
  5
207
  8
LOTS
 10
665.28710545518686
 20
4691.0396400285408
 30
0.0192307692233728
  0
VERTEX
  5
208
  8
LOTS
 10
665.27807281562855
 20
4691.0471782450131
 30
0.0192307692233728
  0
VERTEX
  5
209
  8
LOTS
 10
665.27355649584558
 20
4691.0667401371729
 30
0.0192307692233728
  0
SEQEND
  5
20A
  8
LOTS
  0
POLYLINE
  5
8C
  8
LOTS
 66
     1
 10
0.0
 20
0.0
 30
0.0156249999902344
 70
     1
1001
DCO15
1071
        1
1071
        1
1000
collections
1004
0730374231373400
1001
ADE
1011
-0.0346489197363553
1021
0.0
1031
0.0
1021
-0.0210717396130349
1031
0.0
  0
VERTEX
  5
20B
  8
LOTS
 10
665.90309220088955
 20
4691.051685745796
 30
0.0156249999902344
  0
VERTEX
  5
20C
  8
LOTS
 10
665.89405956132759
 20
4691.0727685061929
 30
0.0156249999902344
  0
VERTEX
  5
20D
  8
LOTS
 10
665.89405956132759
 20
4691.0893217242392
 30
0.0156249999902344
  0
VERTEX
  5
20E
  8
LOTS
 10
665.90309220088955
 20
4691.1073958105171
 30
0.0156249999902344
  0
VERTEX
  5
20F
  8
LOTS
 10
665.93320694977945
 20
4691.1104044846361
 30
0.0156249999902344
  0
VERTEX
  5
210
  8
LOTS
 10
665.95580639975014
 20
4691.1119033113027
 30
0.0156249999902344
  0
VERTEX
  5
211
  8
LOTS
 10
665.97990533928885
 20
4691.1119033113027
 30
0.0156249999902344
  0
VERTEX
  5
212
  8
LOTS
 10
665.99948795904845
 20
4691.1058859630639
 30
0.0156249999902344
  0
VERTEX
  5
213
  8
LOTS
 10
666.00852059860699
 20
4691.0817945285507
 30
0.0156249999902344
  0
VERTEX
  5
214
  8
LOTS
 10
666.00248693819208
 20
4691.051685745796
 30
0.0156249999902344
  0
SEQEND
  5
215
  8
LOTS
  0
POLYLINE
  5
8D
  8
LOTS
 66
     1
 10
0.0
 20
0.0
 30
0.0277777777469136
 70
     1
1001
DCO15
1071
        1
1071
        1
1000
collections
1004
0730374231373500
1001
ADE
1011
-0.0278565890021128
1021
0.0
1031
0.0
1021
-0.0143049780426736
1031
0.0
  0
VERTEX
  5
216
  8
LOTS
 10
665.71031853563898
 20
4692.0558224672232
 30
0.0277777777469136
  0
VERTEX
  5
217
  8
LOTS
 10
665.68771908566828
 20
4692.0618398154602
 30
0.0277777777469136
  0
VERTEX
  5
218
  8
LOTS
 10
665.68320276588929
 20
4692.0723867060478
 30
0.0277777777469136
  0
VERTEX
  5
219
  8
LOTS
 10
665.67868644611019
 20
4692.0874410974257
 30
0.0277777777469136
  0
VERTEX
  5
21A
  8
LOTS
 10
665.68320276588929
 20
4692.100985641353
 30
0.0277777777469136
  0
VERTEX
  5
21B
  8
LOTS
 10
665.69525223565847
 20
4692.1085128370423
 30
0.0277777777469136
  0
VERTEX
  5
21C
  8
LOTS
 10
665.7223680054085
 20
4692.1130313586091
 30
0.0277777777469136
  0
VERTEX
  5
21D
  8
LOTS
 10
665.74043328452865
 20
4692.1115215111568
 30
0.0277777777469136
  0
VERTEX
  5
21E
  8
LOTS
 10
665.76453222406781
 20
4692.1039943154701
 30
0.0277777777469136
  0
VERTEX
  5
21F
  8
LOTS
 10
665.77508220426887
 20
4692.0904497715437
 30
0.0277777777469136
  0
VERTEX
  5
220
  8
LOTS
 10
665.7795985240482
 20
4692.0693670111486
 30
0.0277777777469136
  0
VERTEX
  5
221
  8
LOTS
 10
665.772065374058
 20
4692.0603409887945
 30
0.0277777777469136
  0
VERTEX
  5
222
  8
LOTS
 10
665.75248275429828
 20
4692.0543126197717
 30
0.0277777777469136
  0
SEQEND
  5
223
  8
LOTS
  0
POLYLINE
  5
8E
  8
LOTS
 66
     1
 10
0.0
 20
0.0
 30
0.0333333332777778
 70
     1
1001
DCO15
1071
        1
1071
        1
1000
collections
1004
0730374231373800
1001
ADE
1011
-0.0417893462708889
1021
0.0
1031
0.0
1021
-0.0105744425518424
1031
0.0
  0
VERTEX
  5
224
  8
LOTS
 10
666.13176436052163
 20
4691.469604907863
 30
0.0333333332777778
  0
VERTEX
  5
225
  8
LOTS
 10
666.10559469728832
 20
4691.46860201649
 30
0.0333333332777778
  0
VERTEX
  5
226
  8
LOTS
 10
666.07639035278055
 20
4691.4716217113919
 30
0.0333333332777778
  0
VERTEX
  5
227
  8
LOTS
 10
666.05725400967629
 20
4691.4716217113919
 30
0.0333333332777778
  0
VERTEX
  5
228
  8
LOTS
 10
666.03208400615745
 20
4691.4675881043331
 30
0.0333333332777778
  0
VERTEX
  5
229
  8
LOTS
 10
666.020998493972
 20
4691.4555093247209
 30
0.0333333332777778
  0
VERTEX
  5
22A
  8
LOTS
 10
666.01496483355356
 20
4691.4323656776578
 30
0.0333333332777778
  0
VERTEX
  5
22B
  8
LOTS
 10
666.01698200404644
 20
4691.412230704711
 30
0.0333333332777778
  0
VERTEX
  5
22C
  8
LOTS
 10
666.02603249467575
 20
4691.3991490337266
 30
0.0333333332777778
  0
VERTEX
  5
22D
  8
LOTS
 10
666.04920317876531
 20
4691.3921067525498
 30
0.0333333332777778
  0
VERTEX
  5
22E
  8
LOTS
 10
666.08042469376937
 20
4691.3921067525498
 30
0.0333333332777778
  0
VERTEX
  5
22F
  8
LOTS
 10
666.12271386989232
 20
4691.3921067525498
 30
0.0333333332777778
  0
VERTEX
  5
230
  8
LOTS
 10
666.13278187130345
 20
4691.3931096439219
 30
0.0333333332777778
  0
SEQEND
  5
231
  8
LOTS
  0
POLYLINE
  5
8F
  8
LOTS
 66
     1
 10
0.0
 20
0.0
 30
0.07999999984
 70
     1
1001
DCO15
1071
        1
1071
        1
1000
collections
1004
0730374231373900
1001
ADE
1011
0.0005087553890917
1021
0.0
1031
0.0
1021
-0.022647711771242
1031
0.0
  0
VERTEX
  5
232
  8
LOTS
 10
666.13679836122537
 20
4691.46860201649
 30
0.07999999984
  0
VERTEX
  5
233
  8
LOTS
 10
666.1539175338329
 20
4691.469604907863
 30
0.07999999984
  0
VERTEX
  5
234
  8
LOTS
 10
666.17003704672243
 20
4691.4675881043331
 30
0.07999999984
  0
VERTEX
  5
235
  8
LOTS
 10
666.1821222186262
 20
4691.4655823215871
 30
0.07999999984
  0
VERTEX
  5
236
  8
LOTS
 10
666.17808787763715
 20
4691.3921067525498
 30
0.07999999984
  0
VERTEX
  5
237
  8
LOTS
 10
666.15795187482206
 20
4691.3931096439219
 30
0.07999999984
  0
VERTEX
  5
238
  8
LOTS
 10
666.13983304249984
 20
4691.3931096439219
 30
0.07999999984
  0
SEQEND
  5
239
  8
LOTS
  0
POLYLINE
  5
90
  8
LOTS
 66
     1
 10
0.0
 20
0.0
 30
0.0416666666319444
 70
     1
1001
DCO15
1071
        1
1071
        1
1000
collections
1004
0730374231383000
1001
ADE
1011
-0.0110765866556903
1021
0.0
1031
0.0
1021
-0.0085576390220012
1031
0.0
  0
VERTEX
  5
23A
  8
LOTS
 10
666.18715621932995
 20
4691.4655823215871
 30
0.0416666666319444
  0
VERTEX
  5
23B
  8
LOTS
 10
666.21030905235602
 20
4691.4635655180573
 30
0.0416666666319444
  0
VERTEX
  5
23C
  8
LOTS
 10
666.22642856524556
 20
4691.4575261282498
 30
0.0416666666319444
  0
VERTEX
  5
23D
  8
LOTS
 10
666.23851373714933
 20
4691.4484670435431
 30
0.0416666666319444
  0
VERTEX
  5
23E
  8
LOTS
 10
666.24253022707126
 20
4691.4263262878521
 30
0.0416666666319444
  0
VERTEX
  5
23F
  8
LOTS
 10
666.24354773785285
 20
4691.4021687286286
 30
0.0416666666319444
  0
VERTEX
  5
240
  8
LOTS
 10
666.23549690693835
 20
4691.391092840393
 30
0.0416666666319444
  0
VERTEX
  5
241
  8
LOTS
 10
666.22239422425628
 20
4691.3900899490191
 30
0.0416666666319444
  0
VERTEX
  5
242
  8
LOTS
 10
666.19622456102275
 20
4691.3880731454901
 30
0.0416666666319444
  0
VERTEX
  5
243
  8
LOTS
 10
666.1831218783409
 20
4691.389087057647
 30
0.0416666666319444
  0
SEQEND
  5
244
  8
LOTS
  0
POLYLINE
  5
91
  8
LOTS
 66
     1
 10
0.0
 20
0.0
 30
0.0277777777469136
 70
     1
1001
DCO15
1071
        1
1071
        1
1000
collections
1004
0730374431373200
1001
ADE
1011
-0.0352558559916361
1021
0.0
1031
0.0
1021
-0.0055434545110984
1031
0.0
  0
VERTEX
  5
245
  8
LOTS
 10
666.58289650870574
 20
4691.099196346986
 30
0.0277777777469136
  0
VERTEX
  5
246
  8
LOTS
 10
666.57786250799825
 20
4691.0800642654121
 30
0.0277777777469136
  0
VERTEX
  5
247
  8
LOTS
 10
666.57886216771305
 20
4691.0669825944296
 30
0.0277777777469136
  0
VERTEX
  5
248
  8
LOTS
 10
666.58187899792392
 20
4691.0539009234453
 30
0.0277777777469136
  0
VERTEX
  5
249
  8
LOTS
 10
666.58691299862755
 20
4691.046847621481
 30
0.0277777777469136
  0
VERTEX
  5
24A
  8
LOTS
 10
666.59899817053122
 20
4691.0367856454031
 30
0.0277777777469136
  0
VERTEX
  5
24B
  8
LOTS
 10
666.62216885462112
 20
4691.0297433642236
 30
0.0277777777469136
  0
VERTEX
  5
24C
  8
LOTS
 10
666.64028768693981
 20
4691.0307462555984
 30
0.0277777777469136
  0
VERTEX
  5
24D
  8
LOTS
 10
666.65237285884359
 20
4691.0317491469696
 30
0.0277777777469136
  0
VERTEX
  5
24E
  8
LOTS
 10
666.66344051996555
 20
4691.041822143834
 30
0.0277777777469136
  0
VERTEX
  5
24F
  8
LOTS
 10
666.67250886165834
 20
4691.0579235097202
 30
0.0277777777469136
  0
VERTEX
  5
250
  8
LOTS
 10
666.67552569186967
 20
4691.0750387877652
 30
0.0277777777469136
  0
VERTEX
  5
251
  8
LOTS
 10
666.67654320264762
 20
4691.0871175673756
 30
0.0277777777469136
  0
SEQEND
  5
252
  8
LOTS
  0
POLYLINE
  5
92
  8
LOTS
 66
     1
 10
0.0
 20
0.0
 30
0.0666666664444445
 70
     1
1001
DCO15
1071
        1
1071
        1
1000
collections
1004
0730374431363900
1001
ADE
1011
-0.0110676611202507
1021
0.0
1031
0.0
1021
-0.0120787796104196
1031
0.0
  0
VERTEX
  5
253
  8
LOTS
 10
667.33306971997445
 20
4691.0146448897103
 30
0.0666666664444445
  0
VERTEX
  5
254
  8
LOTS
 10
667.32300171856696
 20
4691.0196703673591
 30
0.0666666664444445
  0
VERTEX
  5
255
  8
LOTS
 10
667.31896737757779
 20
4691.0317491469696
 30
0.0666666664444445
  0
VERTEX
  5
256
  8
LOTS
 10
667.31896737757779
 20
4691.0478615336388
 30
0.0666666664444445
  0
VERTEX
  5
257
  8
LOTS
 10
667.32501888906336
 20
4691.0579235097202
 30
0.0666666664444445
  0
VERTEX
  5
258
  8
LOTS
 10
667.33710406096361
 20
4691.0629600081547
 30
0.0666666664444445
  0
VERTEX
  5
259
  8
LOTS
 10
667.34817172208557
 20
4691.0629600081547
 30
0.0666666664444445
  0
VERTEX
  5
25A
  8
LOTS
 10
667.35925723427499
 20
4691.0569206183482
 30
0.0666666664444445
  0
VERTEX
  5
25B
  8
LOTS
 10
667.36127440476776
 20
4691.0398053403042
 30
0.0666666664444445
  0
VERTEX
  5
25C
  8
LOTS
 10
667.35925723427499
 20
4691.0277265606956
 30
0.0666666664444445
  0
VERTEX
  5
25D
  8
LOTS
 10
667.35220606307485
 20
4691.0176645846132
 30
0.0666666664444445
  0
SEQEND
  5
25E
  8
LOTS
  0
POLYLINE
  5
93
  8
LOTS
 66
     1
 10
0.0
 20
0.0
 30
0.0333333332222222
 70
     1
1001
DCO15
1071
        1
1071
        1
1000
collections
1004
0730374430343200
1001
ADE
1011
-0.0582867059125647
1021
0.0
1031
0.0
1021
-0.005902691556912
1031
0.0
  0
VERTEX
  5
25F
  8
LOTS
 10
633.60229251485475
 20
4688.6685769775659
 30
0.0333333332222222
  0
VERTEX
  5
260
  8
LOTS
 10
633.55350211003338
 20
4688.6467979797771
 30
0.0333333332222222
  0
VERTEX
  5
261
  8
LOTS
 10
633.5009220992556
 20
4688.662895539057
 30
0.0333333332222222
  0
VERTEX
  5
262
  8
LOTS
 10
633.46823722769068
 20
4688.6619485825831
 30
0.0333333332222222
  0
VERTEX
  5
263
  8
LOTS
 10
633.4237100669867
 20
4688.6515325619257
 30
0.0333333332222222
  0
VERTEX
  5
264
  8
LOTS
 10
633.44597373078454
 20
4688.6974578986337
 30
0.0333333332222222
  0
VERTEX
  5
265
  8
LOTS
 10
633.50281698567983
 20
4688.7121350732568
 30
0.0333333332222222
  0
VERTEX
  5
266
  8
LOTS
 10
633.52129087662922
 20
4688.7102412604199
 30
0.0333333332222222
  0
SEQEND
  5
267
  8
LOTS
  0
POLYLINE
  5
94
  8
LOTS
 66
     1
 10
0.0
 20
0.0
 30
0.0285714285306123
 70
     1
1001
DCO15
1071
        1
1071
        1
1000
collections
1004
0730374431383200
1001
ADE
1011
-0.0174315662661684
1021
0.0
1031
0.0
1021
-0.008706419608643
1031
0.0
  0
VERTEX
  5
268
  8
LOTS
 10
666.86296188828794
 20
4690.956984146168
 30
0.0285714285306123
  0
VERTEX
  5
269
  8
LOTS
 10
666.88038452902015
 20
4691.0063352183352
 30
0.0285714285306123
  0
VERTEX
  5
26A
  8
LOTS
 10
666.90507255374905
 20
4691.0005272650023
 30
0.0285714285306123
  0
VERTEX
  5
26B
  8
LOTS
 10
666.93120651485151
 20
4690.991820845391
 30
0.0285714285306123
  0
VERTEX
  5
26C
  8
LOTS
 10
666.94136377159157
 20
4690.9729532626379
 30
0.0285714285306123
  0
VERTEX
  5
26D
  8
LOTS
 10
666.94427349540274
 20
4690.9526309363619
 30
0.0285714285306123
  0
VERTEX
  5
26E
  8
LOTS
 10
666.9428097079616
 20
4690.9395713069462
 30
0.0285714285306123
  0
SEQEND
  5
26F
  8
LOTS
  0
POLYLINE
  5
95
  8
LOTS
 66
     1
 10
0.0
 20
0.0
 30
0.1999999999
 70
     1
1001
DCO15
1071
        1
1071
        1
1000
collections
1004
0730374431383100
1001
ADE
1011
-0.0304896212874155
1021
0.0
1031
0.0
1021
-0.0094393017670882
1031
0.0
  0
VERTEX
  5
270
  8
LOTS
 10
667.08365462127415
 20
4690.8815138151667
 30
0.1999999999
  0
VERTEX
  5
271
  8
LOTS
 10
667.038634231998
 20
4690.8524960900631
 30
0.1999999999
  0
VERTEX
  5
272
  8
LOTS
 10
667.0270310388878
 20
4690.8655557194779
 30
0.1999999999
  0
VERTEX
  5
273
  8
LOTS
 10
667.01540999471035
 20
4690.8800700924221
 30
0.1999999999
  0
VERTEX
  5
274
  8
LOTS
 10
667.00378895053268
 20
4690.8902312555601
 30
0.1999999999
  0
VERTEX
  5
275
  8
LOTS
 10
666.99798735397405
 20
4690.9018361414473
 30
0.1999999999
  0
VERTEX
  5
276
  8
LOTS
 10
666.99654141760402
 20
4690.9148957708621
 30
0.1999999999
  0
VERTEX
  5
277
  8
LOTS
 10
666.99654141760402
 20
4690.9279554002769
 30
0.1999999999
  0
VERTEX
  5
278
  8
LOTS
 10
667.00378895053268
 20
4690.9468229830263
 30
0.1999999999
  0
VERTEX
  5
279
  8
LOTS
 10
667.01396405833646
 20
4690.9613373559714
 30
0.1999999999
  0
VERTEX
  5
27A
  8
LOTS
 10
667.02121159126546
 20
4690.967145309306
 30
0.1999999999
  0
SEQEND
  5
27B
  8
LOTS
  0
POLYLINE
  5
96
  8
LOTS
 66
     1
 10
0.0
 20
0.0
 30
0.0333333332222222
 70
     1
1001
DCO15
1071
        1
1071
        1
1000
collections
1004
0730374431383000
1001
ADE
1011
-0.0217872264493053
1021
0.0
1031
0.0
1021
0.0108885349045522
1031
0.0
  0
VERTEX
  5
27C
  8
LOTS
 10
667.08945621782914
 20
4690.885867024972
 30
0.0333333332222222
  0
VERTEX
  5
27D
  8
LOTS
 10
667.0270310388878
 20
4690.9714985191104
 30
0.0333333332222222
  0
VERTEX
  5
27E
  8
LOTS
 10
667.04154395580895
 20
4690.9816596822502
 30
0.0333333332222222
  0
VERTEX
  5
27F
  8
LOTS
 10
667.05605687273408
 20
4690.9889113583322
 30
0.0333333332222222
  0
VERTEX
  5
280
  8
LOTS
 10
667.07494330090412
 20
4690.9889113583322
 30
0.0333333332222222
  0
VERTEX
  5
281
  8
LOTS
 10
667.09672160182163
 20
4690.9831144257778
 30
0.0333333332222222
  0
VERTEX
  5
282
  8
LOTS
 10
667.11703611530174
 20
4690.970043775581
 30
0.0333333332222222
  0
VERTEX
  5
283
  8
LOTS
 10
667.12865715947919
 20
4690.9540856798922
 30
0.0333333332222222
  0
VERTEX
  5
284
  8
LOTS
 10
667.14607980021162
 20
4690.9265116775314
 30
0.0333333332222222
  0
SEQEND
  5
285
  8
LOTS
  0
ENDSEC
  0
EOF
