  0
SECTION
  2
HEADER
  9
$ACADVER
  1
AC1009
  9
$INSBASE
 10
0.0
 20
0.0
 30
0.0
  9
$EXTMIN
 10
628.74631880246636
 20
4665.2191325055119
 30
0.0001154734411072
  9
$EXTMAX
 10
665.90159271131779
 20
4698.9993072665311
 30
0.7894736840027701
  9
$LIMMIN
 10
0.0
 20
0.0
  9
$LIMMAX
 10
12.0
 20
9.0
  9
$ORTHOMODE
 70
     0
  9
$REGENMODE
 70
     1
  9
$FILLMODE
 70
     1
  9
$QTEXTMODE
 70
     0
  9
$MIRRTEXT
 70
     1
  9
$DRAGMODE
 70
     2
  9
$LTSCALE
 40
1.0
  9
$OSMODE
 70
   613
  9
$ATTMODE
 70
     1
  9
$TEXTSIZE
 40
0.2
  9
$TRACEWID
 40
0.05
  9
$TEXTSTYLE
  7
C
  9
$CLAYER
  8
0
  9
$CELTYPE
  6
BYLAYER
  9
$CECOLOR
 62
   256
  9
$DIMSCALE
 40
1.0
  9
$DIMASZ
 40
0.18
  9
$DIMEXO
 40
0.0625
  9
$DIMDLI
 40
0.38
  9
$DIMRND
 40
0.0
  9
$DIMDLE
 40
0.0
  9
$DIMEXE
 40
0.18
  9
$DIMTP
 40
0.0
  9
$DIMTM
 40
0.0
  9
$DIMTXT
 40
0.18
  9
$DIMCEN
 40
0.09
  9
$DIMTSZ
 40
0.0
  9
$DIMTOL
 70
     0
  9
$DIMLIM
 70
     0
  9
$DIMTIH
 70
     1
  9
$DIMTOH
 70
     1
  9
$DIMSE1
 70
     0
  9
$DIMSE2
 70
     0
  9
$DIMTAD
 70
     0
  9
$DIMZIN
 70
     0
  9
$DIMBLK
  1

  9
$DIMASO
 70
     1
  9
$DIMSHO
 70
     1
  9
$DIMPOST
  1

  9
$DIMAPOST
  1

  9
$DIMALT
 70
     0
  9
$DIMALTD
 70
     2
  9
$DIMALTF
 40
25.399999999999999
  9
$DIMLFAC
 40
1.0
  9
$DIMTOFL
 70
     0
  9
$DIMTVP
 40
0.0
  9
$DIMTIX
 70
     0
  9
$DIMSOXD
 70
     0
  9
$DIMSAH
 70
     0
  9
$DIMBLK1
  1

  9
$DIMBLK2
  1

  9
$DIMSTYLE
  2
STANDARD
  9
$DIMCLRD
 70
     0
  9
$DIMCLRE
 70
     0
  9
$DIMCLRT
 70
     0
  9
$DIMTFAC
 40
1.0
  9
$DIMGAP
 40
0.09
  9
$LUNITS
 70
     2
  9
$LUPREC
 70
     4
  9
$SKETCHINC
 40
0.1
  9
$FILLETRAD
 40
0.5
  9
$AUNITS
 70
     0
  9
$AUPREC
 70
     0
  9
$MENU
  1
.
  9
$ELEVATION
 40
0.0
  9
$PELEVATION
 40
0.0
  9
$THICKNESS
 40
0.0
  9
$LIMCHECK
 70
     0
  9
$BLIPMODE
 70
     0
  9
$CHAMFERA
 40
0.5
  9
$CHAMFERB
 40
0.5
  9
$SKPOLY
 70
     0
  9
$TDCREATE
 40
2451380.7704007518
  9
$TDUPDATE
 40
2455808.65095125
  9
$TDINDWG
 40
1.7104997569
  9
$TDUSRTIMER
 40
1.7104996412
  9
$USRTIMER
 70
     1
  9
$ANGBASE
 50
0.0
  9
$ANGDIR
 70
     0
  9
$PDMODE
 70
     0
  9
$PDSIZE
 40
0.0
  9
$PLINEWID
 40
0.0
  9
$COORDS
 70
     1
  9
$SPLFRAME
 70
     0
  9
$SPLINETYPE
 70
     6
  9
$SPLINESEGS
 70
     8
  9
$ATTDIA
 70
     0
  9
$ATTREQ
 70
     1
  9
$HANDLING
 70
     1
  9
$HANDSEED
  5
DC0
  9
$SURFTAB1
 70
     6
  9
$SURFTAB2
 70
     6
  9
$SURFTYPE
 70
     6
  9
$SURFU
 70
     6
  9
$SURFV
 70
     6
  9
$UCSNAME
  2

  9
$UCSORG
 10
0.0
 20
0.0
 30
0.0
  9
$UCSXDIR
 10
1.0
 20
0.0
 30
0.0
  9
$UCSYDIR
 10
0.0
 20
1.0
 30
0.0
  9
$PUCSNAME
  2

  9
$PUCSORG
 10
0.0
 20
0.0
 30
0.0
  9
$PUCSXDIR
 10
1.0
 20
0.0
 30
0.0
  9
$PUCSYDIR
 10
0.0
 20
1.0
 30
0.0
  9
$USERI1
 70
     0
  9
$USERI2
 70
     0
  9
$USERI3
 70
     0
  9
$USERI4
 70
     0
  9
$USERI5
 70
     0
  9
$USERR1
 40
0.0
  9
$USERR2
 40
0.0
  9
$USERR3
 40
0.0
  9
$USERR4
 40
0.0
  9
$USERR5
 40
0.0
  9
$WORLDVIEW
 70
     1
  9
$SHADEDGE
 70
     3
  9
$SHADEDIF
 70
    70
  9
$TILEMODE
 70
     1
  9
$MAXACTVP
 70
    48
  9
$PLIMCHECK
 70
     0
  9
$PEXTMIN
 10
1.0000000000000000E+020
 20
1.0000000000000000E+020
 30
1.0000000000000000E+020
  9
$PEXTMAX
 10
-1.0000000000000000E+020
 20
-1.0000000000000000E+020
 30
-1.0000000000000000E+020
  9
$PLIMMIN
 10
0.0
 20
0.0
  9
$PLIMMAX
 10
12.0
 20
9.0
  9
$UNITMODE
 70
     0
  9
$VISRETAIN
 70
     1
  9
$PLINEGEN
 70
     0
  9
$PSLTSCALE
 70
     1
  0
ENDSEC
  0
SECTION
  2
TABLES
  0
TABLE
  2
VPORT
 70
     1
  0
VPORT
  2
*ACTIVE
 70
     0
 10
0.0
 20
0.0
 11
1.0
 21
1.0
 12
660.54360289591023
 22
4691.594211253403
 13
0.0
 23
0.0
 14
0.5
 24
0.5
 15
0.5
 25
0.5
 16
0.0
 26
0.0
 36
1.0
 17
0.0
 27
0.0
 37
0.0
 40
67.048084464915021
 41
1.336206896551724
 42
50.0
 43
0.0
 44
0.0
 50
0.0
 51
0.0
 71
     0
 72
   100
 73
     1
 74
     0
 75
     0
 76
     0
 77
     0
 78
     0
  0
ENDTAB
  0
TABLE
  2
LTYPE
 70
     1
  0
LTYPE
  2
CONTINUOUS
 70
     0
  3
Solid line
 72
    65
 73
     0
 40
0.0
  0
ENDTAB
  0
TABLE
  2
LAYER
 70
     2
  0
LAYER
  2
0
 70
     0
 62
     1
  6
CONTINUOUS
  0
LAYER
  2
LOTS
 70
     0
 62
     6
  6
CONTINUOUS
  0
ENDTAB
  0
TABLE
  2
STYLE
 70
     4
  0
STYLE
  2
STANDARD
 70
     0
 40
0.0
 41
1.0
 50
0.0
 71
     0
 42
0.2
  3
simplex.shx
  4

  0
STYLE
  2
ANNOTATIVE
 70
     0
 40
0.0
 41
1.0
 50
0.0
 71
     0
 42
0.2
  3
txt
  4

  0
STYLE
  2
C
 70
     0
 40
0.0
 41
1.0
 50
0.0
 71
     0
 42
0.2
  3
txt
  4

  0
STYLE
  2
LEGEND
 70
     0
 40
0.0
 41
1.0
 50
0.0
 71
     0
 42
0.2
  3
txt
  4

  0
ENDTAB
  0
TABLE
  2
VIEW
 70
     0
  0
ENDTAB
  0
TABLE
  2
UCS
 70
     0
  0
ENDTAB
  0
TABLE
  2
APPID
 70
     7
  0
APPID
  2
ACAD
 70
     0
  0
APPID
  2
ACADANNOTATIVE
 70
     0
  0
APPID
  2
ADE
 70
     0
  0
APPID
  2
DCO15
 70
     0
  0
APPID
  2
ACMAPDMDISPLAYSTYLEREGAPP
 70
     0
  0
APPID
  2
MAPGWS
 70
     0
  0
APPID
  2
ACAD_MLEADERVER
 70
     0
  0
ENDTAB
  0
TABLE
  2
DIMSTYLE
 70
     2
  0
DIMSTYLE
  2
STANDARD
 70
     0
  3

  4

  5

  6

  7

 40
1.0
 41
0.18
 42
0.0625
 43
0.38
 44
0.18
 45
0.0
 46
0.0
 47
0.0
 48
0.0
140
0.18
141
0.09
142
0.0
143
25.399999999999999
144
1.0
145
0.0
146
1.0
147
0.09
 71
     0
 72
     0
 73
     1
 74
     1
 75
     0
 76
     0
 77
     0
 78
     0
170
     0
171
     2
172
     0
173
     0
174
     0
175
     0
176
     0
177
     0
178
     0
  0
DIMSTYLE
  2
ANNOTATIVE
 70
     0
  3

  4

  5

  6

  7

 40
1.0
 41
0.18
 42
0.0625
 43
0.38
 44
0.18
 45
0.0
 46
0.0
 47
0.0
 48
0.0
140
0.18
141
0.09
142
0.0
143
25.399999999999999
144
1.0
145
0.0
146
1.0
147
0.09
 71
     0
 72
     0
 73
     1
 74
     1
 75
     0
 76
     0
 77
     0
 78
     0
170
     0
171
     2
172
     0
173
     0
174
     0
175
     0
176
     0
177
     0
178
     0
  0
ENDTAB
  0
ENDSEC
  0
SECTION
  2
BLOCKS
  0
BLOCK
  8
0
  2
$MODEL_SPACE
 70
     0
 10
0.0
 20
0.0
 30
0.0
  3
$MODEL_SPACE
  1

  0
ENDBLK
  5
A5B
  8
0
  0
BLOCK
 67
     1
  8
0
  2
$PAPER_SPACE
 70
     0
 10
0.0
 20
0.0
 30
0.0
  3
$PAPER_SPACE
  1

  0
ENDBLK
  5
A57
 67
     1
  8
0
  0
ENDSEC
  0
SECTION
  2
ENTITIES
  0
POLYLINE
  5
3A0
  8
LOTS
 66
     1
 10
0.0
 20
0.0
 30
0.0333333332222222
 70
     1
1001
DCO15
1071
        1
1071
        1
1000
collections
1004
0730374430343300
1001
ADE
1011
-0.050722669353263
1021
0.0
1031
0.0
1021
-0.0041659976650408
1031
0.0
  0
VERTEX
  5
A94
  8
LOTS
 10
633.54876522775635
 20
4688.646324551597
 30
0.0333333332222222
  0
VERTEX
  5
A95
  8
LOTS
 10
633.53739657677727
 20
4688.615549817694
 30
0.0333333332222222
  0
VERTEX
  5
A96
  8
LOTS
 10
633.53408060898073
 20
4688.5639430424771
 30
0.0333333332222222
  0
VERTEX
  5
A97
  8
LOTS
 10
633.52223831984122
 20
4688.5724652502977
 30
0.0333333332222222
  0
VERTEX
  5
A98
  8
LOTS
 10
633.49097452964895
 20
4688.5814608862993
 30
0.0333333332222222
  0
VERTEX
  5
A99
  8
LOTS
 10
633.45355277580677
 20
4688.5880892812838
 30
0.0333333332222222
  0
VERTEX
  5
A9A
  8
LOTS
 10
633.41992062792156
 20
4688.5942442480846
 30
0.0333333332222222
  0
VERTEX
  5
A9B
  8
LOTS
 10
633.40144657008045
 20
4688.6060806533987
 30
0.0333333332222222
  0
VERTEX
  5
A9C
  8
LOTS
 10
633.40381509466499
 20
4688.6307004204991
 30
0.0333333332222222
  0
VERTEX
  5
A9D
  8
LOTS
 10
633.42181534745419
 20
4688.6477449362528
 30
0.0333333332222222
  0
VERTEX
  5
A9E
  8
LOTS
 10
633.46823722769068
 20
4688.6595813415652
 30
0.0333333332222222
  0
VERTEX
  5
A9F
  8
LOTS
 10
633.49997482293509
 20
4688.6605281979282
 30
0.0333333332222222
  0
VERTEX
  5
AA0
  8
LOTS
 10
633.52365940121365
 20
4688.6538998029419
 30
0.0333333332222222
  0
SEQEND
  5
AA1
  8
LOTS
  0
POLYLINE
  5
3AF
  8
LOTS
 66
     1
 10
0.0
 20
0.0
 30
0.09999999975
 70
     1
1001
DCO15
1071
        1
1071
        1
1000
collections
1004
0730374430333800
1001
ADE
1011
-0.0097107505264376
1021
0.0
1031
0.0
1021
-0.0033141474359581
1031
0.0
  0
VERTEX
  5
AA2
  8
LOTS
 10
633.64587223234685
 20
4688.6108152355464
 30
0.09999999975
  0
VERTEX
  5
AA3
  8
LOTS
 10
633.60655575897204
 20
4688.6018195995439
 30
0.09999999975
  0
VERTEX
  5
AA4
  8
LOTS
 10
633.60276615301518
 20
4688.5790936452804
 30
0.09999999975
  0
VERTEX
  5
AA5
  8
LOTS
 10
633.60750320218426
 20
4688.5729386784778
 30
0.09999999975
  0
VERTEX
  5
AA6
  8
LOTS
 10
633.62597709313366
 20
4688.5771998324453
 30
0.09999999975
  0
VERTEX
  5
AA7
  8
LOTS
 10
633.63971426869693
 20
4688.5880892812838
 30
0.09999999975
  0
VERTEX
  5
AA8
  8
LOTS
 10
633.64445115097453
 20
4688.5966114891062
 30
0.09999999975
  0
SEQEND
  5
AA9
  8
LOTS
  0
POLYLINE
  5
3B8
  8
LOTS
 66
     1
 10
0.0
 20
0.0
 30
0.1041666665798611
 70
     1
1001
DCO15
1071
        1
1071
        1
1000
collections
1004
0730374430333600
1001
ADE
1011
-0.0142471126314376
1021
0.0
1031
0.0
1021
-0.0422750642728715
1031
0.0
  0
VERTEX
  5
AAA
  8
LOTS
 10
632.91099525645575
 20
4690.4756962943939
 30
0.1041666665798611
  0
VERTEX
  5
AAB
  8
LOTS
 10
632.9341467831897
 20
4690.396486223497
 30
0.1041666665798611
  0
VERTEX
  5
AAC
  8
LOTS
 10
632.94750344606632
 20
4690.4000461951864
 30
0.1041666665798611
  0
VERTEX
  5
AAD
  8
LOTS
 10
632.98846396789645
 20
4690.456116249873
 30
0.1041666665798611
  0
VERTEX
  5
AAE
  8
LOTS
 10
633.00003973126366
 20
4690.4837063308123
 30
0.1041666665798611
  0
VERTEX
  5
AAF
  8
LOTS
 10
632.99469703273485
 20
4690.5077363399441
 30
0.1041666665798611
  0
VERTEX
  5
AB0
  8
LOTS
 10
632.96976460649125
 20
4690.5059563540999
 30
0.1041666665798611
  0
VERTEX
  5
AB1
  8
LOTS
 10
632.93236588367995
 20
4690.4952763389174
 30
0.1041666665798611
  0
SEQEND
  5
AB2
  8
LOTS
  0
POLYLINE
  5
3C2
  8
LOTS
 66
     1
 10
0.0
 20
0.0
 30
0.4642857141198979
 70
     1
1001
DCO15
1071
        1
1071
        1
1000
collections
1004
0730374230353900
1001
ADE
1011
-0.0172138599027676
1021
0.0
1031
0.0
1021
-0.0057351484319952
1031
0.0
  0
VERTEX
  5
AB3
  8
LOTS
 10
632.18228442189945
 20
4697.7725174096731
 30
0.4642857141198979
  0
VERTEX
  5
AB4
  8
LOTS
 10
632.18228442189945
 20
4697.7438418176853
 30
0.4642857141198979
  0
VERTEX
  5
AB5
  8
LOTS
 10
632.24157697687929
 20
4697.7342832536497
 30
0.4642857141198979
  0
VERTEX
  5
AB6
  8
LOTS
 10
632.2434895538056
 20
4697.7629588456412
 30
0.4642857141198979
  0
SEQEND
  5
AB7
  8
LOTS
  0
POLYLINE
  5
3C8
  8
LOTS
 66
     1
 10
0.0
 20
0.0
 30
0.0999999998333334
 70
     1
1001
DCO15
1071
        1
1071
        1
1000
collections
1004
0730374431303600
1001
ADE
1011
-0.0018479741781903
1021
0.0
1031
0.0
1021
-0.003919578381101
1031
0.0
  0
VERTEX
  5
AB8
  8
LOTS
 10
630.41733773975591
 20
4692.2107754394383
 30
0.0999999998333334
  0
VERTEX
  5
AB9
  8
LOTS
 10
630.39942109962271
 20
4692.1995191813667
 30
0.0999999998333334
  0
VERTEX
  5
ABA
  8
LOTS
 10
630.39814120848416
 20
4692.1900536210942
 30
0.0999999998333334
  0
VERTEX
  5
ABB
  8
LOTS
 10
630.42834373544144
 20
4692.1882628231861
 30
0.0999999998333334
  0
VERTEX
  5
ABC
  8
LOTS
 10
630.4342306672479
 20
4692.1931235460643
 30
0.0999999998333334
  0
VERTEX
  5
ABD
  8
LOTS
 10
630.43320678771522
 20
4692.2023332208582
 30
0.0999999998333334
  0
VERTEX
  5
ABE
  8
LOTS
 10
630.42476040741485
 20
4692.2079613999476
 30
0.0999999998333334
  0
SEQEND
  5
ABF
  8
LOTS
  0
POLYLINE
  5
3D1
  8
LOTS
 66
     1
 10
0.0
 20
0.0
 30
0.4246284500408298
 70
     1
1001
DCO15
1071
        1
1071
        1
1000
collections
1004
0730374230363600
1001
ADE
1011
-0.0103238265595565
1021
0.0
1031
0.0
1021
-0.0154780180873786
1031
0.0
  0
VERTEX
  5
AC0
  8
LOTS
 10
630.10806587308741
 20
4697.3104795360559
 30
0.4246284500408298
  0
VERTEX
  5
AC1
  8
LOTS
 10
630.15894759566299
 20
4697.311216558317
 30
0.4246284500408298
  0
VERTEX
  5
AC2
  8
LOTS
 10
630.18107006922696
 20
4697.3495431174324
 30
0.4246284500408298
  0
VERTEX
  5
AC3
  8
LOTS
 10
630.16705919155515
 20
4697.3664952300942
 30
0.4246284500408298
  0
VERTEX
  5
AC4
  8
LOTS
 10
630.13240066076435
 20
4697.3790250089733
 30
0.4246284500408298
  0
VERTEX
  5
AC5
  8
LOTS
 10
630.1051162321977
 20
4697.3812361758637
 30
0.4246284500408298
  0
VERTEX
  5
AC6
  8
LOTS
 10
630.09479232219235
 20
4697.3746027752968
 30
0.4246284500408298
  0
VERTEX
  5
AC7
  8
LOTS
 10
630.08815571363641
 20
4697.3517541842139
 30
0.4246284500408298
  0
VERTEX
  5
AC8
  8
LOTS
 10
630.09700463630566
 20
4697.3252204818264
 30
0.4246284500408298
  0
SEQEND
  5
AC9
  8
LOTS
  0
POLYLINE
  5
3DC
  8
LOTS
 66
     1
 10
0.0
 20
0.0
 30
0.0333333332222222
 70
     1
1001
DCO15
1071
        1
1071
        1
1000
collections
1004
0730374431323500
1001
ADE
1011
-0.0182250556791814
1021
0.0
1031
0.0
1021
-0.0041133891118079
1031
0.0
  0
VERTEX
  5
ACA
  8
LOTS
 10
628.818090480764
 20
4692.2497930695472
 30
0.0333333332222222
  0
VERTEX
  5
ACB
  8
LOTS
 10
628.84552594616503
 20
4692.2494013325049
 30
0.0333333332222222
  0
VERTEX
  5
ACC
  8
LOTS
 10
628.85924376231105
 20
4692.2392157689555
 30
0.0333333332222222
  0
VERTEX
  5
ACD
  8
LOTS
 10
628.85885190100009
 20
4692.225112534652
 30
0.0333333332222222
  0
VERTEX
  5
ACE
  8
LOTS
 10
628.85571634294672
 20
4692.2133599228209
 30
0.0333333332222222
  0
VERTEX
  5
ACF
  8
LOTS
 10
628.83768721792285
 20
4692.210225926372
 30
0.0333333332222222
  0
VERTEX
  5
AD0
  8
LOTS
 10
628.81534695091329
 20
4692.2133599228209
 30
0.0333333332222222
  0
VERTEX
  5
AD1
  8
LOTS
 10
628.80790025087356
 20
4692.225504371806
 30
0.0333333332222222
  0
VERTEX
  5
AD2
  8
LOTS
 10
628.80907600169814
 20
4692.2380404577189
 30
0.0333333332222222
  0
SEQEND
  5
AD3
  8
LOTS
  0
POLYLINE
  5
3E7
  8
LOTS
 66
     1
 10
0.0
 20
0.0
 30
0.0012102874432495
 70
     1
1001
DCO15
1071
        2
1071
        2
1000
collections
1004
0730345031363700
1001
ADE
1011
-0.0337529306176521
1021
0.0
1031
0.0
1021
0.0043226637762928
1031
0.0
  0
VERTEX
  5
AD4
  8
LOTS
 10
635.26681883903575
 20
4691.8197832194419
 30
0.0012102874432495
  0
VERTEX
  5
AD5
  8
LOTS
 10
635.336824434812
 20
4691.8003533887422
 30
0.0012102874432495
  0
VERTEX
  5
AD6
  8
LOTS
 10
635.33876903332077
 20
4691.7682941696467
 30
0.0012102874432495
  0
VERTEX
  5
AD7
  8
LOTS
 10
635.31543383616236
 20
4691.7517788143923
 30
0.0012102874432495
  0
VERTEX
  5
AD8
  8
LOTS
 10
635.26779113721489
 20
4691.7673226782326
 30
0.0012102874432495
  0
VERTEX
  5
AD9
  8
LOTS
 10
635.25417893905194
 20
4691.7848095249028
 30
0.0012102874432495
  0
SEQEND
  5
ADA
  8
LOTS
  0
POLYLINE
  5
3EF
  8
LOTS
 66
     1
 10
0.0
 20
0.0
 30
0.0074390243902076
 70
     1
1001
DCO15
1071
        2
1071
        2
1000
collections
1004
0730345031363500
1001
ADE
1011
0.0075779993023843
1021
0.0
1031
0.0
1021
0.0028087618147765
1031
0.0
  0
VERTEX
  5
ADB
  8
LOTS
 10
635.29305457095268
 20
4691.8846503586301
 30
0.0074390243902076
  0
VERTEX
  5
ADC
  8
LOTS
 10
635.25320663872219
 20
4691.8275551507613
 30
0.0074390243902076
  0
VERTEX
  5
ADD
  8
LOTS
 10
635.21820384190914
 20
4691.8469849814619
 30
0.0074390243902076
  0
VERTEX
  5
ADE
  8
LOTS
 10
635.21723154157985
 20
4691.8771012177258
 30
0.0074390243902076
  0
VERTEX
  5
ADF
  8
LOTS
 10
635.24251133939731
 20
4691.9033314871313
 30
0.0074390243902076
  0
VERTEX
  5
AE0
  8
LOTS
 10
635.24251133939731
 20
4691.9033314871313
 30
0.0074390243902076
  0
VERTEX
  5
AE1
  8
LOTS
 10
635.24251133939731
 20
4691.9033314871313
 30
0.0074390243902076
  0
SEQEND
  5
AE2
  8
LOTS
  0
POLYLINE
  5
3F8
  8
LOTS
 66
     1
 10
0.0
 20
0.0
 30
0.0027831094049637
 70
     1
1001
DCO15
1071
        2
1071
        2
1000
collections
1004
0730345031363600
1001
ADE
1011
-0.0306768563593778
1021
0.0
1031
0.0
1021
-0.0010936700864477
1031
0.0
  0
VERTEX
  5
AE3
  8
LOTS
 10
635.28626483702624
 20
4691.8683577937909
 30
0.0027831094049637
  0
VERTEX
  5
AE4
  8
LOTS
 10
635.35577180473092
 20
4691.8417660459127
 30
0.0027831094049637
  0
VERTEX
  5
AE5
  8
LOTS
 10
635.33487983415273
 20
4691.8052108470174
 30
0.0027831094049637
  0
VERTEX
  5
AE6
  8
LOTS
 10
635.25709583789012
 20
4691.8256121679324
 30
0.0027831094049637
  0
SEQEND
  5
AE7
  8
LOTS
  0
POLYLINE
  5
3FE
  8
LOTS
 66
     1
 10
0.0
 20
0.0
 30
0.0001154734411072
 70
     1
1001
DCO15
1071
        2
1071
        2
1000
collections
1004
0730345031353600
1001
ADE
1011
-0.0222296949211796
1021
0.0
1031
0.0
1021
0.0050343547263765
1031
0.0
  0
VERTEX
  5
AE8
  8
LOTS
 10
635.06980464542323
 20
4691.9663752258912
 30
0.0001154734411072
  0
VERTEX
  5
AE9
  8
LOTS
 10
635.11196948532313
 20
4691.9386787959047
 30
0.0001154734411072
  0
VERTEX
  5
AEA
  8
LOTS
 10
635.06458045004354
 20
4691.9033314871313
 30
0.0001154734411072
  0
VERTEX
  5
AEB
  8
LOTS
 10
635.03443915057755
 20
4691.9033314871313
 30
0.0001154734411072
  0
VERTEX
  5
AEC
  8
LOTS
 10
635.03427686467126
 20
4691.9613040477889
 30
0.0001154734411072
  0
SEQEND
  5
AED
  8
LOTS
  0
POLYLINE
  5
405
  8
LOTS
 66
     1
 10
0.0
 20
0.0
 30
0.0161290322528616
 70
     1
1001
DCO15
1071
        2
1071
        2
1000
collections
1004
0730314233323400
1001
ADE
1011
-0.0155781004312985
1021
0.0
1031
0.0
1021
-0.0029747723037872
1031
0.0
  0
VERTEX
  5
AEE
  8
LOTS
 10
641.55029952399184
 20
4686.3656379372969
 30
0.0161290322528616
  0
VERTEX
  5
AEF
  8
LOTS
 10
641.53882998031315
 20
4686.3839709811036
 30
0.0161290322528616
  0
VERTEX
  5
AF0
  8
LOTS
 10
641.52843073836254
 20
4686.3975712549682
 30
0.0161290322528616
  0
VERTEX
  5
AF1
  8
LOTS
 10
641.51069608909245
 20
4686.40098206325
 30
0.0161290322528616
  0
VERTEX
  5
AF2
  8
LOTS
 10
641.49271989220995
 20
4686.3928390826441
 30
0.0161290322528616
  0
VERTEX
  5
AF3
  8
LOTS
 10
641.48131281529993
 20
4686.3806033711398
 30
0.0161290322528616
  0
VERTEX
  5
AF4
  8
LOTS
 10
641.47760810495345
 20
4686.358398321795
 30
0.0161290322528616
  0
VERTEX
  5
AF5
  8
LOTS
 10
641.47887759263904
 20
4686.3414611334983
 30
0.0161290322528616
  0
VERTEX
  5
AF6
  8
LOTS
 10
641.49023159795672
 20
4686.3166428563591
 30
0.0161290322528616
  0
VERTEX
  5
AF7
  8
LOTS
 10
641.50520618792962
 20
4686.3032943619492
 30
0.0161290322528616
  0
VERTEX
  5
AF8
  8
LOTS
 10
641.52456741085814
 20
4686.3009853875856
 30
0.0161290322528616
  0
VERTEX
  5
AF9
  8
LOTS
 10
641.55013067499078
 20
4686.3073862561769
 30
0.0161290322528616
  0
VERTEX
  5
AFA
  8
LOTS
 10
641.55795940937685
 20
4686.3245541626247
 30
0.0161290322528616
  0
VERTEX
  5
AFB
  8
LOTS
 10
641.5540665815829
 20
4686.3499180017561
 30
0.0161290322528616
  0
SEQEND
  5
AFC
  8
LOTS
  0
POLYLINE
  5
415
  8
LOTS
 66
     1
 10
0.0
 20
0.0
 30
0.0428571427959184
 70
     1
1001
DCO15
1071
        2
1071
        2
1000
collections
1004
0730314232383300
1001
ADE
1011
-0.0024276388382987
1021
0.0
1031
0.0
1021
-0.0161683077039925
1031
0.0
  0
VERTEX
  5
AFD
  8
LOTS
 10
639.0744223183716
 20
4687.1592471338818
 30
0.0428571427959184
  0
VERTEX
  5
AFE
  8
LOTS
 10
639.06388742847048
 20
4687.1804179313676
 30
0.0428571427959184
  0
VERTEX
  5
AFF
  8
LOTS
 10
639.03570461002505
 20
4687.2001251035854
 30
0.0428571427959184
  0
VERTEX
  5
B00
  8
LOTS
 10
638.99653597325562
 20
4687.201679658072
 30
0.0428571427959184
  0
VERTEX
  5
B01
  8
LOTS
 10
638.97757913135888
 20
4687.1728289427592
 30
0.0428571427959184
  0
VERTEX
  5
B02
  8
LOTS
 10
638.97239405332652
 20
4687.1358574696542
 30
0.0428571427959184
  0
VERTEX
  5
B03
  8
LOTS
 10
638.99477108724977
 20
4687.1369391930257
 30
0.0428571427959184
  0
VERTEX
  5
B04
  8
LOTS
 10
639.02548418817867
 20
4687.1292558236619
 30
0.0428571427959184
  0
VERTEX
  5
B05
  8
LOTS
 10
639.05037132766336
 20
4687.1502415107771
 30
0.0428571427959184
  0
SEQEND
  5
B06
  8
LOTS
  0
POLYLINE
  5
420
  8
LOTS
 66
     1
 10
0.0
 20
0.0
 30
0.2499999998863636
 70
     1
1001
DCO15
1071
        2
1071
        2
1000
collections
1004
0730314232383500
1001
ADE
1011
-0.0044311540938224
1021
0.0
1031
0.0
1021
0.0026768624502438
1031
0.0
  0
VERTEX
  5
B07
  8
LOTS
 10
639.06875617960725
 20
4687.1870497762047
 30
0.2499999998863636
  0
VERTEX
  5
B08
  8
LOTS
 10
639.08070929669918
 20
4687.1659614121754
 30
0.2499999998863636
  0
VERTEX
  5
B09
  8
LOTS
 10
639.11244863446609
 20
4687.1575714513301
 30
0.2499999998863636
  0
VERTEX
  5
B0A
  8
LOTS
 10
639.16456131555299
 20
4687.1480122228886
 30
0.2499999998863636
  0
VERTEX
  5
B0B
  8
LOTS
 10
639.13447077995465
 20
4687.2203149292309
 30
0.2499999998863636
  0
VERTEX
  5
B0C
  8
LOTS
 10
639.09746227146945
 20
4687.2091878724568
 30
0.2499999998863636
  0
VERTEX
  5
B0D
  8
LOTS
 10
639.08749260152285
 20
4687.1942687436867
 30
0.2499999998863636
  0
SEQEND
  5
B0E
  8
LOTS
  0
POLYLINE
  5
429
  8
LOTS
 66
     1
 10
0.0
 20
0.0
 30
0.0999999995
 70
     1
1001
DCO15
1071
        2
1071
        2
1000
collections
1004
0730314233303700
1001
ADE
1011
-0.0025653567429345
1021
0.0
1031
0.0
1021
-0.0076969338006165
1031
0.0
  0
VERTEX
  5
B0F
  8
LOTS
 10
639.30169962603793
 20
4687.7408042050856
 30
0.0999999995
  0
VERTEX
  5
B10
  8
LOTS
 10
639.28933691887141
 20
4687.7649970667908
 30
0.0999999995
  0
VERTEX
  5
B11
  8
LOTS
 10
639.26113192028686
 20
4687.7742603172983
 30
0.0999999995
  0
VERTEX
  5
B12
  8
LOTS
 10
639.22905583927559
 20
4687.7658039561729
 30
0.0999999995
  0
VERTEX
  5
B13
  8
LOTS
 10
639.2148567607976
 20
4687.7424995219453
 30
0.0999999995
  0
VERTEX
  5
B14
  8
LOTS
 10
639.21465568613121
 20
4687.7107858646477
 30
0.0999999995
  0
VERTEX
  5
B15
  8
LOTS
 10
639.23823258582274
 20
4687.6864364756148
 30
0.0999999995
  0
VERTEX
  5
B16
  8
LOTS
 10
639.27470748017072
 20
4687.6861344318286
 30
0.0999999995
  0
VERTEX
  5
B17
  8
LOTS
 10
639.30058104943134
 20
4687.7125890592042
 30
0.0999999995
  0
SEQEND
  5
B18
  8
LOTS
  0
POLYLINE
  5
434
  8
LOTS
 66
     1
 10
0.0
 20
0.0
 30
0.0166666666555556
 70
     1
1001
DCO15
1071
        2
1071
        2
1000
collections
1004
0730314232393400
1001
ADE
1011
-0.0105422604501655
1021
0.0
1031
0.0
1021
-0.007334072982303
1031
0.0
  0
VERTEX
  5
B19
  8
LOTS
 10
638.91825592392013
 20
4687.8880003328677
 30
0.0166666666555556
  0
VERTEX
  5
B1A
  8
LOTS
 10
638.90715198424004
 20
4687.9232539543464
 30
0.0166666666555556
  0
VERTEX
  5
B1B
  8
LOTS
 10
638.86596126375355
 20
4687.9219652488246
 30
0.0166666666555556
  0
VERTEX
  5
B1C
  8
LOTS
 10
638.84385471322582
 20
4687.8983570436658
 30
0.0166666666555556
  0
VERTEX
  5
B1D
  8
LOTS
 10
638.8440231186562
 20
4687.8647727700891
 30
0.0166666666555556
  0
SEQEND
  5
B1E
  8
LOTS
  0
POLYLINE
  5
43B
  8
LOTS
 66
     1
 10
0.0
 20
0.0
 30
0.05999999988
 70
     1
1001
DCO15
1071
        1
1071
        1
1000
collections
1004
0730374530303100
1001
ADE
1011
-0.023453400192011
1021
0.0
1031
0.0
1021
0.0061688704772678
1031
0.0
  0
VERTEX
  5
B1F
  8
LOTS
 10
655.76282842961155
 20
4673.9467975575508
 30
0.05999999988
  0
VERTEX
  5
B20
  8
LOTS
 10
655.75172117268812
 20
4673.9406232036335
 30
0.05999999988
  0
VERTEX
  5
B21
  8
LOTS
 10
655.73320195778433
 20
4673.9406232036335
 30
0.05999999988
  0
VERTEX
  5
B22
  8
LOTS
 10
655.71592162922354
 20
4673.9467975575508
 30
0.05999999988
  0
VERTEX
  5
B23
  8
LOTS
 10
655.70479301219166
 20
4673.9566677503126
 30
0.05999999988
  0
VERTEX
  5
B24
  8
LOTS
 10
655.69244686892125
 20
4673.9616028466953
 30
0.05999999988
  0
VERTEX
  5
B25
  8
LOTS
 10
655.68627379728412
 20
4673.9727122969944
 30
0.05999999988
  0
VERTEX
  5
B26
  8
LOTS
 10
655.68627379728412
 20
4673.9862783286026
 30
0.05999999988
  0
VERTEX
  5
B27
  8
LOTS
 10
655.69244686892125
 20
4674.0023228752834
 30
0.05999999988
  0
VERTEX
  5
B28
  8
LOTS
 10
655.70727078488926
 20
4674.0047904234743
 30
0.05999999988
  0
VERTEX
  5
B29
  8
LOTS
 10
655.7393750294176
 20
4673.9949202307098
 30
0.05999999988
  0
VERTEX
  5
B2A
  8
LOTS
 10
655.75541647162754
 20
4673.9776473933762
 30
0.05999999988
  0
VERTEX
  5
B2B
  8
LOTS
 10
655.76282842961155
 20
4673.9616028466953
 30
0.05999999988
  0
SEQEND
  5
B2C
  8
LOTS
  0
POLYLINE
  5
44A
  8
LOTS
 66
     1
 10
0.0
 20
0.0
 30
0.0999999995
 70
     1
1001
DCO15
1071
        1
1071
        1
1000
collections
1004
0730374231303500
1001
ADE
1011
-0.0074867183684546
1021
0.0
1031
0.0
1021
-0.0117510128275171
1031
0.0
  0
VERTEX
  5
B2D
  8
LOTS
 10
631.05531212855203
 20
4694.8316100003449
 30
0.0999999995
  0
VERTEX
  5
B2E
  8
LOTS
 10
631.04249606286965
 20
4694.8316100003449
 30
0.0999999995
  0
VERTEX
  5
B2F
  8
LOTS
 10
631.02754398624518
 20
4694.8305462129019
 30
0.0999999995
  0
VERTEX
  5
B30
  8
LOTS
 10
631.02327196434999
 20
4694.832673787786
 30
0.0999999995
  0
VERTEX
  5
B31
  8
LOTS
 10
631.01579592603935
 20
4694.8401532005246
 30
0.0999999995
  0
VERTEX
  5
B32
  8
LOTS
 10
631.01472792056666
 20
4694.8529734842359
 30
0.0999999995
  0
VERTEX
  5
B33
  8
LOTS
 10
631.0136599150901
 20
4694.8625804718567
 30
0.0999999995
  0
VERTEX
  5
B34
  8
LOTS
 10
631.02220395887696
 20
4694.8700598845971
 30
0.0999999995
  0
VERTEX
  5
B35
  8
LOTS
 10
631.03181600813696
 20
4694.8753897886891
 30
0.0999999995
  0
VERTEX
  5
B36
  8
LOTS
 10
631.04249606286965
 20
4694.8753897886891
 30
0.0999999995
  0
VERTEX
  5
B37
  8
LOTS
 10
631.05958415044358
 20
4694.873262213805
 30
0.0999999995
  0
VERTEX
  5
B38
  8
LOTS
 10
631.07562559265352
 20
4694.8679213428304
 30
0.0999999995
  0
VERTEX
  5
B39
  8
LOTS
 10
631.08203362549466
 20
4694.8625804718567
 30
0.0999999995
  0
SEQEND
  5
B3A
  8
LOTS
  0
POLYLINE
  5
459
  8
LOTS
 66
     1
 10
0.0
 20
0.0
 30
0.4102564101512164
 70
     1
1001
DCO15
1071
        1
1071
        1
1000
collections
1004
0730374230373700
1001
ADE
1011
-0.0096227293142874
1021
0.0
1031
0.0
1021
-0.0058727646937768
1031
0.0
  0
VERTEX
  5
B3B
  8
LOTS
 10
630.49225964301877
 20
4694.5304594522686
 30
0.4102564101512164
  0
VERTEX
  5
B3C
  8
LOTS
 10
630.49439565396801
 20
4694.5208524646478
 30
0.4102564101512164
  0
VERTEX
  5
B3D
  8
LOTS
 10
630.49759967038699
 20
4694.5133730519083
 30
0.4102564101512164
  0
VERTEX
  5
B3E
  8
LOTS
 10
630.51041573606562
 20
4694.5101707227022
 30
0.4102564101512164
  0
VERTEX
  5
B3F
  8
LOTS
 10
630.52216379627134
 20
4694.5112454770242
 30
0.4102564101512164
  0
VERTEX
  5
B40
  8
LOTS
 10
630.54034124942689
 20
4694.5144478062321
 30
0.4102564101512164
  0
VERTEX
  5
B41
  8
LOTS
 10
630.54140925490356
 20
4694.5240547938538
 30
0.4102564101512164
  0
VERTEX
  5
B42
  8
LOTS
 10
630.5392732439542
 20
4694.5315342065933
 30
0.4102564101512164
  0
VERTEX
  5
B43
  8
LOTS
 10
630.53286521111625
 20
4694.5390026524483
 30
0.4102564101512164
  0
SEQEND
  5
B44
  8
LOTS
  0
POLYLINE
  5
464
  8
LOTS
 66
     1
 10
0.0
 20
0.0
 30
0.0937499998828125
 70
     1
1001
DCO15
1071
        1
1071
        1
1000
collections
1004
0730374230373900
1001
ADE
1011
-0.0021360109476518
1021
0.0
1031
0.0
1021
-0.0101388813436643
1031
0.0
  0
VERTEX
  5
B45
  8
LOTS
 10
630.27964111339315
 20
4694.7472417859826
 30
0.0937499998828125
  0
VERTEX
  5
B46
  8
LOTS
 10
630.26896105866035
 20
4694.7568597404879
 30
0.0937499998828125
  0
VERTEX
  5
B47
  8
LOTS
 10
630.26575704224149
 20
4694.7739461408491
 30
0.0937499998828125
  0
VERTEX
  5
B48
  8
LOTS
 10
630.26896105866035
 20
4694.7931710829744
 30
0.0937499998828125
  0
VERTEX
  5
B49
  8
LOTS
 10
630.27750510244732
 20
4694.8017142831541
 30
0.0937499998828125
  0
VERTEX
  5
B4A
  8
LOTS
 10
630.29032116812596
 20
4694.8038418580381
 30
0.0937499998828125
  0
VERTEX
  5
B4B
  8
LOTS
 10
630.30206922833156
 20
4694.7963734121822
 30
0.0937499998828125
  0
VERTEX
  5
B4C
  8
LOTS
 10
630.30420523927751
 20
4694.7824893410288
 30
0.0937499998828125
  0
VERTEX
  5
B4D
  8
LOTS
 10
630.30420523927751
 20
4694.7654029406658
 30
0.0937499998828125
  0
VERTEX
  5
B4E
  8
LOTS
 10
630.29459319001751
 20
4694.7493803277503
 30
0.0937499998828125
  0
SEQEND
  5
B4F
  8
LOTS
  0
POLYLINE
  5
470
  8
LOTS
 66
     1
 10
0.0
 20
0.0
 30
0.0147058823486159
 70
     1
1001
DCO15
1071
        1
1071
        1
1000
collections
1004
0730374231313300
1001
ADE
1011
-0.0138840711533703
1021
0.0
1031
0.0
1021
-0.020826106729146
1031
0.0
  0
VERTEX
  5
B50
  8
LOTS
 10
631.68889569554085
 20
4695.0115216806498
 30
0.0147058823486159
  0
VERTEX
  5
B51
  8
LOTS
 10
631.69850774480074
 20
4694.9933605259657
 30
0.0147058823486159
  0
VERTEX
  5
B52
  8
LOTS
 10
631.71241317606098
 20
4694.9784126673712
 30
0.0147058823486159
  0
VERTEX
  5
B53
  8
LOTS
 10
631.73163727458075
 20
4694.9730717963957
 30
0.0147058823486159
  0
VERTEX
  5
B54
  8
LOTS
 10
631.75192937857355
 20
4694.9752103381634
 30
0.0147058823486159
  0
VERTEX
  5
B55
  8
LOTS
 10
631.77331084815137
 20
4694.984817325786
 30
0.0147058823486159
  0
VERTEX
  5
B56
  8
LOTS
 10
631.77865087551618
 20
4695.0115216806498
 30
0.0147058823486159
  0
VERTEX
  5
B57
  8
LOTS
 10
631.77865087551618
 20
4695.0253947849214
 30
0.0147058823486159
  0
VERTEX
  5
B58
  8
LOTS
 10
631.77331084815137
 20
4695.0403536103968
 30
0.0147058823486159
  0
VERTEX
  5
B59
  8
LOTS
 10
631.76156278794224
 20
4695.0520991397852
 30
0.0147058823486159
  0
VERTEX
  5
B5A
  8
LOTS
 10
631.74338533478647
 20
4695.0553014689913
 30
0.0147058823486159
  0
VERTEX
  5
B5B
  8
LOTS
 10
631.72416123626681
 20
4695.0488968105783
 30
0.0147058823486159
  0
SEQEND
  5
B5C
  8
LOTS
  0
POLYLINE
  5
47E
  8
LOTS
 66
     1
 10
0.0
 20
0.0
 30
0.0394736841897507
 70
     1
1001
DCO15
1071
        1
1071
        1
1000
collections
1004
0730374231303300
1001
ADE
1011
-0.011224737525481
1021
0.0
1031
0.0
1021
-0.0331090132794998
1031
0.0
  0
VERTEX
  5
B5D
  8
LOTS
 10
631.6354740617644
 20
4695.0104469263269
 30
0.0394736841897507
  0
VERTEX
  5
B5E
  8
LOTS
 10
631.60450190303891
 20
4695.006180809678
 30
0.0394736841897507
  0
VERTEX
  5
B5F
  8
LOTS
 10
631.57884841156897
 20
4695.00724459712
 30
0.0394736841897507
  0
VERTEX
  5
B60
  8
LOTS
 10
631.57457638967753
 20
4695.0115216806498
 30
0.0394736841897507
  0
VERTEX
  5
B61
  8
LOTS
 10
631.56389633494473
 20
4695.0253947849214
 30
0.0394736841897507
  0
VERTEX
  5
B62
  8
LOTS
 10
631.56389633494473
 20
4695.0488968105783
 30
0.0394736841897507
  0
VERTEX
  5
B63
  8
LOTS
 10
631.56496434041765
 20
4695.0713240819123
 30
0.0394736841897507
  0
VERTEX
  5
B64
  8
LOTS
 10
631.57137237325514
 20
4695.0830696113007
 30
0.0394736841897507
  0
VERTEX
  5
B65
  8
LOTS
 10
631.58525644441045
 20
4695.0937403863636
 30
0.0394736841897507
  0
VERTEX
  5
B66
  8
LOTS
 10
631.60663791398474
 20
4695.0980174698961
 30
0.0394736841897507
  0
VERTEX
  5
B67
  8
LOTS
 10
631.62799802345035
 20
4695.0958789281303
 30
0.0394736841897507
  0
SEQEND
  5
B68
  8
LOTS
  0
POLYLINE
  5
48B
  8
LOTS
 66
     1
 10
0.0
 20
0.0
 30
0.0571428570612245
 70
     1
1001
DCO15
1071
        1
1071
        1
1000
collections
1004
0730374430353900
1001
ADE
1011
-0.0223665002031339
1021
0.0
1031
0.0
1021
0.0000558372967134
1031
0.0
  0
VERTEX
  5
B69
  8
LOTS
 10
633.31740216549156
 20
4688.2107289783917
 30
0.0571428570612245
  0
VERTEX
  5
B6A
  8
LOTS
 10
633.31457118447952
 20
4688.1208900493839
 30
0.0571428570612245
  0
VERTEX
  5
B6B
  8
LOTS
 10
633.38463792281095
 20
4688.1718223721482
 30
0.0571428570612245
  0
VERTEX
  5
B6C
  8
LOTS
 10
633.38959226475095
 20
4688.1788962641522
 30
0.0571428570612245
  0
VERTEX
  5
B6D
  8
LOTS
 10
633.36765203673713
 20
4688.2284138085142
 30
0.0571428570612245
  0
VERTEX
  5
B6E
  8
LOTS
 10
633.36340564866441
 20
4688.2326581437173
 30
0.0571428570612245
  0
VERTEX
  5
B6F
  8
LOTS
 10
633.34358878157832
 20
4688.231243365316
 30
0.0571428570612245
  0
SEQEND
  5
B70
  8
LOTS
  0
POLYLINE
  5
494
  8
LOTS
 66
     1
 10
0.0
 20
0.0
 30
0.09999999975
 70
     1
1001
DCO15
1071
        1
1071
        1
1000
collections
1004
0730374430353600
1001
ADE
1011
-0.0326278353929865
1021
0.0
1031
0.0
1021
-0.0119445984619233
1031
0.0
  0
VERTEX
  5
B71
  8
LOTS
 10
633.39808520778763
 20
4688.3599889005673
 30
0.09999999975
  0
VERTEX
  5
B72
  8
LOTS
 10
633.37897596078631
 20
4688.3224970727242
 30
0.09999999975
  0
VERTEX
  5
B73
  8
LOTS
 10
633.37331399876155
 20
4688.3196675159224
 30
0.09999999975
  0
VERTEX
  5
B74
  8
LOTS
 10
633.37756055372574
 20
4688.2729795283622
 30
0.09999999975
  0
VERTEX
  5
B75
  8
LOTS
 10
633.4674441591435
 20
4688.2560020874407
 30
0.09999999975
  0
VERTEX
  5
B76
  8
LOTS
 10
633.47239850108349
 20
4688.2864200232807
 30
0.09999999975
  0
VERTEX
  5
B77
  8
LOTS
 10
633.46673653905896
 20
4688.3210822943238
 30
0.09999999975
  0
VERTEX
  5
B78
  8
LOTS
 10
633.45470482803375
 20
4688.3345226891306
 30
0.09999999975
  0
VERTEX
  5
B79
  8
LOTS
 10
633.43771894196016
 20
4688.3401819028441
 30
0.09999999975
  0
VERTEX
  5
B7A
  8
LOTS
 10
633.4150710938618
 20
4688.3415966812463
 30
0.09999999975
  0
SEQEND
  5
B7B
  8
LOTS
  0
POLYLINE
  5
4A0
  8
LOTS
 66
     1
 10
0.0
 20
0.0
 30
0.09999999975
 70
     1
1001
DCO15
1071
        1
1071
        1
1000
collections
1004
0730374430353500
1001
ADE
1011
-0.0108099123647207
1021
0.0
1031
0.0
1021
0.0023982067214092
1031
0.0
  0
VERTEX
  5
B7C
  8
LOTS
 10
633.31598659153985
 20
4688.358574022056
 30
0.09999999975
  0
VERTEX
  5
B7D
  8
LOTS
 10
633.32518732155279
 20
4688.3614036789686
 30
0.09999999975
  0
VERTEX
  5
B7E
  8
LOTS
 10
633.37543735968961
 20
4688.3267414079273
 30
0.09999999975
  0
VERTEX
  5
B7F
  8
LOTS
 10
633.39313086584775
 20
4688.3621110681679
 30
0.09999999975
  0
VERTEX
  5
B80
  8
LOTS
 10
633.39100767181139
 20
4688.3797958982914
 30
0.09999999975
  0
VERTEX
  5
B81
  8
LOTS
 10
633.32235634054041
 20
4688.3776736305781
 30
0.09999999975
  0
SEQEND
  5
B82
  8
LOTS
  0
POLYLINE
  5
4A8
  8
LOTS
 66
     1
 10
0.0
 20
0.0
 30
0.0249999999375
 70
     1
1001
DCO15
1071
        1
1071
        1
1000
collections
1004
0730374430363100
1001
ADE
1011
0.0003538934879543
1021
0.0
1031
0.0
1021
0.0565913863101741
1031
0.0
  0
VERTEX
  5
B83
  8
LOTS
 10
633.30749364850271
 20
4688.3345226891306
 30
0.0249999999375
  0
VERTEX
  5
B84
  8
LOTS
 10
633.3138633975035
 20
4688.2071920323906
 30
0.0249999999375
  0
VERTEX
  5
B85
  8
LOTS
 10
633.30961700943055
 20
4688.1081570437773
 30
0.0249999999375
  0
VERTEX
  5
B86
  8
LOTS
 10
633.25653599028146
 20
4688.1753593181502
 30
0.0249999999375
  0
VERTEX
  5
B87
  8
LOTS
 10
633.25087402825704
 20
4688.2425616926339
 30
0.0249999999375
  0
VERTEX
  5
B88
  8
LOTS
 10
633.26715212735485
 20
4688.2885421908823
 30
0.0249999999375
  0
VERTEX
  5
B89
  8
LOTS
 10
633.29121554940514
 20
4688.3111787454063
 30
0.0249999999375
  0
SEQEND
  5
B8A
  8
LOTS
  0
POLYLINE
  5
4B1
  8
LOTS
 66
     1
 10
0.0
 20
0.0
 30
0.09999999975
 70
     1
1001
DCO15
1071
        1
1071
        1
1000
collections
1004
0730374430353700
1001
ADE
1011
-0.0166320760315557
1021
0.0
1031
0.0
1021
0.0565914864218939
1031
0.0
  0
VERTEX
  5
B8B
  8
LOTS
 10
633.31103241649123
 20
4688.3458410164503
 30
0.09999999975
  0
VERTEX
  5
B8C
  8
LOTS
 10
633.31810995246769
 20
4688.2163880919961
 30
0.09999999975
  0
VERTEX
  5
B8D
  8
LOTS
 10
633.34217320762639
 20
4688.2361950897184
 30
0.09999999975
  0
VERTEX
  5
B8E
  8
LOTS
 10
633.36623662967679
 20
4688.2397320357213
 30
0.09999999975
  0
VERTEX
  5
B8F
  8
LOTS
 10
633.37260637867735
 20
4688.2694425823602
 30
0.09999999975
  0
VERTEX
  5
B90
  8
LOTS
 10
633.36906761068894
 20
4688.3295709647282
 30
0.09999999975
  0
VERTEX
  5
B91
  8
LOTS
 10
633.32589510852847
 20
4688.3564518544563
 30
0.09999999975
  0
VERTEX
  5
B92
  8
LOTS
 10
633.31103241649123
 20
4688.3536222976527
 30
0.09999999975
  0
SEQEND
  5
B93
  8
LOTS
  0
POLYLINE
  5
4BB
  8
LOTS
 66
     1
 10
0.0
 20
0.0
 30
0.1415428166430761
 70
     1
1001
DCO15
1071
        1
1071
        1
1000
collections
1004
0730374430343900
1001
ADE
1011
-0.0028421627447415
1021
0.0
1031
0.0
1021
-0.003787625672885
1031
0.0
  0
VERTEX
  5
B94
  8
LOTS
 10
633.616976966739
 20
4688.5224689718343
 30
0.1415428166430761
  0
VERTEX
  5
B95
  8
LOTS
 10
633.61981912948386
 20
4688.4864862276017
 30
0.1415428166430761
  0
VERTEX
  5
B96
  8
LOTS
 10
633.60987155987698
 20
4688.4879066122576
 30
0.1415428166430761
  0
VERTEX
  5
B97
  8
LOTS
 10
633.5966081893655
 20
4688.4893269969143
 30
0.1415428166430761
  0
VERTEX
  5
B98
  8
LOTS
 10
633.5895027825037
 20
4688.4935881508791
 30
0.1415428166430761
  0
VERTEX
  5
B99
  8
LOTS
 10
633.58855533929125
 20
4688.4983227330258
 30
0.1415428166430761
  0
VERTEX
  5
B9A
  8
LOTS
 10
633.59897671394992
 20
4688.511579522994
 30
0.1415428166430761
  0
SEQEND
  5
B9B
  8
LOTS
  0
POLYLINE
  5
4C4
  8
LOTS
 66
     1
 10
0.0
 20
0.0
 30
0.2564102563445102
 70
     1
1001
DCO15
1071
        1
1071
        1
1000
collections
1004
0730374131333100
1001
ADE
1011
-0.0555941984137007
1021
0.0
1031
0.0
1021
-0.0114181989547433
1031
0.0
  0
VERTEX
  5
B9C
  8
LOTS
 10
634.05758092596318
 20
4673.388755324896
 30
0.2564102563445102
  0
VERTEX
  5
B9D
  8
LOTS
 10
634.09108958413265
 20
4673.4222485683431
 30
0.2564102563445102
  0
VERTEX
  5
B9E
  8
LOTS
 10
634.1124134274155
 20
4673.4359504271088
 30
0.2564102563445102
  0
VERTEX
  5
B9F
  8
LOTS
 10
634.16267658156232
 20
4673.4435624596354
 30
0.2564102563445102
  0
VERTEX
  5
BA0
  8
LOTS
 10
634.20227798095982
 20
4673.4496521857664
 30
0.2564102563445102
  0
VERTEX
  5
BA1
  8
LOTS
 10
634.21141667557106
 20
4673.4435624596354
 30
0.2564102563445102
  0
VERTEX
  5
BA2
  8
LOTS
 10
634.20684732826555
 20
4673.4146364357057
 30
0.2564102563445102
  0
VERTEX
  5
BA3
  8
LOTS
 10
634.17333850320358
 20
4673.3765759727494
 30
0.2564102563445102
  0
VERTEX
  5
BA4
  8
LOTS
 10
634.14439919233962
 20
4673.3476499488197
 30
0.2564102563445102
  0
VERTEX
  5
BA5
  8
LOTS
 10
634.12307534905676
 20
4673.3324257836612
 30
0.2564102563445102
  0
VERTEX
  5
BA6
  8
LOTS
 10
634.09261281116289
 20
4673.3339481901648
 30
0.2564102563445102
  0
VERTEX
  5
BA7
  8
LOTS
 10
634.07281219491006
 20
4673.3522171683353
 30
0.2564102563445102
  0
VERTEX
  5
BA8
  8
LOTS
 10
634.06367333340654
 20
4673.3689638401129
 30
0.2564102563445102
  0
SEQEND
  5
BA9
  8
LOTS
  0
POLYLINE
  5
4D3
  8
LOTS
 66
     1
 10
0.0
 20
0.0
 30
0.1095890410883843
 70
     1
1001
DCO15
1071
        1
1071
        1
1000
collections
1004
0730345030303700
1001
ADE
1011
-0.0350446987979467
1021
0.0
1031
0.0
1021
-0.0016095700593723
1031
0.0
  0
VERTEX
  5
BAA
  8
LOTS
 10
635.60649196222425
 20
4691.5267178359081
 30
0.1095890410883843
  0
VERTEX
  5
BAB
  8
LOTS
 10
635.5810386963276
 20
4691.4588667964154
 30
0.1095890410883843
  0
VERTEX
  5
BAC
  8
LOTS
 10
635.55917116732235
 20
4691.4558196509433
 30
0.1095890410883843
  0
VERTEX
  5
BAD
  8
LOTS
 10
635.53181153003163
 20
4691.4621244039363
 30
0.1095890410883843
  0
VERTEX
  5
BAE
  8
LOTS
 10
635.51150753563024
 20
4691.464733431435
 30
0.1095890410883843
  0
VERTEX
  5
BAF
  8
LOTS
 10
635.50470950785598
 20
4691.4834571280453
 30
0.1095890410883843
  0
VERTEX
  5
BB0
  8
LOTS
 10
635.51024628274854
 20
4691.5070107262263
 30
0.1095890410883843
  0
VERTEX
  5
BB1
  8
LOTS
 10
635.52100846634812
 20
4691.5234779666207
 30
0.1095890410883843
  0
VERTEX
  5
BB2
  8
LOTS
 10
635.54308753812359
 20
4691.5281713819104
 30
0.1095890410883843
  0
VERTEX
  5
BB3
  8
LOTS
 10
635.56281519751496
 20
4691.5275887739144
 30
0.1095890410883843
  0
VERTEX
  5
BB4
  8
LOTS
 10
635.58247234265002
 20
4691.5264574093144
 30
0.1095890410883843
  0
SEQEND
  5
BB5
  8
LOTS
  0
POLYLINE
  5
4E0
  8
LOTS
 66
     1
 10
0.0
 20
0.0
 30
0.0121212121204775
 70
     1
1001
DCO15
1071
        1
1071
        1
1000
collections
1004
0730345030383900
1001
ADE
1011
-0.0107818348477622
1021
0.0
1031
0.0
1021
-0.0418368619020839
1031
0.0
  0
VERTEX
  5
BB6
  8
LOTS
 10
634.20327420097738
 20
4692.5744561804959
 30
0.0121212121204775
  0
VERTEX
  5
BB7
  8
LOTS
 10
634.27211306614629
 20
4692.5527596792608
 30
0.0121212121204775
  0
VERTEX
  5
BB8
  8
LOTS
 10
634.28738329493035
 20
4692.563069468164
 30
0.0121212121204775
  0
VERTEX
  5
BB9
  8
LOTS
 10
634.30939044671015
 20
4692.5867379221927
 30
0.0121212121204775
  0
VERTEX
  5
BBA
  8
LOTS
 10
634.31882367464891
 20
4692.6058861100819
 30
0.0121212121204775
  0
VERTEX
  5
BBB
  8
LOTS
 10
634.32606955489007
 20
4692.6275466385496
 30
0.0121212121204775
  0
VERTEX
  5
BBC
  8
LOTS
 10
634.25656770335092
 20
4692.6618582031142
 30
0.0121212121204775
  0
VERTEX
  5
BBD
  8
LOTS
 10
634.23767994205446
 20
4692.6472718114783
 30
0.0121212121204775
  0
VERTEX
  5
BBE
  8
LOTS
 10
634.22805507102555
 20
4692.6222911649729
 30
0.0121212121204775
  0
VERTEX
  5
BBF
  8
LOTS
 10
634.21806086552544
 20
4692.6096299636902
 30
0.0121212121204775
  0
SEQEND
  5
BC0
  8
LOTS
  0
POLYLINE
  5
4EC
  8
LOTS
 66
     1
 10
0.0
 20
0.0
 30
0.4246284492569003
 70
     1
1001
DCO15
1071
        1
1071
        1
1000
collections
1004
0730374231373200
1001
ADE
1011
-0.0466805384403415
1021
0.0
1031
0.0
1021
-0.025590261182515
1031
0.0
  0
VERTEX
  5
BC1
  8
LOTS
 10
665.90159271131779
 20
4691.009531245787
 30
0.4246284492569003
  0
VERTEX
  5
BC2
  8
LOTS
 10
665.89857588111045
 20
4691.0456683975608
 30
0.4246284492569003
  0
VERTEX
  5
BC3
  8
LOTS
 10
665.89104273112025
 20
4691.0667401371729
 30
0.4246284492569003
  0
VERTEX
  5
BC4
  8
LOTS
 10
665.86996062178866
 20
4691.0667401371729
 30
0.4246284492569003
  0
VERTEX
  5
BC5
  8
LOTS
 10
665.85189534266806
 20
4691.0652413105072
 30
0.4246284492569003
  0
VERTEX
  5
BC6
  8
LOTS
 10
665.8368290426879
 20
4691.0637314630558
 30
0.4246284492569003
  0
VERTEX
  5
BC7
  8
LOTS
 10
665.82176274270751
 20
4691.0592129414872
 30
0.4246284492569003
  0
VERTEX
  5
BC8
  8
LOTS
 10
665.80821378336975
 20
4691.0562042673682
 30
0.4246284492569003
  0
VERTEX
  5
BC9
  8
LOTS
 10
665.79766380316835
 20
4691.0501869191303
 30
0.4246284492569003
  0
VERTEX
  5
BCA
  8
LOTS
 10
665.78713167403839
 20
4691.0426597234446
 30
0.4246284492569003
  0
VERTEX
  5
BCB
  8
LOTS
 10
665.78411484382741
 20
4691.0306140061848
 30
0.4246284492569003
  0
VERTEX
  5
BCC
  8
LOTS
 10
665.78109801362007
 20
4691.015559614807
 30
0.4246284492569003
  0
VERTEX
  5
BCD
  8
LOTS
 10
665.78109801362007
 20
4691.0065225716698
 30
0.4246284492569003
  0
SEQEND
  5
BCE
  8
LOTS
  0
POLYLINE
  5
4FB
  8
LOTS
 66
     1
 10
0.0
 20
0.0
 30
0.2123142249924173
 70
     1
1001
DCO15
1071
        2
1071
        2
1000
collections
1004
0730314332323700
1001
ADE
1011
-0.0070329160839719
1021
0.0
1031
0.0
1021
-0.0005478492475959
1031
0.0
  0
VERTEX
  5
BCF
  8
LOTS
 10
643.9015272256463
 20
4691.9582357846239
 30
0.2123142249924173
  0
VERTEX
  5
BD0
  8
LOTS
 10
643.93708440094167
 20
4691.8946398923408
 30
0.2123142249924173
  0
VERTEX
  5
BD1
  8
LOTS
 10
643.91508246016076
 20
4691.8886717937021
 30
0.2123142249924173
  0
VERTEX
  5
BD2
  8
LOTS
 10
643.88411350754961
 20
4691.8773574630313
 30
0.2123142249924173
  0
VERTEX
  5
BD3
  8
LOTS
 10
643.86460643449186
 20
4691.8841733626368
 30
0.2123142249924173
  0
VERTEX
  5
BD4
  8
LOTS
 10
643.85898561036163
 20
4691.9098499581887
 30
0.2123142249924173
  0
VERTEX
  5
BD5
  8
LOTS
 10
643.87388346923547
 20
4691.9345688187659
 30
0.2123142249924173
  0
VERTEX
  5
BD6
  8
LOTS
 10
643.88726785675522
 20
4691.9471960460514
 30
0.2123142249924173
  0
SEQEND
  5
BD7
  8
LOTS
  0
POLYLINE
  5
505
  8
LOTS
 66
     1
 10
0.0
 20
0.0
 30
0.1785714284438775
 70
     1
1001
DCO15
1071
        2
1071
        2
1000
collections
1004
0730314431383900
1001
ADE
1011
-0.0414572004823413
1021
0.0
1031
0.0
1021
-0.0139699485216625
1031
0.0
  0
VERTEX
  5
BD8
  8
LOTS
 10
636.08920820665219
 20
4698.9235758398463
 30
0.1785714284438775
  0
VERTEX
  5
BD9
  8
LOTS
 10
636.20836439907805
 20
4698.9186218400309
 30
0.1785714284438775
  0
VERTEX
  5
BDA
  8
LOTS
 10
636.20764150788011
 20
4698.9454730685356
 30
0.1785714284438775
  0
VERTEX
  5
BDB
  8
LOTS
 10
636.20805811662592
 20
4698.9757499351044
 30
0.1785714284438775
  0
VERTEX
  5
BDC
  8
LOTS
 10
636.18573552899261
 20
4698.9934677214706
 30
0.1785714284438775
  0
VERTEX
  5
BDD
  8
LOTS
 10
636.15304000624212
 20
4698.9993072665311
 30
0.1785714284438775
  0
VERTEX
  5
BDE
  8
LOTS
 10
636.11551033724834
 20
4698.9898207115493
 30
0.1785714284438775
  0
VERTEX
  5
BDF
  8
LOTS
 10
636.09246721855834
 20
4698.967290222532
 30
0.1785714284438775
  0
SEQEND
  5
BE0
  8
LOTS
  0
POLYLINE
  5
50F
  8
LOTS
 66
     1
 10
0.0
 20
0.0
 30
0.0595238094954649
 70
     1
1001
DCO15
1071
        2
1071
        2
1000
collections
1004
0730314431393000
1001
ADE
1011
-0.0414512712254691
1021
0.0
1031
0.0
1021
-0.0086307427291104
1031
0.0
  0
VERTEX
  5
BE1
  8
LOTS
 10
636.08891539467868
 20
4698.9169435754402
 30
0.0595238094954649
  0
VERTEX
  5
BE2
  8
LOTS
 10
636.20775497139471
 20
4698.9117650087401
 30
0.0595238094954649
  0
VERTEX
  5
BE3
  8
LOTS
 10
636.19139886281459
 20
4698.8647098985821
 30
0.0595238094954649
  0
VERTEX
  5
BE4
  8
LOTS
 10
636.18542124452085
 20
4698.8312026019348
 30
0.0595238094954649
  0
VERTEX
  5
BE5
  8
LOTS
 10
636.09057224458058
 20
4698.8317438134363
 30
0.0595238094954649
  0
SEQEND
  5
BE6
  8
LOTS
  0
POLYLINE
  5
516
  8
LOTS
 66
     1
 10
0.0
 20
0.0
 30
0.0416666666493056
 70
     1
1001
DCO15
1071
        2
1071
        2
1000
collections
1004
0730314431393300
1001
ADE
1011
-0.0329038271232776
1021
0.0
1031
0.0
1021
0.0024781799775155
1031
0.0
  0
VERTEX
  5
BE7
  8
LOTS
 10
636.07292903554799
 20
4698.7640261605729
 30
0.0416666666493056
  0
VERTEX
  5
BE8
  8
LOTS
 10
636.16127987220898
 20
4698.7498339764024
 30
0.0416666666493056
  0
VERTEX
  5
BE9
  8
LOTS
 10
636.14104899179142
 20
4698.704551597606
 30
0.0416666666493056
  0
VERTEX
  5
BEA
  8
LOTS
 10
636.11573640048869
 20
4698.691594963213
 30
0.0416666666493056
  0
VERTEX
  5
BEB
  8
LOTS
 10
636.08416926734492
 20
4698.6975210019273
 30
0.0416666666493056
  0
VERTEX
  5
BEC
  8
LOTS
 10
636.05062705662385
 20
4698.7065671733299
 30
0.0416666666493056
  0
VERTEX
  5
BED
  8
LOTS
 10
636.04113652953413
 20
4698.7293412837844
 30
0.0416666666493056
  0
SEQEND
  5
BEE
  8
LOTS
  0
POLYLINE
  5
51F
  8
LOTS
 66
     1
 10
0.0
 20
0.0
 30
0.7894736840027701
 70
     1
1001
DCO15
1071
        2
1071
        2
1000
collections
1004
0730314431393200
1001
ADE
1011
0.0055879794089151
1021
0.0
1031
0.0
1021
-0.0432200160321372
1031
0.0
  0
VERTEX
  5
BEF
  8
LOTS
 10
636.08399078267485
 20
4698.8879903064617
 30
0.7894736840027701
  0
VERTEX
  5
BF0
  8
LOTS
 10
636.08419390596725
 20
4698.8269818843828
 30
0.7894736840027701
  0
VERTEX
  5
BF1
  8
LOTS
 10
636.07330278600648
 20
4698.7678604631692
 30
0.7894736840027701
  0
VERTEX
  5
BF2
  8
LOTS
 10
636.04783784500864
 20
4698.776924883141
 30
0.7894736840027701
  0
VERTEX
  5
BF3
  8
LOTS
 10
636.04304497399039
 20
4698.801127333405
 30
0.7894736840027701
  0
VERTEX
  5
BF4
  8
LOTS
 10
636.04498197136957
 20
4698.8272477264973
 30
0.7894736840027701
  0
VERTEX
  5
BF5
  8
LOTS
 10
636.05169598024361
 20
4698.8650844839267
 30
0.7894736840027701
  0
VERTEX
  5
BF6
  8
LOTS
 10
636.0701628505899
 20
4698.8819896904142
 30
0.7894736840027701
  0
SEQEND
  5
BF7
  8
LOTS
  0
POLYLINE
  5
529
  8
LOTS
 66
     1
 10
0.0
 20
0.0
 30
0.2499999996875
 70
     1
1001
DCO15
1071
        2
1071
        2
1000
collections
1004
0739384230303200
1001
ADE
1011
-0.0154309107871313
1021
0.0
1031
0.0
1021
-0.0457557074623765
1031
0.0
  0
VERTEX
  5
BF8
  8
LOTS
 10
646.44673049692585
 20
4670.4539396830323
 30
0.2499999996875
  0
VERTEX
  5
BF9
  8
LOTS
 10
646.43095411254444
 20
4670.4683876139288
 30
0.2499999996875
  0
VERTEX
  5
BFA
  8
LOTS
 10
646.43091245047833
 20
4670.5211036792489
 30
0.2499999996875
  0
VERTEX
  5
BFB
  8
LOTS
 10
646.43865993837755
 20
4670.5635285191483
 30
0.2499999996875
  0
VERTEX
  5
BFC
  8
LOTS
 10
646.45642758277643
 20
4670.5972467713009
 30
0.2499999996875
  0
VERTEX
  5
BFD
  8
LOTS
 10
646.47986953216525
 20
4670.6114995719417
 30
0.2499999996875
  0
VERTEX
  5
BFE
  8
LOTS
 10
646.50065302164342
 20
4670.6001285779812
 30
0.2499999996875
  0
VERTEX
  5
BFF
  8
LOTS
 10
646.50403822035719
 20
4670.5572196999829
 30
0.2499999996875
  0
VERTEX
  5
C00
  8
LOTS
 10
646.49090086609385
 20
4670.5044932191458
 30
0.2499999996875
  0
VERTEX
  5
C01
  8
LOTS
 10
646.46975692347587
 20
4670.4657395695349
 30
0.2499999996875
  0
SEQEND
  5
C02
  8
LOTS
  0
POLYLINE
  5
535
  8
LOTS
 66
     1
 10
0.0
 20
0.0
 30
0.1999999999333333
 70
     1
1001
DCO15
1071
        2
1071
        2
1000
collections
1004
0739394430383900
1001
ADE
1011
-0.0359586802661625
1021
0.0
1031
0.0
1021
-0.0196137859647934
1031
0.0
  0
VERTEX
  5
C03
  8
LOTS
 10
646.31770286993935
 20
4669.1601086679011
 30
0.1999999999333333
  0
VERTEX
  5
C04
  8
LOTS
 10
646.29479217339383
 20
4669.1578412137769
 30
0.1999999999333333
  0
VERTEX
  5
C05
  8
LOTS
 10
646.25501792592775
 20
4669.1385276323062
 30
0.1999999999333333
  0
VERTEX
  5
C06
  8
LOTS
 10
646.23102156522066
 20
4669.1193408868148
 30
0.1999999999333333
  0
VERTEX
  5
C07
  8
LOTS
 10
646.22846975875939
 20
4669.0976388441877
 30
0.1999999999333333
  0
VERTEX
  5
C08
  8
LOTS
 10
646.24125772716775
 20
4669.0729737769771
 30
0.1999999999333333
  0
VERTEX
  5
C09
  8
LOTS
 10
646.26322879684813
 20
4669.0593518932583
 30
0.1999999999333333
  0
VERTEX
  5
C0A
  8
LOTS
 10
646.29543404575008
 20
4669.0715960680291
 30
0.1999999999333333
  0
VERTEX
  5
C0B
  8
LOTS
 10
646.33929159798322
 20
4669.0900680119348
 30
0.1999999999333333
  0
SEQEND
  5
C0C
  8
LOTS
  0
POLYLINE
  5
540
  8
LOTS
 66
     1
 10
0.0
 20
0.0
 30
0.2499999995833333
 70
     1
1001
DCO15
1071
        2
1071
        2
1000
collections
1004
0739394530343200
1001
ADE
1011
-0.0119519651851761
1021
0.0
1031
0.0
1021
-0.00936944759178
1031
0.0
  0
VERTEX
  5
C0D
  8
LOTS
 10
645.64741117646565
 20
4665.2257951867859
 30
0.2499999995833333
  0
VERTEX
  5
C0E
  8
LOTS
 10
645.65117377726642
 20
4665.2295475975143
 30
0.2499999995833333
  0
VERTEX
  5
C0F
  8
LOTS
 10
645.65227124934461
 20
4665.2352951037719
 30
0.2499999995833333
  0
VERTEX
  5
C10
  8
LOTS
 10
645.65325492629165
 20
4665.2402536866703
 30
0.2499999995833333
  0
VERTEX
  5
C11
  8
LOTS
 10
645.65330050055763
 20
4665.246152919769
 30
0.2499999995833333
  0
VERTEX
  5
C12
  8
LOTS
 10
645.65364443346789
 20
4665.2503984427276
 30
0.2499999995833333
  0
VERTEX
  5
C13
  8
LOTS
 10
645.65323737472966
 20
4665.2550207352724
 30
0.2499999995833333
  0
VERTEX
  5
C14
  8
LOTS
 10
645.65196807672964
 20
4665.2611096269202
 30
0.2499999995833333
  0
VERTEX
  5
C15
  8
LOTS
 10
645.6472801108398
 20
4665.2676916308046
 30
0.2499999995833333
  0
VERTEX
  5
C16
  8
LOTS
 10
645.64164639971295
 20
4665.2695780262411
 30
0.2499999995833333
  0
VERTEX
  5
C17
  8
LOTS
 10
645.64036945915768
 20
4665.270030659246
 30
0.2499999995833333
  0
VERTEX
  5
C18
  8
LOTS
 10
645.63612648371645
 20
4665.2722533450387
 30
0.2499999995833333
  0
VERTEX
  5
C19
  8
LOTS
 10
645.63060402020164
 20
4665.273049910953
 30
0.2499999995833333
  0
VERTEX
  5
C1A
  8
LOTS
 10
645.62767336950742
 20
4665.2732041853133
 30
0.2499999995833333
  0
VERTEX
  5
C1B
  8
LOTS
 10
645.62391586374395
 20
4665.273209280349
 30
0.2499999995833333
  0
VERTEX
  5
C1C
  8
LOTS
 10
645.61955399813485
 20
4665.2708855370192
 30
0.2499999995833333
  0
VERTEX
  5
C1D
  8
LOTS
 10
645.61090358281922
 20
4665.2648852463817
 30
0.2499999995833333
  0
VERTEX
  5
C1E
  8
LOTS
 10
645.60789197366751
 20
4665.2607560660708
 30
0.2499999995833333
  0
VERTEX
  5
C1F
  8
LOTS
 10
645.60555549274432
 20
4665.2557241672712
 30
0.2499999995833333
  0
VERTEX
  5
C20
  8
LOTS
 10
645.60464767921758
 20
4665.2512915332791
 30
0.2499999995833333
  0
VERTEX
  5
C21
  8
LOTS
 10
645.60407615604561
 20
4665.2454681635991
 30
0.2499999995833333
  0
VERTEX
  5
C22
  8
LOTS
 10
645.6046323941066
 20
4665.2400190159879
 30
0.2499999995833333
  0
VERTEX
  5
C23
  8
LOTS
 10
645.60755794976365
 20
4665.2361072358644
 30
0.2499999995833333
  0
VERTEX
  5
C24
  8
LOTS
 10
645.61029639438846
 20
4665.232759336357
 30
0.2499999995833333
  0
VERTEX
  5
C25
  8
LOTS
 10
645.6153282931889
 20
4665.230422855434
 30
0.2499999995833333
  0
VERTEX
  5
C26
  8
LOTS
 10
645.61866600262147
 20
4665.2256462885316
 30
0.2499999995833333
  0
VERTEX
  5
C27
  8
LOTS
 10
645.6248610468466
 20
4665.2220682512461
 30
0.2499999995833333
  0
VERTEX
  5
C28
  8
LOTS
 10
645.62846427825093
 20
4665.2191325055119
 30
0.2499999995833333
  0
VERTEX
  5
C29
  8
LOTS
 10
645.63519036641901
 20
4665.2192361105717
 30
0.2499999995833333
  0
VERTEX
  5
C2A
  8
LOTS
 10
645.63850033421534
 20
4665.2217115807443
 30
0.2499999995833333
  0
VERTEX
  5
C2B
  8
LOTS
 10
645.6398910699013
 20
4665.2220478710979
 30
0.2499999995833333
  0
VERTEX
  5
C2C
  8
LOTS
 10
645.64128435310556
 20
4665.2242629143348
 30
0.2499999995833333
  0
VERTEX
  5
C2D
  8
LOTS
 10
645.64568415042447
 20
4665.2268496321176
 30
0.2499999995833333
  0
SEQEND
  5
C2E
  8
LOTS
  0
POLYLINE
  5
563
  8
LOTS
 66
     1
 10
0.0
 20
0.0
 30
0.2499999995833333
 70
     1
1001
DCO15
1071
        2
1071
        2
1000
collections
1004
0730304132303300
1001
ADE
1011
-0.0539792311033125
1021
0.0
1031
0.0
1021
-0.022483200550596
1031
0.0
  0
VERTEX
  5
C2F
  8
LOTS
 10
640.8559856849771
 20
4685.9206937245881
 30
0.2499999995833333
  0
VERTEX
  5
C30
  8
LOTS
 10
640.88164906178315
 20
4685.9240926557059
 30
0.2499999995833333
  0
VERTEX
  5
C31
  8
LOTS
 10
640.90943874495315
 20
4685.9181157191242
 30
0.2499999995833333
  0
VERTEX
  5
C32
  8
LOTS
 10
640.93525681403207
 20
4685.9138731535058
 30
0.2499999995833333
  0
VERTEX
  5
C33
  8
LOTS
 10
640.96517666181455
 20
4685.8968272536958
 30
0.2499999995833333
  0
VERTEX
  5
C34
  8
LOTS
 10
640.97438859310523
 20
4685.8704907299852
 30
0.2499999995833333
  0
VERTEX
  5
C35
  8
LOTS
 10
640.97469142646025
 20
4685.838002120875
 30
0.2499999995833333
  0
VERTEX
  5
C36
  8
LOTS
 10
640.95977183301318
 20
4685.7987064053941
 30
0.2499999995833333
  0
VERTEX
  5
C37
  8
LOTS
 10
640.92657651806735
 20
4685.7872366249594
 30
0.2499999995833333
  0
VERTEX
  5
C38
  8
LOTS
 10
640.88626973576072
 20
4685.7839873625599
 30
0.2499999995833333
  0
VERTEX
  5
C39
  8
LOTS
 10
640.85335563231524
 20
4685.7896780640849
 30
0.2499999995833333
  0
VERTEX
  5
C3A
  8
LOTS
 10
640.81912377043966
 20
4685.8113816144087
 30
0.2499999995833333
  0
VERTEX
  5
C3B
  8
LOTS
 10
640.80748117179314
 20
4685.840092097048
 30
0.2499999995833333
  0
VERTEX
  5
C3C
  8
LOTS
 10
640.80835953053202
 20
4685.8763356831396
 30
0.2499999995833333
  0
VERTEX
  5
C3D
  8
LOTS
 10
640.82893088068749
 20
4685.9053941328157
 30
0.2499999995833333
  0
SEQEND
  5
C3E
  8
LOTS
  0
POLYLINE
  5
574
  8
LOTS
 66
     1
 10
0.0
 20
0.0
 30
0.2499999975000001
 70
     1
1001
DCO15
1071
        2
1071
        2
1000
collections
1004
0730304132303600
1001
ADE
1011
-0.0489292124186704
1021
0.0
1031
0.0
1021
0.0007904578078524
1031
0.0
  0
VERTEX
  5
C3F
  8
LOTS
 10
642.41421794112978
 20
4684.5387683059507
 30
0.2499999975000001
  0
VERTEX
  5
C40
  8
LOTS
 10
642.38379865462855
 20
4684.5268385099189
 30
0.2499999975000001
  0
VERTEX
  5
C41
  8
LOTS
 10
642.36866282204653
 20
4684.5113905718108
 30
0.2499999975000001
  0
VERTEX
  5
C42
  8
LOTS
 10
642.36394603654514
 20
4684.492053366137
 30
0.2499999975000001
  0
VERTEX
  5
C43
  8
LOTS
 10
642.36487058726595
 20
4684.4599602755397
 30
0.2499999975000001
  0
VERTEX
  5
C44
  8
LOTS
 10
642.3787660956441
 20
4684.4439359996659
 30
0.2499999975000001
  0
VERTEX
  5
C45
  8
LOTS
 10
642.40133001149115
 20
4684.4200549241023
 30
0.2499999975000001
  0
VERTEX
  5
C46
  8
LOTS
 10
642.43173338783595
 20
4684.4065413543758
 30
0.2499999975000001
  0
VERTEX
  5
C47
  8
LOTS
 10
642.45527944533615
 20
4684.4034290161908
 30
0.2499999975000001
  0
VERTEX
  5
C48
  8
LOTS
 10
642.46944952276783
 20
4684.4145040946323
 30
0.2499999975000001
  0
VERTEX
  5
C49
  8
LOTS
 10
642.48830218365515
 20
4684.4392670874468
 30
0.2499999975000001
  0
VERTEX
  5
C4A
  8
LOTS
 10
642.47943413726216
 20
4684.4711872624357
 30
0.2499999975000001
  0
VERTEX
  5
C4B
  8
LOTS
 10
642.45738753920875
 20
4684.4983803151108
 30
0.2499999975000001
  0
VERTEX
  5
C4C
  8
LOTS
 10
642.43264140924168
 20
4684.5245813656702
 30
0.2499999975000001
  0
SEQEND
  5
C4D
  8
LOTS
  0
POLYLINE
  5
584
  8
LOTS
 66
     1
 10
0.0
 20
0.0
 30
0.2499999997727272
 70
     1
1001
DCO15
1071
        2
1071
        2
1000
collections
1004
0730304131393600
1001
ADE
1011
-0.0582777213451209
1021
0.0
1031
0.0
1021
-0.0161868283967124
1031
0.0
  0
VERTEX
  5
C4E
  8
LOTS
 10
640.34009833405719
 20
4686.053147450818
 30
0.2499999997727272
  0
VERTEX
  5
C4F
  8
LOTS
 10
640.38073381842025
 20
4686.0752546456433
 30
0.2499999997727272
  0
VERTEX
  5
C50
  8
LOTS
 10
640.44077249341774
 20
4686.0841402295637
 30
0.2499999997727272
  0
VERTEX
  5
C51
  8
LOTS
 10
640.489366295953
 20
4686.0764495057892
 30
0.2499999997727272
  0
VERTEX
  5
C52
  8
LOTS
 10
640.53134929303678
 20
4686.0590571866978
 30
0.2499999997727272
  0
VERTEX
  5
C53
  8
LOTS
 10
640.56245587581134
 20
4686.0169251285397
 30
0.2499999997727272
  0
VERTEX
  5
C54
  8
LOTS
 10
640.56989904634418
 20
4686.0039276301613
 30
0.2499999997727272
  0
VERTEX
  5
C55
  8
LOTS
 10
640.54111062794505
 20
4685.9704577973253
 30
0.2499999997727272
  0
VERTEX
  5
C56
  8
LOTS
 10
640.48818977717895
 20
4685.9502918098406
 30
0.2499999997727272
  0
VERTEX
  5
C57
  8
LOTS
 10
640.42871322722567
 20
4685.9393782467669
 30
0.2499999997727272
  0
VERTEX
  5
C58
  8
LOTS
 10
640.41295661839195
 20
4685.9403949299704
 30
0.2499999997727272
  0
SEQEND
  5
C59
  8
LOTS
  0
POLYLINE
  5
591
  8
LOTS
 66
     1
 10
0.0
 20
0.0
 30
0.0999999998333334
 70
     1
1001
DCO15
1071
        2
1071
        2
1000
collections
1004
0730304131393500
1001
ADE
1011
-0.0510520012497864
1021
0.0
1031
0.0
1021
0.0219764682133246
1031
0.0
  0
VERTEX
  5
C5A
  8
LOTS
 10
640.3364192368208
 20
4686.04862606389
 30
0.0999999998333334
  0
VERTEX
  5
C5B
  8
LOTS
 10
640.30718977637355
 20
4686.0325043143503
 30
0.0999999998333334
  0
VERTEX
  5
C5C
  8
LOTS
 10
640.26140934066632
 20
4686.0032856284024
 30
0.0999999998333334
  0
VERTEX
  5
C5D
  8
LOTS
 10
640.25198706010553
 20
4685.9563203531261
 30
0.0999999998333334
  0
VERTEX
  5
C5E
  8
LOTS
 10
640.27703229625422
 20
4685.9147296249348
 30
0.0999999998333334
  0
VERTEX
  5
C5F
  8
LOTS
 10
640.30848048304881
 20
4685.8792436292752
 30
0.0999999998333334
  0
VERTEX
  5
C60
  8
LOTS
 10
640.33217461497702
 20
4685.8565183532528
 30
0.0999999998333334
  0
VERTEX
  5
C61
  8
LOTS
 10
640.36279043669003
 20
4685.8437314512876
 30
0.0999999998333334
  0
VERTEX
  5
C62
  8
LOTS
 10
640.40018607011439
 20
4685.8336521450146
 30
0.0999999998333334
  0
VERTEX
  5
C63
  8
LOTS
 10
640.42477306063756
 20
4685.8381328876467
 30
0.0999999998333334
  0
VERTEX
  5
C64
  8
LOTS
 10
640.4267567080251
 20
4685.8816431782079
 30
0.0999999998333334
  0
VERTEX
  5
C65
  8
LOTS
 10
640.4204061220338
 20
4685.9212619793734
 30
0.0999999998333334
  0
VERTEX
  5
C66
  8
LOTS
 10
640.40672446975611
 20
4685.937613228687
 30
0.0999999998333334
  0
SEQEND
  5
C67
  8
LOTS
  0
POLYLINE
  5
5A0
  8
LOTS
 66
     1
 10
0.0
 20
0.0
 30
0.2045454543595041
 70
     1
1001
DCO15
1071
        2
1071
        2
1000
collections
1004
0730304131393700
1001
ADE
1011
-0.0523902952995741
1021
0.0
1031
0.0
1021
-0.0492806980437308
1031
0.0
  0
VERTEX
  5
C68
  8
LOTS
 10
640.41601215121182
 20
4685.9341257285378
 30
0.2045454543595041
  0
VERTEX
  5
C69
  8
LOTS
 10
640.46016046816101
 20
4685.9409787959494
 30
0.2045454543595041
  0
VERTEX
  5
C6A
  8
LOTS
 10
640.49334739474148
 20
4685.9451323965277
 30
0.2045454543595041
  0
VERTEX
  5
C6B
  8
LOTS
 10
640.54406313123695
 20
4685.9675486799379
 30
0.2045454543595041
  0
VERTEX
  5
C6C
  8
LOTS
 10
640.57485693796013
 20
4685.9993529327212
 30
0.2045454543595041
  0
VERTEX
  5
C6D
  8
LOTS
 10
640.59451231516346
 20
4685.9467800190841
 30
0.2045454543595041
  0
VERTEX
  5
C6E
  8
LOTS
 10
640.58850617076985
 20
4685.8817852482207
 30
0.2045454543595041
  0
VERTEX
  5
C6F
  8
LOTS
 10
640.54763844502361
 20
4685.8435364546358
 30
0.2045454543595041
  0
VERTEX
  5
C70
  8
LOTS
 10
640.49553275576147
 20
4685.8293947609827
 30
0.2045454543595041
  0
VERTEX
  5
C71
  8
LOTS
 10
640.44739625299235
 20
4685.8281005587778
 30
0.2045454543595041
  0
VERTEX
  5
C72
  8
LOTS
 10
640.4293830151247
 20
4685.8330475799248
 30
0.2045454543595041
  0
VERTEX
  5
C73
  8
LOTS
 10
640.43026141175176
 20
4685.8622074721397
 30
0.2045454543595041
  0
VERTEX
  5
C74
  8
LOTS
 10
640.42794419323525
 20
4685.90072281829
 30
0.2045454543595041
  0
VERTEX
  5
C75
  8
LOTS
 10
640.4234038069809
 20
4685.9228082721811
 30
0.2045454543595041
  0
SEQEND
  5
C76
  8
LOTS
  0
POLYLINE
  5
5B0
  8
LOTS
 66
     1
 10
0.0
 20
0.0
 30
0.2499999997727272
 70
     1
1001
DCO15
1071
        2
1071
        2
1000
collections
1004
0730304132303000
1001
ADE
1011
-0.0105831105144034
1021
0.0
1031
0.0
1021
-0.0527247643030933
1031
0.0
  0
VERTEX
  5
C77
  8
LOTS
 10
639.48029302186353
 20
4685.8069909380338
 30
0.2499999997727272
  0
VERTEX
  5
C78
  8
LOTS
 10
639.45043820124999
 20
4685.7697615692568
 30
0.2499999997727272
  0
VERTEX
  5
C79
  8
LOTS
 10
639.43393514925344
 20
4685.7343505290819
 30
0.2499999997727272
  0
VERTEX
  5
C7A
  8
LOTS
 10
639.42397333447605
 20
4685.6916409380538
 30
0.2499999997727272
  0
VERTEX
  5
C7B
  8
LOTS
 10
639.42655171831188
 20
4685.6653594435393
 30
0.2499999997727272
  0
VERTEX
  5
C7C
  8
LOTS
 10
639.43855332856765
 20
4685.6489566794598
 30
0.2499999997727272
  0
VERTEX
  5
C7D
  8
LOTS
 10
639.46589489218695
 20
4685.661430051452
 30
0.2499999997727272
  0
VERTEX
  5
C7E
  8
LOTS
 10
639.48104324846304
 20
4685.6950724820463
 30
0.2499999997727272
  0
VERTEX
  5
C7F
  8
LOTS
 10
639.50039756997376
 20
4685.7412515197566
 30
0.2499999997727272
  0
VERTEX
  5
C80
  8
LOTS
 10
639.51431864663425
 20
4685.7823099927
 30
0.2499999997727272
  0
VERTEX
  5
C81
  8
LOTS
 10
639.51010360668135
 20
4685.8026783517698
 30
0.2499999997727272
  0
VERTEX
  5
C82
  8
LOTS
 10
639.49780377831053
 20
4685.8065734326719
 30
0.2499999997727272
  0
SEQEND
  5
C83
  8
LOTS
  0
POLYLINE
  5
5BE
  8
LOTS
 66
     1
 10
0.0
 20
0.0
 30
0.2499999996875
 70
     1
1001
DCO15
1071
        2
1071
        2
1000
collections
1004
0730304131383900
1001
ADE
1011
-0.0128922001715637
1021
0.0
1031
0.0
1021
-0.0142939212810234
1031
0.0
  0
VERTEX
  5
C84
  8
LOTS
 10
639.30175023975403
 20
4685.1242773037129
 30
0.2499999996875
  0
VERTEX
  5
C85
  8
LOTS
 10
639.32057051026675
 20
4685.1211729977422
 30
0.2499999996875
  0
VERTEX
  5
C86
  8
LOTS
 10
639.32705030811303
 20
4685.1010558793769
 30
0.2499999996875
  0
VERTEX
  5
C87
  8
LOTS
 10
639.3214815182987
 20
4685.0825690840302
 30
0.2499999996875
  0
VERTEX
  5
C88
  8
LOTS
 10
639.30480492268305
 20
4685.070604526567
 30
0.2499999996875
  0
VERTEX
  5
C89
  8
LOTS
 10
639.28947668967885
 20
4685.0665440309049
 30
0.2499999996875
  0
VERTEX
  5
C8A
  8
LOTS
 10
639.27828844517705
 20
4685.0786540579402
 30
0.2499999996875
  0
VERTEX
  5
C8B
  8
LOTS
 10
639.27661199465501
 20
4685.099236604925
 30
0.2499999996875
  0
SEQEND
  5
C8C
  8
LOTS
  0
POLYLINE
  5
5C8
  8
LOTS
 66
     1
 10
0.0
 20
0.0
 30
0.2499999998611111
 70
     1
1001
DCO15
1071
        2
1071
        2
1000
collections
1004
0730304530353600
1001
ADE
1011
-0.0082579328474139
1021
0.0
1031
0.0
1021
-0.0030358132326001
1031
0.0
  0
VERTEX
  5
C8D
  8
LOTS
 10
630.03486486138831
 20
4685.236714574593
 30
0.2499999998611111
  0
VERTEX
  5
C8E
  8
LOTS
 10
630.05718019784138
 20
4685.2391252419757
 30
0.2499999998611111
  0
VERTEX
  5
C8F
  8
LOTS
 10
630.07089773339169
 20
4685.2319551155106
 30
0.2499999998611111
  0
VERTEX
  5
C90
  8
LOTS
 10
630.06102372317901
 20
4685.2084423022898
 30
0.2499999998611111
  0
VERTEX
  5
C91
  8
LOTS
 10
630.0416108771542
 20
4685.204520207697
 30
0.2499999998611111
  0
VERTEX
  5
C92
  8
LOTS
 10
630.03557586191323
 20
4685.2143417295474
 30
0.2499999998611111
  0
SEQEND
  5
C93
  8
LOTS
  0
POLYLINE
  5
5D0
  8
LOTS
 66
     1
 10
0.0
 20
0.0
 30
0.0999999998
 70
     1
1001
DCO15
1071
        2
1071
        2
1000
collections
1004
0730304131383500
1001
ADE
1011
-0.0337048175539394
1021
0.0
1031
0.0
1021
0.0151276550532202
1031
0.0
  0
VERTEX
  5
C94
  8
LOTS
 10
635.18835940160693
 20
4686.3389017072341
 30
0.0999999998
  0
VERTEX
  5
C95
  8
LOTS
 10
635.2128852318084
 20
4686.3366605794381
 30
0.0999999998
  0
VERTEX
  5
C96
  8
LOTS
 10
635.23853827310597
 20
4686.3309604926644
 30
0.0999999998
  0
VERTEX
  5
C97
  8
LOTS
 10
635.26319836456912
 20
4686.3233746061424
 30
0.0999999998
  0
VERTEX
  5
C98
  8
LOTS
 10
635.27773919132164
 20
4686.2980688435218
 30
0.0999999998
  0
VERTEX
  5
C99
  8
LOTS
 10
635.28077593003604
 20
4686.2728404065974
 30
0.0999999998
  0
VERTEX
  5
C9A
  8
LOTS
 10
635.27995092598451
 20
4686.2625190347608
 30
0.0999999998
  0
VERTEX
  5
C9B
  8
LOTS
 10
635.17145648019687
 20
4686.3135826502166
 30
0.0999999998
  0
VERTEX
  5
C9C
  8
LOTS
 10
635.17704603357981
 20
4686.3238039221333
 30
0.0999999998
  0
SEQEND
  5
C9D
  8
LOTS
  0
POLYLINE
  5
5DB
  8
LOTS
 66
     1
 10
0.0
 20
0.0
 30
0.0999999996666667
 70
     1
1001
DCO15
1071
        2
1071
        2
1000
collections
1004
0730304131353900
1001
ADE
1011
-0.0370613631519063
1021
0.0
1031
0.0
1021
-0.0165721976218265
1031
0.0
  0
VERTEX
  5
C9E
  8
LOTS
 10
634.15393275064753
 20
4685.6852515678693
 30
0.0999999996666667
  0
VERTEX
  5
C9F
  8
LOTS
 10
634.16534190475852
 20
4685.7059054941274
 30
0.0999999996666667
  0
VERTEX
  5
CA0
  8
LOTS
 10
634.17994970063717
 20
4685.7119212011012
 30
0.0999999996666667
  0
VERTEX
  5
CA1
  8
LOTS
 10
634.19697648946055
 20
4685.7134998343772
 30
0.0999999996666667
  0
VERTEX
  5
CA2
  8
LOTS
 10
634.22612028259562
 20
4685.7089329551691
 30
0.0999999996666667
  0
VERTEX
  5
CA3
  8
LOTS
 10
634.25080496244095
 20
4685.6859072270017
 30
0.0999999996666667
  0
VERTEX
  5
CA4
  8
LOTS
 10
634.25257992788534
 20
4685.6584498330576
 30
0.0999999996666667
  0
VERTEX
  5
CA5
  8
LOTS
 10
634.24893359078612
 20
4685.6396371269784
 30
0.0999999996666667
  0
VERTEX
  5
CA6
  8
LOTS
 10
634.23320067278019
 20
4685.6241528681721
 30
0.0999999996666667
  0
VERTEX
  5
CA7
  8
LOTS
 10
634.2018397627586
 20
4685.6196299321809
 30
0.0999999996666667
  0
VERTEX
  5
CA8
  8
LOTS
 10
634.17954649237913
 20
4685.6252750144076
 30
0.0999999996666667
  0
VERTEX
  5
CA9
  8
LOTS
 10
634.16105167612352
 20
4685.6356474766781
 30
0.0999999996666667
  0
VERTEX
  5
CAA
  8
LOTS
 10
634.15366475581982
 20
4685.6506588887123
 30
0.0999999996666667
  0
VERTEX
  5
CAB
  8
LOTS
 10
634.1501426803386
 20
4685.6616672665969
 30
0.0999999996666667
  0
SEQEND
  5
CAC
  8
LOTS
  0
POLYLINE
  5
5EB
  8
LOTS
 66
     1
 10
0.0
 20
0.0
 30
0.0759498040655038
 70
     1
1001
DCO15
1071
        2
1071
        2
1000
collections
1004
0730304232303600
1001
ADE
1011
-0.0100990291418839
1021
0.0
1031
0.0
1021
-0.0011341419412929
1031
0.0
  0
VERTEX
  5
CAD
  8
LOTS
 10
628.74631880246636
 20
4680.1786360402302
 30
0.0759498040655038
  0
VERTEX
  5
CAE
  8
LOTS
 10
628.75084088681251
 20
4680.2062671027243
 30
0.0759498040655038
  0
VERTEX
  5
CAF
  8
LOTS
 10
628.7689294141536
 20
4680.218138145302
 30
0.0759498040655038
  0
VERTEX
  5
CB0
  8
LOTS
 10
628.79750137060091
 20
4680.2281575117413
 30
0.0759498040655038
  0
VERTEX
  5
CB1
  8
LOTS
 10
628.80347300675851
 20
4680.2102300246061
 30
0.0759498040655038
  0
VERTEX
  5
CB2
  8
LOTS
 10
628.79342047886246
 20
4680.1559373804994
 30
0.0759498040655038
  0
VERTEX
  5
CB3
  8
LOTS
 10
628.77098672568843
 20
4680.1477007001031
 30
0.0759498040655038
  0
SEQEND
  5
CB4
  8
LOTS
  0
POLYLINE
  5
5F4
  8
LOTS
 66
     1
 10
0.0
 20
0.0
 30
0.2499999997916666
 70
     1
1001
DCO15
1071
        2
1071
        2
1000
collections
1004
0739394230303700
1001
ADE
1011
-0.0062325770761618
1021
0.0
1031
0.0
1021
-0.0201590881088123
1031
0.0
  0
VERTEX
  5
CB5
  8
LOTS
 10
650.20512031360727
 20
4671.7611373748596
 30
0.2499999997916666
  0
VERTEX
  5
CB6
  8
LOTS
 10
650.22187715558289
 20
4671.7606302259737
 30
0.2499999997916666
  0
VERTEX
  5
CB7
  8
LOTS
 10
650.22770911939938
 20
4671.7500576722123
 30
0.2499999997916666
  0
VERTEX
  5
CB8
  8
LOTS
 10
650.23522875480955
 20
4671.7322036214273
 30
0.2499999997916666
  0
VERTEX
  5
CB9
  8
LOTS
 10
650.23731280587765
 20
4671.7180927835489
 30
0.2499999997916666
  0
VERTEX
  5
CBA
  8
LOTS
 10
650.23536442880231
 20
4671.7080701505029
 30
0.2499999997916666
  0
VERTEX
  5
CBB
  8
LOTS
 10
650.22988716729685
 20
4671.698000829746
 30
0.2499999997916666
  0
VERTEX
  5
CBC
  8
LOTS
 10
650.22000459738058
 20
4671.6893625535349
 30
0.2499999997916666
  0
VERTEX
  5
CBD
  8
LOTS
 10
650.20805677576186
 20
4671.6872459142833
 30
0.2499999997916666
  0
VERTEX
  5
CBE
  8
LOTS
 10
650.19861226248395
 20
4671.6855908308744
 30
0.2499999997916666
  0
VERTEX
  5
CBF
  8
LOTS
 10
650.18798832116852
 20
4671.6851850517178
 30
0.2499999997916666
  0
VERTEX
  5
CC0
  8
LOTS
 10
650.17632940408123
 20
4671.6889887411508
 30
0.2499999997916666
  0
VERTEX
  5
CC1
  8
LOTS
 10
650.16750938757525
 20
4671.6956454306974
 30
0.2499999997916666
  0
VERTEX
  5
CC2
  8
LOTS
 10
650.17620312977135
 20
4671.7093276116184
 30
0.2499999997916666
  0
SEQEND
  5
CC3
  8
LOTS
  0
POLYLINE
  5
604
  8
LOTS
 66
     1
 10
0.0
 20
0.0
 30
0.01999999996
 70
     1
1001
DCO15
1071
        2
1071
        2
1000
collections
1004
0739394531333900
1001
ADE
1011
0.0028474533418148
1021
0.0
1031
0.0
1021
-0.0186764317159032
1031
0.0
  0
VERTEX
  5
CC4
  8
LOTS
 10
652.32428859847926
 20
4667.6254179659209
 30
0.01999999996
  0
VERTEX
  5
CC5
  8
LOTS
 10
652.3355182313943
 20
4667.6118001668983
 30
0.01999999996
  0
VERTEX
  5
CC6
  8
LOTS
 10
652.34665561148404
 20
4667.6011145715329
 30
0.01999999996
  0
VERTEX
  5
CC7
  8
LOTS
 10
652.36351427995555
 20
4667.5914308087322
 30
0.01999999996
  0
VERTEX
  5
CC8
  8
LOTS
 10
652.37938318496799
 20
4667.5893237010932
 30
0.01999999996
  0
VERTEX
  5
CC9
  8
LOTS
 10
652.39436405874528
 20
4667.5990230021107
 30
0.01999999996
  0
VERTEX
  5
CCA
  8
LOTS
 10
652.40167343483211
 20
4667.6159713337047
 30
0.01999999996
  0
VERTEX
  5
CCB
  8
LOTS
 10
652.39595385674147
 20
4667.6380512294227
 30
0.01999999996
  0
VERTEX
  5
CCC
  8
LOTS
 10
652.38124627232492
 20
4667.6532502264563
 30
0.01999999996
  0
VERTEX
  5
CCD
  8
LOTS
 10
652.36163472643796
 20
4667.6675905098627
 30
0.01999999996
  0
SEQEND
  5
CCE
  8
LOTS
  0
POLYLINE
  5
610
  8
LOTS
 66
     1
 10
0.0
 20
0.0
 30
0.04999999995
 70
     1
1001
DCO15
1071
        2
1071
        2
1000
collections
1004
0739394531343100
1001
ADE
1011
-0.0031754979404468
1021
0.0
1031
0.0
1021
-0.0095707728069101
1031
0.0
  0
VERTEX
  5
CCF
  8
LOTS
 10
652.50858051549358
 20
4667.2912365379698
 30
0.04999999995
  0
VERTEX
  5
CD0
  8
LOTS
 10
652.47707634911694
 20
4667.2899913289239
 30
0.04999999995
  0
VERTEX
  5
CD1
  8
LOTS
 10
652.45004509507135
 20
4667.2941417847906
 30
0.04999999995
  0
VERTEX
  5
CD2
  8
LOTS
 10
652.43130631878034
 20
4667.3039171706423
 30
0.04999999995
  0
VERTEX
  5
CD3
  8
LOTS
 10
652.42881493315952
 20
4667.3299025679853
 30
0.04999999995
  0
VERTEX
  5
CD4
  8
LOTS
 10
652.45463883219441
 20
4667.3463382936643
 30
0.04999999995
  0
VERTEX
  5
CD5
  8
LOTS
 10
652.48762433832565
 20
4667.3423348635079
 30
0.04999999995
  0
VERTEX
  5
CD6
  8
LOTS
 10
652.51519700564518
 20
4667.3309063432853
 30
0.04999999995
  0
SEQEND
  5
CD7
  8
LOTS
  0
POLYLINE
  5
61A
  8
LOTS
 66
     1
 10
0.0
 20
0.0
 30
0.0999999995
 70
     1
1001
DCO15
1071
        2
1071
        2
1000
collections
1004
0739394531333800
1001
ADE
1011
-0.0075127581640118
1021
0.0
1031
0.0
1021
-0.0126496996053902
1031
0.0
  0
VERTEX
  5
CD8
  8
LOTS
 10
652.36040534016001
 20
4667.6689813075773
 30
0.0999999995
  0
VERTEX
  5
CD9
  8
LOTS
 10
652.34694012630712
 20
4667.6777272462668
 30
0.0999999995
  0
VERTEX
  5
CDA
  8
LOTS
 10
652.32621462105101
 20
4667.6933147348136
 30
0.0999999995
  0
VERTEX
  5
CDB
  8
LOTS
 10
652.29812719907613
 20
4667.6882279779838
 30
0.0999999995
  0
VERTEX
  5
CDC
  8
LOTS
 10
652.28444646483786
 20
4667.6730281015407
 30
0.0999999995
  0
VERTEX
  5
CDD
  8
LOTS
 10
652.28976600372675
 20
4667.6464977393689
 30
0.0999999995
  0
VERTEX
  5
CDE
  8
LOTS
 10
652.31127171340415
 20
4667.6324048968263
 30
0.0999999995
  0
VERTEX
  5
CDF
  8
LOTS
 10
652.32270279787645
 20
4667.62659723051
 30
0.0999999995
  0
SEQEND
  5
CE0
  8
LOTS
  0
POLYLINE
  5
624
  8
LOTS
 66
     1
 10
0.0
 20
0.0
 30
0.0499999999666667
 70
     1
1001
DCO15
1071
        2
1071
        2
1000
collections
1004
0739394430353600
1001
ADE
1011
-0.0121676009600833
1021
0.0
1031
0.0
1021
-0.0150831153887339
1031
0.0
  0
VERTEX
  5
CE1
  8
LOTS
 10
648.55267383848116
 20
4667.7983745899573
 30
0.0499999999666667
  0
VERTEX
  5
CE2
  8
LOTS
 10
648.54978140981143
 20
4667.7897756190259
 30
0.0499999999666667
  0
VERTEX
  5
CE3
  8
LOTS
 10
648.54591339179865
 20
4667.7799951450197
 30
0.0499999999666667
  0
VERTEX
  5
CE4
  8
LOTS
 10
648.54658017174654
 20
4667.7703274478708
 30
0.0499999999666667
  0
VERTEX
  5
CE5
  8
LOTS
 10
648.54744304544079
 20
4667.7619589100477
 30
0.0499999999666667
  0
VERTEX
  5
CE6
  8
LOTS
 10
648.55397318143548
 20
4667.7559239796237
 30
0.0499999999666667
  0
VERTEX
  5
CE7
  8
LOTS
 10
648.56297415984693
 20
4667.7521736178578
 30
0.0499999999666667
  0
VERTEX
  5
CE8
  8
LOTS
 10
648.57114660392301
 20
4667.7517373322262
 30
0.0499999999666667
  0
VERTEX
  5
CE9
  8
LOTS
 10
648.58350575660575
 20
4667.7543896302168
 30
0.0499999999666667
  0
VERTEX
  5
CEA
  8
LOTS
 10
648.58869257392473
 20
4667.7570615069808
 30
0.0499999999666667
  0
VERTEX
  5
CEB
  8
LOTS
 10
648.59468828559989
 20
4667.7633318111111
 30
0.0499999999666667
  0
VERTEX
  5
CEC
  8
LOTS
 10
648.59536970371835
 20
4667.7696069946323
 30
0.0499999999666667
  0
VERTEX
  5
CED
  8
LOTS
 10
648.59585502809
 20
4667.7745830188233
 30
0.0499999999666667
  0
VERTEX
  5
CEE
  8
LOTS
 10
648.59599714249839
 20
4667.7878491433403
 30
0.0499999999666667
  0
VERTEX
  5
CEF
  8
LOTS
 10
648.5925653489096
 20
4667.8003259522702
 30
0.0499999999666667
  0
VERTEX
  5
CF0
  8
LOTS
 10
648.5828633124006
 20
4667.8047136340147
 30
0.0499999999666667
  0
VERTEX
  5
CF1
  8
LOTS
 10
648.56954814914502
 20
4667.8080521683059
 30
0.0499999999666667
  0
VERTEX
  5
CF2
  8
LOTS
 10
648.56033637760686
 20
4667.8086453289361
 30
0.0499999999666667
  0
VERTEX
  5
CF3
  8
LOTS
 10
648.55792927330936
 20
4667.8050223822001
 30
0.0499999999666667
  0
VERTEX
  5
CF4
  8
LOTS
 10
648.54926662547075
 20
4667.7951683500842
 30
0.0499999999666667
  0
SEQEND
  5
CF5
  8
LOTS
  0
POLYLINE
  5
63A
  8
LOTS
 66
     1
 10
0.0
 20
0.0
 30
0.0444444444345679
 70
     1
1001
DCO15
1071
        2
1071
        2
1000
collections
1004
0739394430303200
1001
ADE
1011
-0.0030806808043735
1021
0.0
1031
0.0
1021
-0.0533116429414804
1031
0.0
  0
VERTEX
  5
CF6
  8
LOTS
 10
648.09372671211304
 20
4666.7109490291941
 30
0.0444444444345679
  0
VERTEX
  5
CF7
  8
LOTS
 10
648.08271774304922
 20
4666.7191319095664
 30
0.0444444444345679
  0
VERTEX
  5
CF8
  8
LOTS
 10
648.06601077539506
 20
4666.7213746258894
 30
0.0444444444345679
  0
VERTEX
  5
CF9
  8
LOTS
 10
648.05265128334975
 20
4666.728174494503
 30
0.0444444444345679
  0
VERTEX
  5
CFA
  8
LOTS
 10
648.04163570854234
 20
4666.7346223574259
 30
0.0444444444345679
  0
VERTEX
  5
CFB
  8
LOTS
 10
648.03302402340637
 20
4666.7353040785702
 30
0.0444444444345679
  0
VERTEX
  5
CFC
  8
LOTS
 10
647.98933651582388
 20
4666.64064108198
 30
0.0444444444345679
  0
VERTEX
  5
CFD
  8
LOTS
 10
648.0030717802174
 20
4666.6285640511951
 30
0.0444444444345679
  0
VERTEX
  5
CFE
  8
LOTS
 10
648.01973777788714
 20
4666.6154088192197
 30
0.0444444444345679
  0
VERTEX
  5
CFF
  8
LOTS
 10
648.04682009330224
 20
4666.6066359646202
 30
0.0444444444345679
  0
SEQEND
  5
D00
  8
LOTS
  0
POLYLINE
  5
646
  8
LOTS
 66
     1
 10
0.0
 20
0.0
 30
0.0256410256377383
 70
     1
1001
DCO15
1071
        2
1071
        2
1000
collections
1004
0739394430343500
1001
ADE
1011
-0.0610366835155674
1021
0.0
1031
0.0
1021
-0.0133432911070486
1031
0.0
  0
VERTEX
  5
D01
  8
LOTS
 10
647.44072849340887
 20
4665.5611378116419
 30
0.0256410256377383
  0
VERTEX
  5
D02
  8
LOTS
 10
647.4237933602916
 20
4665.4798663117163
 30
0.0256410256377383
  0
VERTEX
  5
D03
  8
LOTS
 10
647.4662186290617
 20
4665.4590398675728
 30
0.0256410256377383
  0
VERTEX
  5
D04
  8
LOTS
 10
647.49915446151124
 20
4665.4465936679208
 30
0.0256410256377383
  0
VERTEX
  5
D05
  8
LOTS
 10
647.52487696232436
 20
4665.447825750889
 30
0.0256410256377383
  0
VERTEX
  5
D06
  8
LOTS
 10
647.54344640441104
 20
4665.4820758003007
 30
0.0256410256377383
  0
VERTEX
  5
D07
  8
LOTS
 10
647.5651362581109
 20
4665.5223370282647
 30
0.0256410256377383
  0
VERTEX
  5
D08
  8
LOTS
 10
647.57201932816031
 20
4665.5512973149152
 30
0.0256410256377383
  0
VERTEX
  5
D09
  8
LOTS
 10
647.57984409573726
 20
4665.5748048540408
 30
0.0256410256377383
  0
SEQEND
  5
D0A
  8
LOTS
  0
POLYLINE
  5
651
  8
LOTS
 66
     1
 10
0.0
 20
0.0
 30
0.0999999996666667
 70
     1
1001
DCO15
1071
        2
1071
        2
1000
collections
1004
0730304330363700
1001
ADE
1011
-0.0108073998658256
1021
0.0
1031
0.0
1021
-0.0034998344835913
1031
0.0
  0
VERTEX
  5
D0B
  8
LOTS
 10
646.81330363031304
 20
4681.7326413280953
 30
0.0999999996666667
  0
VERTEX
  5
D0C
  8
LOTS
 10
646.78468464328375
 20
4681.7420260725257
 30
0.0999999996666667
  0
VERTEX
  5
D0D
  8
LOTS
 10
646.76245637174998
 20
4681.741137106299
 30
0.0999999996666667
  0
VERTEX
  5
D0E
  8
LOTS
 10
646.74161086435481
 20
4681.7237214611287
 30
0.0999999996666667
  0
VERTEX
  5
D0F
  8
LOTS
 10
646.74598649691325
 20
4681.6964408286103
 30
0.0999999996666667
  0
VERTEX
  5
D10
  8
LOTS
 10
646.78201013156468
 20
4681.6732866705288
 30
0.0999999996666667
  0
VERTEX
  5
D11
  8
LOTS
 10
646.81955053291324
 20
4681.6584046951621
 30
0.0999999996666667
  0
VERTEX
  5
D12
  8
LOTS
 10
646.84411379143785
 20
4681.6630027626961
 30
0.0999999996666667
  0
VERTEX
  5
D13
  8
LOTS
 10
646.85923550142763
 20
4681.6822953567498
 30
0.0999999996666667
  0
VERTEX
  5
D14
  8
LOTS
 10
646.84193126716525
 20
4681.712773993022
 30
0.0999999996666667
  0
SEQEND
  5
D15
  8
LOTS
  0
POLYLINE
  5
65D
  8
LOTS
 66
     1
 10
0.0
 20
0.0
 30
0.159090908946281
 70
     1
1001
DCO15
1071
        2
1071
        2
1000
collections
1004
0730304330373700
1001
ADE
1011
-0.0360624272976793
1021
0.0
1031
0.0
1021
-0.0008225452056649
1031
0.0
  0
VERTEX
  5
D16
  8
LOTS
 10
646.83190722519134
 20
4681.9228529893617
 30
0.159090908946281
  0
VERTEX
  5
D17
  8
LOTS
 10
646.94671172718574
 20
4681.8615336004423
 30
0.159090908946281
  0
VERTEX
  5
D18
  8
LOTS
 10
646.93202546364955
 20
4681.8250605775083
 30
0.159090908946281
  0
VERTEX
  5
D19
  8
LOTS
 10
646.91120177422965
 20
4681.7897128976083
 30
0.159090908946281
  0
VERTEX
  5
D1A
  8
LOTS
 10
646.87464819502475
 20
4681.7829002906492
 30
0.159090908946281
  0
VERTEX
  5
D1B
  8
LOTS
 10
646.85258026235635
 20
4681.791911297898
 30
0.159090908946281
  0
VERTEX
  5
D1C
  8
LOTS
 10
646.81461796954602
 20
4681.8330731418118
 30
0.159090908946281
  0
VERTEX
  5
D1D
  8
LOTS
 10
646.81235979417113
 20
4681.8809275319563
 30
0.159090908946281
  0
SEQEND
  5
D1E
  8
LOTS
  0
POLYLINE
  5
667
  8
LOTS
 66
     1
 10
0.0
 20
0.0
 30
0.2499999996875
 70
     1
1001
DCO15
1071
        2
1071
        2
1000
collections
1004
0730304530323500
1001
ADE
1011
-0.0232521120367437
1021
0.0
1031
0.0
1021
-0.0062962083611637
1031
0.0
  0
VERTEX
  5
D1F
  8
LOTS
 10
645.5583253309286
 20
4680.3494522594647
 30
0.2499999996875
  0
VERTEX
  5
D20
  8
LOTS
 10
645.52959435308526
 20
4680.3176110710883
 30
0.2499999996875
  0
VERTEX
  5
D21
  8
LOTS
 10
645.50828505952575
 20
4680.2885709511829
 30
0.2499999996875
  0
VERTEX
  5
D22
  8
LOTS
 10
645.5313679444555
 20
4680.2511977514578
 30
0.2499999996875
  0
VERTEX
  5
D23
  8
LOTS
 10
645.56006893768267
 20
4680.2249724066978
 30
0.2499999996875
  0
VERTEX
  5
D24
  8
LOTS
 10
645.60191895171931
 20
4680.2513908119563
 30
0.2499999996875
  0
VERTEX
  5
D25
  8
LOTS
 10
645.62390943577975
 20
4680.2811369051524
 30
0.2499999996875
  0
VERTEX
  5
D26
  8
LOTS
 10
645.61564905281955
 20
4680.3133312334658
 30
0.2499999996875
  0
VERTEX
  5
D27
  8
LOTS
 10
645.58047332316494
 20
4680.3434969825857
 30
0.2499999996875
  0
SEQEND
  5
D28
  8
LOTS
  0
POLYLINE
  5
672
  8
LOTS
 66
     1
 10
0.0
 20
0.0
 30
0.0999999998333334
 70
     1
1001
DCO15
1071
        2
1071
        2
1000
collections
1004
0730304231333300
1001
ADE
1011
-0.0096977463646226
1021
0.0
1031
0.0
1021
-0.0153382573753334
1031
0.0
  0
VERTEX
  5
D29
  8
LOTS
 10
632.72719272195252
 20
4681.4900944497649
 30
0.0999999998333334
  0
VERTEX
  5
D2A
  8
LOTS
 10
632.74054075746142
 20
4681.407703695786
 30
0.0999999998333334
  0
VERTEX
  5
D2B
  8
LOTS
 10
632.68661889386783
 20
4681.3993286369896
 30
0.0999999998333334
  0
VERTEX
  5
D2C
  8
LOTS
 10
632.65284215412964
 20
4681.4245543328943
 30
0.0999999998333334
  0
VERTEX
  5
D2D
  8
LOTS
 10
632.63392214492717
 20
4681.4495156092153
 30
0.0999999998333334
  0
VERTEX
  5
D2E
  8
LOTS
 10
632.60858089378985
 20
4681.509036271942
 30
0.0999999998333334
  0
VERTEX
  5
D2F
  8
LOTS
 10
632.62782811098759
 20
4681.5315160715418
 30
0.0999999998333334
  0
VERTEX
  5
D30
  8
LOTS
 10
632.65556328836271
 20
4681.5351805098462
 30
0.0999999998333334
  0
VERTEX
  5
D31
  8
LOTS
 10
632.69440998807045
 20
4681.4972075452079
 30
0.0999999998333334
  0
SEQEND
  5
D32
  8
LOTS
  0
POLYLINE
  5
67D
  8
LOTS
 66
     1
 10
0.0
 20
0.0
 30
0.1249999999609375
 70
     1
1001
DCO15
1071
        2
1071
        2
1000
collections
1004
0730314233383500
1001
ADE
1011
-0.0345517920833345
1021
0.0
1031
0.0
1021
0.0097710318796089
1031
0.0
  0
VERTEX
  5
D33
  8
LOTS
 10
639.3114996327364
 20
4691.4869982579212
 30
0.1249999999609375
  0
VERTEX
  5
D34
  8
LOTS
 10
639.38017071490037
 20
4691.4415166542321
 30
0.1249999999609375
  0
VERTEX
  5
D35
  8
LOTS
 10
639.4486856487913
 20
4691.4519111803684
 30
0.1249999999609375
  0
VERTEX
  5
D36
  8
LOTS
 10
639.40076677769343
 20
4691.5032590175106
 30
0.1249999999609375
  0
VERTEX
  5
D37
  8
LOTS
 10
639.35665596153285
 20
4691.5131926868344
 30
0.1249999999609375
  0
VERTEX
  5
D38
  8
LOTS
 10
639.31430061257652
 20
4691.5032927626553
 30
0.1249999999609375
  0
SEQEND
  5
D39
  8
LOTS
  0
POLYLINE
  5
685
  8
LOTS
 66
     1
 10
0.0
 20
0.0
 30
0.0263157894598338
 70
     1
1001
DCO15
1071
        2
1071
        2
1000
collections
1004
0730314132343300
1001
ADE
1011
-0.042176010014714
1021
0.0
1031
0.0
1021
0.0134179333772409
1031
0.0
  0
VERTEX
  5
D3A
  8
LOTS
 10
648.92893488100162
 20
4691.7016557628513
 30
0.0263157894598338
  0
VERTEX
  5
D3B
  8
LOTS
 10
648.96807089810466
 20
4691.6907356488036
 30
0.0263157894598338
  0
VERTEX
  5
D3C
  8
LOTS
 10
648.9961489537892
 20
4691.6873955489464
 30
0.0263157894598338
  0
VERTEX
  5
D3D
  8
LOTS
 10
649.03228927105636
 20
4691.6848049044711
 30
0.0263157894598338
  0
VERTEX
  5
D3E
  8
LOTS
 10
649.00376957647995
 20
4691.7682133757507
 30
0.0263157894598338
  0
VERTEX
  5
D3F
  8
LOTS
 10
648.93104009555111
 20
4691.7839839512953
 30
0.0263157894598338
  0
SEQEND
  5
D40
  8
LOTS
  0
POLYLINE
  5
68D
  8
LOTS
 66
     1
 10
0.0
 20
0.0
 30
0.0707714083257507
 70
     1
1001
DCO15
1071
        2
1071
        2
1000
collections
1004
0739394230383100
1001
ADE
1011
-0.0463332798788088
1021
0.0
1031
0.0
1021
-0.0479320758095128
1031
0.0
  0
VERTEX
  5
D41
  8
LOTS
 10
639.39907820634733
 20
4668.946738256619
 30
0.0707714083257507
  0
VERTEX
  5
D42
  8
LOTS
 10
639.42317024455429
 20
4668.9612803494538
 30
0.0707714083257507
  0
VERTEX
  5
D43
  8
LOTS
 10
639.46972579170722
 20
4668.9922069969971
 30
0.0707714083257507
  0
VERTEX
  5
D44
  8
LOTS
 10
639.49849720839723
 20
4669.0145238206178
 30
0.0707714083257507
  0
VERTEX
  5
D45
  8
LOTS
 10
639.53059897508592
 20
4669.0367501660166
 30
0.0707714083257507
  0
VERTEX
  5
D46
  8
LOTS
 10
639.53875421238865
 20
4669.0532889706983
 30
0.0707714083257507
  0
VERTEX
  5
D47
  8
LOTS
 10
639.54609319412646
 20
4669.0851654566231
 30
0.0707714083257507
  0
VERTEX
  5
D48
  8
LOTS
 10
639.52996087060035
 20
4669.1238828671567
 30
0.0707714083257507
  0
VERTEX
  5
D49
  8
LOTS
 10
639.52549066840754
 20
4669.1294057495606
 30
0.0707714083257507
  0
VERTEX
  5
D4A
  8
LOTS
 10
639.43130103511135
 20
4669.0557195557603
 30
0.0707714083257507
  0
VERTEX
  5
D4B
  8
LOTS
 10
639.37924879499428
 20
4669.0724382756371
 30
0.0707714083257507
  0
VERTEX
  5
D4C
  8
LOTS
 10
639.38358645812707
 20
4669.0235205417039
 30
0.0707714083257507
  0
SEQEND
  5
D4D
  8
LOTS
  0
POLYLINE
  5
69B
  8
LOTS
 66
     1
 10
0.0
 20
0.0
 30
0.1136363635847107
 70
     1
1001
DCO15
1071
        2
1071
        2
1000
collections
1004
0739394230393800
1001
ADE
1011
-0.0128831821790527
1021
0.0
1031
0.0
1021
-0.0196735694680683
1031
0.0
  0
VERTEX
  5
D4E
  8
LOTS
 10
636.79646579481926
 20
4669.7052536503406
 30
0.1136363635847107
  0
VERTEX
  5
D4F
  8
LOTS
 10
636.80439019678761
 20
4669.7290396721264
 30
0.1136363635847107
  0
VERTEX
  5
D50
  8
LOTS
 10
636.82259851451374
 20
4669.7407201768492
 30
0.1136363635847107
  0
VERTEX
  5
D51
  8
LOTS
 10
636.84485079863396
 20
4669.7429252383336
 30
0.1136363635847107
  0
VERTEX
  5
D52
  8
LOTS
 10
636.86666899189925
 20
4669.74573571987
 30
0.1136363635847107
  0
VERTEX
  5
D53
  8
LOTS
 10
636.88322992145038
 20
4669.7344642040216
 30
0.1136363635847107
  0
VERTEX
  5
D54
  8
LOTS
 10
636.88200508839395
 20
4669.7173151580273
 30
0.1136363635847107
  0
VERTEX
  5
D55
  8
LOTS
 10
636.87137605702685
 20
4669.7046523943682
 30
0.1136363635847107
  0
VERTEX
  5
D56
  8
LOTS
 10
636.84182455181326
 20
4669.6921720689279
 30
0.1136363635847107
  0
VERTEX
  5
D57
  8
LOTS
 10
636.81874691828125
 20
4669.6914377252679
 30
0.1136363635847107
  0
SEQEND
  5
D58
  8
LOTS
  0
POLYLINE
  5
6A7
  8
LOTS
 66
     1
 10
0.0
 20
0.0
 30
0.0666666664444445
 70
     1
1001
DCO15
1071
        2
1071
        2
1000
collections
1004
0739394431313200
1001
ADE
1011
-0.0182687750922241
1021
0.0
1031
0.0
1021
-0.020061903248461
1031
0.0
  0
VERTEX
  5
D59
  8
LOTS
 10
654.87123094383696
 20
4666.7134348835907
 30
0.0666666664444445
  0
VERTEX
  5
D5A
  8
LOTS
 10
654.86787952813143
 20
4666.6835451606403
 30
0.0666666664444445
  0
VERTEX
  5
D5B
  8
LOTS
 10
654.85771172329839
 20
4666.6635147658317
 30
0.0666666664444445
  0
VERTEX
  5
D5C
  8
LOTS
 10
654.83046932381603
 20
4666.6544187279142
 30
0.0666666664444445
  0
VERTEX
  5
D5D
  8
LOTS
 10
654.80923359351925
 20
4666.6591531256454
 30
0.0666666664444445
  0
VERTEX
  5
D5E
  8
LOTS
 10
654.79484614507965
 20
4666.673722890534
 30
0.0666666664444445
  0
VERTEX
  5
D5F
  8
LOTS
 10
654.79636015102574
 20
4666.702960641418
 30
0.0666666664444445
  0
VERTEX
  5
D60
  8
LOTS
 10
654.82329439829005
 20
4666.7296796280607
 30
0.0666666664444445
  0
SEQEND
  5
D61
  8
LOTS
  0
POLYLINE
  5
6B1
  8
LOTS
 66
     1
 10
0.0
 20
0.0
 30
0.1093749999316406
 70
     1
1001
DCO15
1071
        2
1071
        2
1000
collections
1004
0739394531313300
1001
ADE
1011
-0.0483945499113361
1021
0.0
1031
0.0
1021
-0.0001785705644579
1031
0.0
  0
VERTEX
  5
D62
  8
LOTS
 10
653.40384147000577
 20
4670.7258839707192
 30
0.1093749999316406
  0
VERTEX
  5
D63
  8
LOTS
 10
653.3923009409757
 20
4670.7173520444512
 30
0.1093749999316406
  0
VERTEX
  5
D64
  8
LOTS
 10
653.3821997288502
 20
4670.7094145175524
 30
0.1093749999316406
  0
VERTEX
  5
D65
  8
LOTS
 10
653.37114783544894
 20
4670.7005393062718
 30
0.1093749999316406
  0
VERTEX
  5
D66
  8
LOTS
 10
653.36100703644547
 20
4670.6923376681189
 30
0.1093749999316406
  0
VERTEX
  5
D67
  8
LOTS
 10
653.34966444180725
 20
4670.6851262981199
 30
0.1093749999316406
  0
VERTEX
  5
D68
  8
LOTS
 10
653.33102517738155
 20
4670.687308933967
 30
0.1093749999316406
  0
VERTEX
  5
D69
  8
LOTS
 10
653.28505781412105
 20
4670.7318504536279
 30
0.1093749999316406
  0
VERTEX
  5
D6A
  8
LOTS
 10
653.29867081858708
 20
4670.7556900285699
 30
0.1093749999316406
  0
VERTEX
  5
D6B
  8
LOTS
 10
653.31186099961701
 20
4670.7734262618478
 30
0.1093749999316406
  0
VERTEX
  5
D6C
  8
LOTS
 10
653.32156634295779
 20
4670.7787226762093
 30
0.1093749999316406
  0
VERTEX
  5
D6D
  8
LOTS
 10
653.3399607676954
 20
4670.7843369779821
 30
0.1093749999316406
  0
VERTEX
  5
D6E
  8
LOTS
 10
653.35648041986497
 20
4670.7864516565933
 30
0.1093749999316406
  0
VERTEX
  5
D6F
  8
LOTS
 10
653.3745989288393
 20
4670.7794152081578
 30
0.1093749999316406
  0
VERTEX
  5
D70
  8
LOTS
 10
653.38295831831294
 20
4670.7757318398862
 30
0.1093749999316406
  0
VERTEX
  5
D71
  8
LOTS
 10
653.3918725202783
 20
4670.7703450434528
 30
0.1093749999316406
  0
VERTEX
  5
D72
  8
LOTS
 10
653.39950634904517
 20
4670.760019306952
 30
0.1093749999316406
  0
VERTEX
  5
D73
  8
LOTS
 10
653.40197611717554
 20
4670.7566786274983
 30
0.1093749999316406
  0
VERTEX
  5
D74
  8
LOTS
 10
653.40743087904912
 20
4670.7480297291713
 30
0.1093749999316406
  0
VERTEX
  5
D75
  8
LOTS
 10
653.40759041894864
 20
4670.7382842027591
 30
0.1093749999316406
  0
VERTEX
  5
D76
  8
LOTS
 10
653.40730031390444
 20
4670.734547058325
 30
0.1093749999316406
  0
VERTEX
  5
D77
  8
LOTS
 10
653.40476937000074
 20
4670.7275274062204
 30
0.1093749999316406
  0
SEQEND
  5
D78
  8
LOTS
  0
POLYLINE
  5
6C9
  8
LOTS
 66
     1
 10
0.0
 20
0.0
 30
0.0357142856887755
 70
     1
1001
DCO15
1071
        2
1071
        2
1000
collections
1004
0730304531313400
1001
ADE
1011
-0.070470087394483
1021
0.0
1031
0.0
1021
0.0437329344767932
1031
0.0
  0
VERTEX
  5
D79
  8
LOTS
 10
634.39444210366048
 20
4671.4137892867238
 30
0.0357142856887755
  0
VERTEX
  5
D7A
  8
LOTS
 10
634.2764138885002
 20
4671.4302780716171
 30
0.0357142856887755
  0
VERTEX
  5
D7B
  8
LOTS
 10
634.21695578955655
 20
4671.459570800248
 30
0.0357142856887755
  0
VERTEX
  5
D7C
  8
LOTS
 10
634.18219953707364
 20
4671.5159774698968
 30
0.0357142856887755
  0
VERTEX
  5
D7D
  8
LOTS
 10
634.17538863703612
 20
4671.5684176173572
 30
0.0357142856887755
  0
VERTEX
  5
D7E
  8
LOTS
 10
634.21921647268698
 20
4671.5759230037611
 30
0.0357142856887755
  0
VERTEX
  5
D7F
  8
LOTS
 10
634.26239486833845
 20
4671.565834832114
 30
0.0357142856887755
  0
VERTEX
  5
D80
  8
LOTS
 10
634.30809553972165
 20
4671.5047071327799
 30
0.0357142856887755
  0
VERTEX
  5
D81
  8
LOTS
 10
634.34251292937915
 20
4671.455211683261
 30
0.0357142856887755
  0
SEQEND
  5
D82
  8
LOTS
  0
POLYLINE
  5
6D4
  8
LOTS
 66
     1
 10
0.0
 20
0.0
 30
0.099999999
 70
     1
1001
DCO15
1071
        2
1071
        2
1000
collections
1004
0730304531323200
1001
ADE
1011
-0.0492675560507223
1021
0.0
1031
0.0
1021
-0.0668630338841467
1031
0.0
  0
VERTEX
  5
D83
  8
LOTS
 10
634.61437167898453
 20
4671.9937472175443
 30
0.099999999
  0
VERTEX
  5
D84
  8
LOTS
 10
634.52711991022625
 20
4671.8579028176382
 30
0.099999999
  0
VERTEX
  5
D85
  8
LOTS
 10
634.44336469188102
 20
4671.7491675842757
 30
0.099999999
  0
VERTEX
  5
D86
  8
LOTS
 10
634.40547770735475
 20
4671.7437607105812
 30
0.099999999
  0
VERTEX
  5
D87
  8
LOTS
 10
634.38369735798574
 20
4671.7937210531618
 30
0.099999999
  0
VERTEX
  5
D88
  8
LOTS
 10
634.3909842979208
 20
4671.8708129391989
 30
0.099999999
  0
VERTEX
  5
D89
  8
LOTS
 10
634.45072905659674
 20
4671.9607297482853
 30
0.099999999
  0
VERTEX
  5
D8A
  8
LOTS
 10
634.51828298511532
 20
4672.010789473612
 30
0.099999999
  0
VERTEX
  5
D8B
  8
LOTS
 10
634.56941301177119
 20
4672.0287664063071
 30
0.099999999
  0
SEQEND
  5
D8C
  8
LOTS
  0
ENDSEC
  0
EOF
