  0
SECTION
  2
HEADER
  9
$ACADVER
  1
AC1009
  9
$INSBASE
 10
0.0
 20
0.0
 30
0.0
  9
$EXTMIN
 10
627.48585530787966
 20
4665.288476352267
 30
25.0
  9
$EXTMAX
 10
664.10481930711137
 20
4699.0805187641427
 30
25.0
  9
$LIMMIN
 10
0.0
 20
0.0
  9
$LIMMAX
 10
12.0
 20
9.0
  9
$ORTHOMODE
 70
     0
  9
$REGENMODE
 70
     1
  9
$FILLMODE
 70
     1
  9
$QTEXTMODE
 70
     0
  9
$MIRRTEXT
 70
     1
  9
$DRAGMODE
 70
     2
  9
$LTSCALE
 40
1.0
  9
$OSMODE
 70
   613
  9
$ATTMODE
 70
     1
  9
$TEXTSIZE
 40
0.5
  9
$TRACEWID
 40
0.05
  9
$TEXTSTYLE
  7
STANDARD
  9
$CLAYER
  8
CLUSTERS
  9
$CELTYPE
  6
BYLAYER
  9
$CECOLOR
 62
   256
  9
$DIMSCALE
 40
1.0
  9
$DIMASZ
 40
0.18
  9
$DIMEXO
 40
0.0625
  9
$DIMDLI
 40
0.38
  9
$DIMRND
 40
0.0
  9
$DIMDLE
 40
0.0
  9
$DIMEXE
 40
0.18
  9
$DIMTP
 40
0.0
  9
$DIMTM
 40
0.0
  9
$DIMTXT
 40
0.18
  9
$DIMCEN
 40
0.09
  9
$DIMTSZ
 40
0.0
  9
$DIMTOL
 70
     0
  9
$DIMLIM
 70
     0
  9
$DIMTIH
 70
     1
  9
$DIMTOH
 70
     1
  9
$DIMSE1
 70
     0
  9
$DIMSE2
 70
     0
  9
$DIMTAD
 70
     0
  9
$DIMZIN
 70
     0
  9
$DIMBLK
  1

  9
$DIMASO
 70
     1
  9
$DIMSHO
 70
     1
  9
$DIMPOST
  1

  9
$DIMAPOST
  1

  9
$DIMALT
 70
     0
  9
$DIMALTD
 70
     2
  9
$DIMALTF
 40
25.399999999999999
  9
$DIMLFAC
 40
1.0
  9
$DIMTOFL
 70
     0
  9
$DIMTVP
 40
0.0
  9
$DIMTIX
 70
     0
  9
$DIMSOXD
 70
     0
  9
$DIMSAH
 70
     0
  9
$DIMBLK1
  1

  9
$DIMBLK2
  1

  9
$DIMSTYLE
  2
STANDARD
  9
$DIMCLRD
 70
     0
  9
$DIMCLRE
 70
     0
  9
$DIMCLRT
 70
     0
  9
$DIMTFAC
 40
1.0
  9
$DIMGAP
 40
0.09
  9
$LUNITS
 70
     2
  9
$LUPREC
 70
     4
  9
$SKETCHINC
 40
0.1
  9
$FILLETRAD
 40
0.5
  9
$AUNITS
 70
     0
  9
$AUPREC
 70
     0
  9
$MENU
  1
.
  9
$ELEVATION
 40
0.0
  9
$PELEVATION
 40
0.0
  9
$THICKNESS
 40
0.0
  9
$LIMCHECK
 70
     0
  9
$BLIPMODE
 70
     0
  9
$CHAMFERA
 40
0.5
  9
$CHAMFERB
 40
0.5
  9
$SKPOLY
 70
     0
  9
$TDCREATE
 40
2454381.8473497801
  9
$TDUPDATE
 40
2455808.6606188542
  9
$TDINDWG
 40
0.2023356829
  9
$TDUSRTIMER
 40
0.2023356829
  9
$USRTIMER
 70
     1
  9
$ANGBASE
 50
0.0
  9
$ANGDIR
 70
     1
  9
$PDMODE
 70
    66
  9
$PDSIZE
 40
0.0
  9
$PLINEWID
 40
0.0
  9
$COORDS
 70
     1
  9
$SPLFRAME
 70
     0
  9
$SPLINETYPE
 70
     6
  9
$SPLINESEGS
 70
     8
  9
$ATTDIA
 70
     0
  9
$ATTREQ
 70
     1
  9
$HANDLING
 70
     1
  9
$HANDSEED
  5
78F
  9
$SURFTAB1
 70
     6
  9
$SURFTAB2
 70
     6
  9
$SURFTYPE
 70
     6
  9
$SURFU
 70
     6
  9
$SURFV
 70
     6
  9
$UCSNAME
  2

  9
$UCSORG
 10
0.0
 20
0.0
 30
0.0
  9
$UCSXDIR
 10
1.0
 20
0.0
 30
0.0
  9
$UCSYDIR
 10
0.0
 20
1.0
 30
0.0
  9
$PUCSNAME
  2

  9
$PUCSORG
 10
0.0
 20
0.0
 30
0.0
  9
$PUCSXDIR
 10
1.0
 20
0.0
 30
0.0
  9
$PUCSYDIR
 10
0.0
 20
1.0
 30
0.0
  9
$USERI1
 70
     0
  9
$USERI2
 70
     0
  9
$USERI3
 70
     0
  9
$USERI4
 70
     0
  9
$USERI5
 70
     0
  9
$USERR1
 40
0.0
  9
$USERR2
 40
0.0
  9
$USERR3
 40
0.0
  9
$USERR4
 40
0.0
  9
$USERR5
 40
0.0
  9
$WORLDVIEW
 70
     1
  9
$SHADEDGE
 70
     3
  9
$SHADEDIF
 70
    70
  9
$TILEMODE
 70
     1
  9
$MAXACTVP
 70
    64
  9
$PLIMCHECK
 70
     0
  9
$PEXTMIN
 10
0.0
 20
0.0
 30
0.0
  9
$PEXTMAX
 10
0.0
 20
0.0
 30
0.0
  9
$PLIMMIN
 10
0.0
 20
0.0
  9
$PLIMMAX
 10
12.0
 20
9.0
  9
$UNITMODE
 70
     0
  9
$VISRETAIN
 70
     1
  9
$PLINEGEN
 70
     0
  9
$PSLTSCALE
 70
     1
  0
ENDSEC
  0
SECTION
  2
TABLES
  0
TABLE
  2
VPORT
 70
     1
  0
VPORT
  2
*ACTIVE
 70
     0
 10
0.0
 20
0.0
 11
1.0
 21
1.0
 12
648.06645335549013
 22
4693.4160238555851
 13
0.0
 23
0.0
 14
0.5
 24
0.5
 15
0.5
 25
0.5
 16
0.0
 26
0.0
 36
1.0
 17
0.0
 27
0.0
 37
0.0
 40
72.187092024790616
 41
1.336206896551724
 42
50.0
 43
0.0
 44
0.0
 50
0.0
 51
0.0
 71
     0
 72
   100
 73
     1
 74
     2
 75
     0
 76
     0
 77
     0
 78
     0
  0
ENDTAB
  0
TABLE
  2
LTYPE
 70
     1
  0
LTYPE
  2
CONTINUOUS
 70
     0
  3
Solid line
 72
    65
 73
     0
 40
0.0
  0
ENDTAB
  0
TABLE
  2
LAYER
 70
     3
  0
LAYER
  2
0
 70
     0
 62
    -7
  6
CONTINUOUS
  0
LAYER
  2
CLUSTERS
 70
     0
 62
     6
  6
CONTINUOUS
  0
ENDTAB
  0
TABLE
  2
STYLE
 70
     2
  0
STYLE
  2
STANDARD
 70
     0
 40
0.0
 41
1.0
 50
0.0
 71
     0
 42
0.5
  3
txt
  4

  0
STYLE
  2
LEGEND
 70
     0
 40
0.0
 41
1.0
 50
0.0
 71
     0
 42
0.5
  3
txt
  4

  0
ENDTAB
  0
TABLE
  2
VIEW
 70
     0
  0
ENDTAB
  0
TABLE
  2
UCS
 70
     0
  0
ENDTAB
  0
TABLE
  2
APPID
 70
     6
  0
APPID
  2
ACAD
 70
     0
  0
APPID
  2
ADE
 70
     0
  0
APPID
  2
ACMAPDMDISPLAYSTYLEREGAPP
 70
     0
  0
APPID
  2
MAPGWS
 70
     0
  0
APPID
  2
DCO15
 70
     0
  0
APPID
  2
ACAD_MLEADERVER
 70
     0
  0
ENDTAB
  0
TABLE
  2
DIMSTYLE
 70
     1
  0
DIMSTYLE
  2
STANDARD
 70
     0
  3

  4

  5

  6

  7

 40
1.0
 41
0.18
 42
0.0625
 43
0.38
 44
0.18
 45
0.0
 46
0.0
 47
0.0
 48
0.0
140
0.18
141
0.09
142
0.0
143
25.399999999999999
144
1.0
145
0.0
146
1.0
147
0.09
 71
     0
 72
     0
 73
     1
 74
     1
 75
     0
 76
     0
 77
     0
 78
     0
170
     0
171
     2
172
     0
173
     0
174
     0
175
     0
176
     0
177
     0
178
     0
  0
ENDTAB
  0
ENDSEC
  0
SECTION
  2
BLOCKS
  0
BLOCK
  8
0
  2
$MODEL_SPACE
 70
     0
 10
0.0
 20
0.0
 30
0.0
  3
$MODEL_SPACE
  1

  0
ENDBLK
  5
C
  8
0
  0
BLOCK
 67
     1
  8
0
  2
$PAPER_SPACE
 70
     0
 10
0.0
 20
0.0
 30
0.0
  3
$PAPER_SPACE
  1

  0
ENDBLK
  5
11
 67
     1
  8
0
  0
ENDSEC
  0
SECTION
  2
ENTITIES
  0
POLYLINE
  5
28
  8
CLUSTERS
 66
     1
 10
0.0
 20
0.0
 30
25.0
 70
   129
  0
VERTEX
  5
F7
  8
CLUSTERS
 10
635.93945735699992
 20
4698.692124109999
 30
25.0
  0
VERTEX
  5
F8
  8
CLUSTERS
 10
635.92374727699985
 20
4698.71205998
 30
25.0
  0
VERTEX
  5
F9
  8
CLUSTERS
 10
635.82623766199993
 20
4698.7923627700002
 30
25.0
  0
VERTEX
  5
FA
  8
CLUSTERS
 10
635.82352941199986
 20
4698.7982105900001
 30
25.0
  0
VERTEX
  5
FB
  8
CLUSTERS
 10
635.76892137799996
 20
4698.8926014299977
 30
25.0
  0
VERTEX
  5
FC
  8
CLUSTERS
 10
635.82352941199986
 20
4698.9475885800002
 30
25.0
  0
VERTEX
  5
FD
  8
CLUSTERS
 10
635.92374727699985
 20
4698.9822041300004
 30
25.0
  0
VERTEX
  5
FE
  8
CLUSTERS
 10
636.02396514199984
 20
4698.9878839200001
 30
25.0
  0
VERTEX
  5
FF
  8
CLUSTERS
 10
636.05408331499984
 20
4698.9928400999979
 30
25.0
  0
VERTEX
  5
100
  8
CLUSTERS
 10
636.12418300699994
 20
4699.04870157
 30
25.0
  0
VERTEX
  5
101
  8
CLUSTERS
 10
636.19600849899984
 20
4698.9928400999979
 30
25.0
  0
VERTEX
  5
102
  8
CLUSTERS
 10
636.22440087099994
 20
4698.96405211
 30
25.0
  0
VERTEX
  5
103
  8
CLUSTERS
 10
636.28358454800002
 20
4698.8926014299977
 30
25.0
  0
VERTEX
  5
104
  8
CLUSTERS
 10
636.30378377300008
 20
4698.7923627700002
 30
25.0
  0
VERTEX
  5
105
  8
CLUSTERS
 10
636.27716393399999
 20
4698.692124109999
 30
25.0
  0
VERTEX
  5
106
  8
CLUSTERS
 10
636.22440087099994
 20
4698.6383087200002
 30
25.0
  0
VERTEX
  5
107
  8
CLUSTERS
 10
636.12418300699994
 20
4698.5985268999984
 30
25.0
  0
VERTEX
  5
108
  8
CLUSTERS
 10
636.02396514199984
 20
4698.6111914700004
 30
25.0
  0
VERTEX
  5
109
  8
CLUSTERS
 10
635.93945735699992
 20
4698.692124109999
 30
25.0
  0
SEQEND
  5
10A
  8
CLUSTERS
  0
POLYLINE
  5
2A
  8
CLUSTERS
 66
     1
 10
0.0
 20
0.0
 30
25.0
 70
   129
  0
VERTEX
  5
10B
  8
CLUSTERS
 10
635.23997181200002
 20
4697.99045346
 30
25.0
  0
VERTEX
  5
10C
  8
CLUSTERS
 10
635.232264891
 20
4698.0906921200003
 30
25.0
  0
VERTEX
  5
10D
  8
CLUSTERS
 10
635.23429483500001
 20
4698.1909307899996
 30
25.0
  0
VERTEX
  5
10E
  8
CLUSTERS
 10
635.25423570500004
 20
4698.2911694499999
 30
25.0
  0
VERTEX
  5
10F
  8
CLUSTERS
 10
635.32244008700002
 20
4698.3596899000004
 30
25.0
  0
VERTEX
  5
110
  8
CLUSTERS
 10
635.42265795200001
 20
4698.3662185100002
 30
25.0
  0
VERTEX
  5
111
  8
CLUSTERS
 10
635.43727940899976
 20
4698.3914081100002
 30
25.0
  0
VERTEX
  5
112
  8
CLUSTERS
 10
635.42265795200001
 20
4698.4538787900001
 30
25.0
  0
VERTEX
  5
113
  8
CLUSTERS
 10
635.39228879400002
 20
4698.4916467800003
 30
25.0
  0
VERTEX
  5
114
  8
CLUSTERS
 10
635.34129690999976
 20
4698.5918854399988
 30
25.0
  0
VERTEX
  5
115
  8
CLUSTERS
 10
635.33889839800008
 20
4698.692124109999
 30
25.0
  0
VERTEX
  5
116
  8
CLUSTERS
 10
635.40276288699988
 20
4698.7923627700002
 30
25.0
  0
VERTEX
  5
117
  8
CLUSTERS
 10
635.32244008700002
 20
4698.8576679099997
 30
25.0
  0
VERTEX
  5
118
  8
CLUSTERS
 10
635.30003983300003
 20
4698.8926014299977
 30
25.0
  0
VERTEX
  5
119
  8
CLUSTERS
 10
635.32244008700002
 20
4698.9294457899987
 30
25.0
  0
VERTEX
  5
11A
  8
CLUSTERS
 10
635.42265795200001
 20
4698.9597426700002
 30
25.0
  0
VERTEX
  5
11B
  8
CLUSTERS
 10
635.49384222200001
 20
4698.8926014299977
 30
25.0
  0
VERTEX
  5
11C
  8
CLUSTERS
 10
635.43811275099995
 20
4698.7923627700002
 30
25.0
  0
VERTEX
  5
11D
  8
CLUSTERS
 10
635.52287581699989
 20
4698.71904094
 30
25.0
  0
VERTEX
  5
11E
  8
CLUSTERS
 10
635.547146054
 20
4698.692124109999
 30
25.0
  0
VERTEX
  5
11F
  8
CLUSTERS
 10
635.62309368199999
 20
4698.5951733800002
 30
25.0
  0
VERTEX
  5
120
  8
CLUSTERS
 10
635.62614950499983
 20
4698.5918854399988
 30
25.0
  0
VERTEX
  5
121
  8
CLUSTERS
 10
635.71594416000005
 20
4698.4916467800003
 30
25.0
  0
VERTEX
  5
122
  8
CLUSTERS
 10
635.69384700900002
 20
4698.3914081100002
 30
25.0
  0
VERTEX
  5
123
  8
CLUSTERS
 10
635.62309368199999
 20
4698.3269054700004
 30
25.0
  0
VERTEX
  5
124
  8
CLUSTERS
 10
635.52287581699989
 20
4698.2977138300002
 30
25.0
  0
VERTEX
  5
125
  8
CLUSTERS
 10
635.51078133700003
 20
4698.2911694499999
 30
25.0
  0
VERTEX
  5
126
  8
CLUSTERS
 10
635.51025487000004
 20
4698.1909307899996
 30
25.0
  0
VERTEX
  5
127
  8
CLUSTERS
 10
635.48508281099998
 20
4698.0906921200003
 30
25.0
  0
VERTEX
  5
128
  8
CLUSTERS
 10
635.42265795200001
 20
4697.9971676900004
 30
25.0
  0
VERTEX
  5
129
  8
CLUSTERS
 10
635.42054670000005
 20
4697.99045346
 30
25.0
  0
VERTEX
  5
12A
  8
CLUSTERS
 10
635.32244008700002
 20
4697.8913821799988
 30
25.0
  0
VERTEX
  5
12B
  8
CLUSTERS
 10
635.23997181200002
 20
4697.99045346
 30
25.0
  0
SEQEND
  5
12C
  8
CLUSTERS
  0
POLYLINE
  5
2B
  8
CLUSTERS
 66
     1
 10
0.0
 20
0.0
 30
25.0
 70
   129
  0
VERTEX
  5
12D
  8
CLUSTERS
 10
642.04503268099995
 20
4696.5871121700002
 30
25.0
  0
VERTEX
  5
12E
  8
CLUSTERS
 10
642.03972293100003
 20
4696.6873508400004
 30
25.0
  0
VERTEX
  5
12F
  8
CLUSTERS
 10
642.12774005300003
 20
4696.7875895000006
 30
25.0
  0
VERTEX
  5
130
  8
CLUSTERS
 10
642.037037037
 20
4696.8162976800004
 30
25.0
  0
VERTEX
  5
131
  8
CLUSTERS
 10
641.93681917200001
 20
4696.81576279
 30
25.0
  0
VERTEX
  5
132
  8
CLUSTERS
 10
641.83660130699991
 20
4696.8122750499997
 30
25.0
  0
VERTEX
  5
133
  8
CLUSTERS
 10
641.73638344199992
 20
4696.837837
 30
25.0
  0
VERTEX
  5
134
  8
CLUSTERS
 10
641.68003254799976
 20
4696.88782816
 30
25.0
  0
VERTEX
  5
135
  8
CLUSTERS
 10
641.63616557699993
 20
4696.943802329999
 30
25.0
  0
VERTEX
  5
136
  8
CLUSTERS
 10
641.59877063199997
 20
4696.9880668300002
 30
25.0
  0
VERTEX
  5
137
  8
CLUSTERS
 10
641.58338807400003
 20
4697.0883054899996
 30
25.0
  0
VERTEX
  5
138
  8
CLUSTERS
 10
641.63616557699993
 20
4697.1521225899996
 30
25.0
  0
VERTEX
  5
139
  8
CLUSTERS
 10
641.68007477000003
 20
4697.1885441499999
 30
25.0
  0
VERTEX
  5
13A
  8
CLUSTERS
 10
641.73638344199992
 20
4697.2358456999982
 30
25.0
  0
VERTEX
  5
13B
  8
CLUSTERS
 10
641.83660130699991
 20
4697.264207109999
 30
25.0
  0
VERTEX
  5
13C
  8
CLUSTERS
 10
641.93681917200001
 20
4697.2650660400004
 30
25.0
  0
VERTEX
  5
13D
  8
CLUSTERS
 10
641.94780822300004
 20
4697.2887828200001
 30
25.0
  0
VERTEX
  5
13E
  8
CLUSTERS
 10
641.98198700399985
 20
4697.3890214800003
 30
25.0
  0
VERTEX
  5
13F
  8
CLUSTERS
 10
642.037037037
 20
4697.4416266199978
 30
25.0
  0
VERTEX
  5
140
  8
CLUSTERS
 10
642.13725490199988
 20
4697.468868859999
 30
25.0
  0
VERTEX
  5
141
  8
CLUSTERS
 10
642.21967630999984
 20
4697.3890214800003
 30
25.0
  0
VERTEX
  5
142
  8
CLUSTERS
 10
642.23095296099984
 20
4697.2887828200001
 30
25.0
  0
VERTEX
  5
143
  8
CLUSTERS
 10
642.19632536899985
 20
4697.1885441499999
 30
25.0
  0
VERTEX
  5
144
  8
CLUSTERS
 10
642.23747276699999
 20
4697.1777896000003
 30
25.0
  0
VERTEX
  5
145
  8
CLUSTERS
 10
642.32562859099994
 20
4697.0883054899996
 30
25.0
  0
VERTEX
  5
146
  8
CLUSTERS
 10
642.32280326099988
 20
4696.9880668300002
 30
25.0
  0
VERTEX
  5
147
  8
CLUSTERS
 10
642.23747276699999
 20
4696.8911800799979
 30
25.0
  0
VERTEX
  5
148
  8
CLUSTERS
 10
642.22071322099976
 20
4696.88782816
 30
25.0
  0
VERTEX
  5
149
  8
CLUSTERS
 10
642.14808779199984
 20
4696.7875895000006
 30
25.0
  0
VERTEX
  5
14A
  8
CLUSTERS
 10
642.23747276699999
 20
4696.7852220300001
 30
25.0
  0
VERTEX
  5
14B
  8
CLUSTERS
 10
642.33679651299997
 20
4696.6873508400004
 30
25.0
  0
VERTEX
  5
14C
  8
CLUSTERS
 10
642.33117493700001
 20
4696.5871121700002
 30
25.0
  0
VERTEX
  5
14D
  8
CLUSTERS
 10
642.23747276699999
 20
4696.4920983399998
 30
25.0
  0
VERTEX
  5
14E
  8
CLUSTERS
 10
642.13725490199988
 20
4696.4882746900003
 30
25.0
  0
VERTEX
  5
14F
  8
CLUSTERS
 10
642.04503268099995
 20
4696.5871121700002
 30
25.0
  0
SEQEND
  5
150
  8
CLUSTERS
  0
POLYLINE
  5
2C
  8
CLUSTERS
 66
     1
 10
0.0
 20
0.0
 30
25.0
 70
   129
  0
VERTEX
  5
151
  8
CLUSTERS
 10
640.31549784399988
 20
4696.0859188499999
 30
25.0
  0
VERTEX
  5
152
  8
CLUSTERS
 10
640.24783230100002
 20
4696.1861575200001
 30
25.0
  0
VERTEX
  5
153
  8
CLUSTERS
 10
640.23311546800005
 20
4696.2704654700001
 30
25.0
  0
VERTEX
  5
154
  8
CLUSTERS
 10
640.21990634799999
 20
4696.2863961800003
 30
25.0
  0
VERTEX
  5
155
  8
CLUSTERS
 10
640.18206963699993
 20
4696.3866348399979
 30
25.0
  0
VERTEX
  5
156
  8
CLUSTERS
 10
640.13289760300006
 20
4696.4087555599999
 30
25.0
  0
VERTEX
  5
157
  8
CLUSTERS
 10
640.05157639900006
 20
4696.486873509999
 30
25.0
  0
VERTEX
  5
158
  8
CLUSTERS
 10
640.03267973899995
 20
4696.52728604
 30
25.0
  0
VERTEX
  5
159
  8
CLUSTERS
 10
639.99001094000005
 20
4696.5871121700002
 30
25.0
  0
VERTEX
  5
15A
  8
CLUSTERS
 10
640.03267973899995
 20
4696.6298519900001
 30
25.0
  0
VERTEX
  5
15B
  8
CLUSTERS
 10
640.13289760300006
 20
4696.6671256899999
 30
25.0
  0
VERTEX
  5
15C
  8
CLUSTERS
 10
640.23311546800005
 20
4696.6675268299978
 30
25.0
  0
VERTEX
  5
15D
  8
CLUSTERS
 10
640.33092853999983
 20
4696.5871121700002
 30
25.0
  0
VERTEX
  5
15E
  8
CLUSTERS
 10
640.32491811199975
 20
4696.486873509999
 30
25.0
  0
VERTEX
  5
15F
  8
CLUSTERS
 10
640.33333333300004
 20
4696.4677711300001
 30
25.0
  0
VERTEX
  5
160
  8
CLUSTERS
 10
640.38408766500004
 20
4696.3866348399979
 30
25.0
  0
VERTEX
  5
161
  8
CLUSTERS
 10
640.43355119800003
 20
4696.3582679499987
 30
25.0
  0
VERTEX
  5
162
  8
CLUSTERS
 10
640.44785176400001
 20
4696.3866348399979
 30
25.0
  0
VERTEX
  5
163
  8
CLUSTERS
 10
640.50206428800004
 20
4696.486873509999
 30
25.0
  0
VERTEX
  5
164
  8
CLUSTERS
 10
640.53376906300002
 20
4696.51980981
 30
25.0
  0
VERTEX
  5
165
  8
CLUSTERS
 10
640.57828203500003
 20
4696.486873509999
 30
25.0
  0
VERTEX
  5
166
  8
CLUSTERS
 10
640.6339869279999
 20
4696.4623489300002
 30
25.0
  0
VERTEX
  5
167
  8
CLUSTERS
 10
640.69815072699998
 20
4696.3866348399979
 30
25.0
  0
VERTEX
  5
168
  8
CLUSTERS
 10
640.6339869279999
 20
4696.3124982400013
 30
25.0
  0
VERTEX
  5
169
  8
CLUSTERS
 10
640.53376906300002
 20
4696.2883832599991
 30
25.0
  0
VERTEX
  5
16A
  8
CLUSTERS
 10
640.52918280300003
 20
4696.2863961800003
 30
25.0
  0
VERTEX
  5
16B
  8
CLUSTERS
 10
640.51555067100003
 20
4696.1861575200001
 30
25.0
  0
VERTEX
  5
16C
  8
CLUSTERS
 10
640.49873873699994
 20
4696.0859188499999
 30
25.0
  0
VERTEX
  5
16D
  8
CLUSTERS
 10
640.43355119800003
 20
4696.0196203100004
 30
25.0
  0
VERTEX
  5
16E
  8
CLUSTERS
 10
640.33333333300004
 20
4696.0673621300002
 30
25.0
  0
VERTEX
  5
16F
  8
CLUSTERS
 10
640.31549784399988
 20
4696.0859188499999
 30
25.0
  0
SEQEND
  5
170
  8
CLUSTERS
  0
POLYLINE
  5
2D
  8
CLUSTERS
 66
     1
 10
0.0
 20
0.0
 30
25.0
 70
   129
  0
VERTEX
  5
171
  8
CLUSTERS
 10
631.42497655
 20
4694.6825775699999
 30
25.0
  0
VERTEX
  5
172
  8
CLUSTERS
 10
631.4148618349999
 20
4694.7828162300002
 30
25.0
  0
VERTEX
  5
173
  8
CLUSTERS
 10
631.41816373099994
 20
4694.8830548899996
 30
25.0
  0
VERTEX
  5
174
  8
CLUSTERS
 10
631.51416122000001
 20
4694.9815530799979
 30
25.0
  0
VERTEX
  5
175
  8
CLUSTERS
 10
631.52492068599986
 20
4694.9832935599989
 30
25.0
  0
VERTEX
  5
176
  8
CLUSTERS
 10
631.51416122000001
 20
4695.0081259600001
 30
25.0
  0
VERTEX
  5
177
  8
CLUSTERS
 10
631.46953956499999
 20
4695.0835322199991
 30
25.0
  0
VERTEX
  5
178
  8
CLUSTERS
 10
631.51416122000001
 20
4695.1281356199997
 30
25.0
  0
VERTEX
  5
179
  8
CLUSTERS
 10
631.61437908499988
 20
4695.167431259998
 30
25.0
  0
VERTEX
  5
17A
  8
CLUSTERS
 10
631.71459694999999
 20
4695.1690563000002
 30
25.0
  0
VERTEX
  5
17B
  8
CLUSTERS
 10
631.81481481499975
 20
4695.08823235
 30
25.0
  0
VERTEX
  5
17C
  8
CLUSTERS
 10
631.82013117899999
 20
4695.0835322199991
 30
25.0
  0
VERTEX
  5
17D
  8
CLUSTERS
 10
631.81481481499975
 20
4695.05321835
 30
25.0
  0
VERTEX
  5
17E
  8
CLUSTERS
 10
631.81131307299995
 20
4694.9832935599989
 30
25.0
  0
VERTEX
  5
17F
  8
CLUSTERS
 10
631.80501344299989
 20
4694.8830548899996
 30
25.0
  0
VERTEX
  5
180
  8
CLUSTERS
 10
631.80446148899978
 20
4694.7828162300002
 30
25.0
  0
VERTEX
  5
181
  8
CLUSTERS
 10
631.76812527799996
 20
4694.6825775699999
 30
25.0
  0
VERTEX
  5
182
  8
CLUSTERS
 10
631.71459694999999
 20
4694.6293929100002
 30
25.0
  0
VERTEX
  5
183
  8
CLUSTERS
 10
631.61437908499988
 20
4694.5928811399999
 30
25.0
  0
VERTEX
  5
184
  8
CLUSTERS
 10
631.51416122000001
 20
4694.591586909999
 30
25.0
  0
VERTEX
  5
185
  8
CLUSTERS
 10
631.42497655
 20
4694.6825775699999
 30
25.0
  0
SEQEND
  5
186
  8
CLUSTERS
  0
POLYLINE
  5
2E
  8
CLUSTERS
 66
     1
 10
0.0
 20
0.0
 30
25.0
 70
   129
  0
VERTEX
  5
187
  8
CLUSTERS
 10
634.33231585999999
 20
4692.3770883099978
 30
25.0
  0
VERTEX
  5
188
  8
CLUSTERS
 10
634.32026143799987
 20
4692.4124334899998
 30
25.0
  0
VERTEX
  5
189
  8
CLUSTERS
 10
634.22004357299977
 20
4692.3798543499997
 30
25.0
  0
VERTEX
  5
18A
  8
CLUSTERS
 10
634.11982570800001
 20
4692.40592027
 30
25.0
  0
VERTEX
  5
18B
  8
CLUSTERS
 10
634.05104007699993
 20
4692.477326969999
 30
25.0
  0
VERTEX
  5
18C
  8
CLUSTERS
 10
634.02001947700001
 20
4692.5775656300002
 30
25.0
  0
VERTEX
  5
18D
  8
CLUSTERS
 10
634.0196078429999
 20
4692.5779669900003
 30
25.0
  0
VERTEX
  5
18E
  8
CLUSTERS
 10
633.91938997800003
 20
4692.5900657800012
 30
25.0
  0
VERTEX
  5
18F
  8
CLUSTERS
 10
633.81917211300004
 20
4692.5979169399998
 30
25.0
  0
VERTEX
  5
190
  8
CLUSTERS
 10
633.74333104899995
 20
4692.6778043000004
 30
25.0
  0
VERTEX
  5
191
  8
CLUSTERS
 10
633.72663178900007
 20
4692.7780429599989
 30
25.0
  0
VERTEX
  5
192
  8
CLUSTERS
 10
633.81917211300004
 20
4692.8709270099998
 30
25.0
  0
VERTEX
  5
193
  8
CLUSTERS
 10
633.91938997800003
 20
4692.87493103
 30
25.0
  0
VERTEX
  5
194
  8
CLUSTERS
 10
634.0196078429999
 20
4692.8594187999997
 30
25.0
  0
VERTEX
  5
195
  8
CLUSTERS
 10
634.10621641300008
 20
4692.7780429599989
 30
25.0
  0
VERTEX
  5
196
  8
CLUSTERS
 10
634.11982570800001
 20
4692.7176795699997
 30
25.0
  0
VERTEX
  5
197
  8
CLUSTERS
 10
634.22004357299977
 20
4692.7753438999998
 30
25.0
  0
VERTEX
  5
198
  8
CLUSTERS
 10
634.32026143799987
 20
4692.7725788999978
 30
25.0
  0
VERTEX
  5
199
  8
CLUSTERS
 10
634.42047930299998
 20
4692.68474109
 30
25.0
  0
VERTEX
  5
19A
  8
CLUSTERS
 10
634.427632722
 20
4692.6778043000004
 30
25.0
  0
VERTEX
  5
19B
  8
CLUSTERS
 10
634.52069716799997
 20
4692.6687393999991
 30
25.0
  0
VERTEX
  5
19C
  8
CLUSTERS
 10
634.61828611600004
 20
4692.5775656300002
 30
25.0
  0
VERTEX
  5
19D
  8
CLUSTERS
 10
634.61321811000005
 20
4692.477326969999
 30
25.0
  0
VERTEX
  5
19E
  8
CLUSTERS
 10
634.52069716799997
 20
4692.3811235900002
 30
25.0
  0
VERTEX
  5
19F
  8
CLUSTERS
 10
634.51679794300003
 20
4692.3770883099978
 30
25.0
  0
VERTEX
  5
1A0
  8
CLUSTERS
 10
634.42047930299998
 20
4692.2907329899999
 30
25.0
  0
VERTEX
  5
1A1
  8
CLUSTERS
 10
634.33231585999999
 20
4692.3770883099978
 30
25.0
  0
SEQEND
  5
1A2
  8
CLUSTERS
  0
POLYLINE
  5
2F
  8
CLUSTERS
 66
     1
 10
0.0
 20
0.0
 30
25.0
 70
   129
  0
VERTEX
  5
1A3
  8
CLUSTERS
 10
634.57786559099998
 20
4692.1766109800001
 30
25.0
  0
VERTEX
  5
1A4
  8
CLUSTERS
 10
634.53742760900002
 20
4692.2768496400004
 30
25.0
  0
VERTEX
  5
1A5
  8
CLUSTERS
 10
634.62091503299996
 20
4692.3706956300002
 30
25.0
  0
VERTEX
  5
1A6
  8
CLUSTERS
 10
634.63007394699991
 20
4692.3770883099978
 30
25.0
  0
VERTEX
  5
1A7
  8
CLUSTERS
 10
634.660695121
 20
4692.477326969999
 30
25.0
  0
VERTEX
  5
1A8
  8
CLUSTERS
 10
634.72113289800006
 20
4692.5119174299998
 30
25.0
  0
VERTEX
  5
1A9
  8
CLUSTERS
 10
634.82135076300005
 20
4692.539415719998
 30
25.0
  0
VERTEX
  5
1AA
  8
CLUSTERS
 10
634.92156862699994
 20
4692.5541075299989
 30
25.0
  0
VERTEX
  5
1AB
  8
CLUSTERS
 10
634.98852516099987
 20
4692.477326969999
 30
25.0
  0
VERTEX
  5
1AC
  8
CLUSTERS
 10
634.92156862699994
 20
4692.4090955499996
 30
25.0
  0
VERTEX
  5
1AD
  8
CLUSTERS
 10
634.88614923599994
 20
4692.3770883099978
 30
25.0
  0
VERTEX
  5
1AE
  8
CLUSTERS
 10
634.82135076300005
 20
4692.2913973200002
 30
25.0
  0
VERTEX
  5
1AF
  8
CLUSTERS
 10
634.81880070800003
 20
4692.2768496400004
 30
25.0
  0
VERTEX
  5
1B0
  8
CLUSTERS
 10
634.74368677199993
 20
4692.1766109800001
 30
25.0
  0
VERTEX
  5
1B1
  8
CLUSTERS
 10
634.72113289800006
 20
4692.1569887100004
 30
25.0
  0
VERTEX
  5
1B2
  8
CLUSTERS
 10
634.62091503299996
 20
4692.1323029900013
 30
25.0
  0
VERTEX
  5
1B3
  8
CLUSTERS
 10
634.57786559099998
 20
4692.1766109800001
 30
25.0
  0
SEQEND
  5
1B4
  8
CLUSTERS
  0
POLYLINE
  5
30
  8
CLUSTERS
 66
     1
 10
0.0
 20
0.0
 30
25.0
 70
   129
  0
VERTEX
  5
1B5
  8
CLUSTERS
 10
639.53554146900001
 20
4691.7756563199991
 30
25.0
  0
VERTEX
  5
1B6
  8
CLUSTERS
 10
639.53159041399999
 20
4691.8219183299989
 30
25.0
  0
VERTEX
  5
1B7
  8
CLUSTERS
 10
639.50301549899996
 20
4691.8758949900002
 30
25.0
  0
VERTEX
  5
1B8
  8
CLUSTERS
 10
639.53159041399999
 20
4691.90427301
 30
25.0
  0
VERTEX
  5
1B9
  8
CLUSTERS
 10
639.57519287100001
 20
4691.9761336499978
 30
25.0
  0
VERTEX
  5
1BA
  8
CLUSTERS
 10
639.63180827899976
 20
4692.0322209799979
 30
25.0
  0
VERTEX
  5
1BB
  8
CLUSTERS
 10
639.73202614399986
 20
4691.9840034299987
 30
25.0
  0
VERTEX
  5
1BC
  8
CLUSTERS
 10
639.74004290699997
 20
4691.9761336499978
 30
25.0
  0
VERTEX
  5
1BD
  8
CLUSTERS
 10
639.811380504
 20
4691.8758949900002
 30
25.0
  0
VERTEX
  5
1BE
  8
CLUSTERS
 10
639.74098384000001
 20
4691.7756563199991
 30
25.0
  0
VERTEX
  5
1BF
  8
CLUSTERS
 10
639.73202614399986
 20
4691.7663951900013
 30
25.0
  0
VERTEX
  5
1C0
  8
CLUSTERS
 10
639.63180827899976
 20
4691.68396596
 30
25.0
  0
VERTEX
  5
1C1
  8
CLUSTERS
 10
639.53554146900001
 20
4691.7756563199991
 30
25.0
  0
SEQEND
  5
1C2
  8
CLUSTERS
  0
POLYLINE
  5
31
  8
CLUSTERS
 66
     1
 10
0.0
 20
0.0
 30
25.0
 70
   129
  0
VERTEX
  5
1C3
  8
CLUSTERS
 10
639.08134727699985
 20
4691.6754176599989
 30
25.0
  0
VERTEX
  5
1C4
  8
CLUSTERS
 10
639.03663390400004
 20
4691.7756563199991
 30
25.0
  0
VERTEX
  5
1C5
  8
CLUSTERS
 10
639.03163004600003
 20
4691.8758949900002
 30
25.0
  0
VERTEX
  5
1C6
  8
CLUSTERS
 10
639.04944849599985
 20
4691.9761336499978
 30
25.0
  0
VERTEX
  5
1C7
  8
CLUSTERS
 10
639.13071895400003
 20
4692.0754462399991
 30
25.0
  0
VERTEX
  5
1C8
  8
CLUSTERS
 10
639.13480032400003
 20
4692.076372319998
 30
25.0
  0
VERTEX
  5
1C9
  8
CLUSTERS
 10
639.13071895400003
 20
4692.0766677600013
 30
25.0
  0
VERTEX
  5
1CA
  8
CLUSTERS
 10
639.03050108900004
 20
4692.0868333400003
 30
25.0
  0
VERTEX
  5
1CB
  8
CLUSTERS
 10
638.93243768900004
 20
4692.1766109800001
 30
25.0
  0
VERTEX
  5
1CC
  8
CLUSTERS
 10
638.93028322400005
 20
4692.1781890800003
 30
25.0
  0
VERTEX
  5
1CD
  8
CLUSTERS
 10
638.83006535899995
 20
4692.2029223500003
 30
25.0
  0
VERTEX
  5
1CE
  8
CLUSTERS
 10
638.75901865900005
 20
4692.2768496400004
 30
25.0
  0
VERTEX
  5
1CF
  8
CLUSTERS
 10
638.78048847299999
 20
4692.3770883099978
 30
25.0
  0
VERTEX
  5
1D0
  8
CLUSTERS
 10
638.76903266099976
 20
4692.477326969999
 30
25.0
  0
VERTEX
  5
1D1
  8
CLUSTERS
 10
638.76609718999987
 20
4692.5775656300002
 30
25.0
  0
VERTEX
  5
1D2
  8
CLUSTERS
 10
638.83006535899995
 20
4692.64330986
 30
25.0
  0
VERTEX
  5
1D3
  8
CLUSTERS
 10
638.93028322400005
 20
4692.6606912500001
 30
25.0
  0
VERTEX
  5
1D4
  8
CLUSTERS
 10
639.01832591799996
 20
4692.5775656300002
 30
25.0
  0
VERTEX
  5
1D5
  8
CLUSTERS
 10
639.03050108900004
 20
4692.5678220600003
 30
25.0
  0
VERTEX
  5
1D6
  8
CLUSTERS
 10
639.11011920399994
 20
4692.477326969999
 30
25.0
  0
VERTEX
  5
1D7
  8
CLUSTERS
 10
639.13071895400003
 20
4692.4055411600002
 30
25.0
  0
VERTEX
  5
1D8
  8
CLUSTERS
 10
639.15795195800001
 20
4692.3770883099978
 30
25.0
  0
VERTEX
  5
1D9
  8
CLUSTERS
 10
639.23093681900002
 20
4692.3536736300002
 30
25.0
  0
VERTEX
  5
1DA
  8
CLUSTERS
 10
639.32106303699993
 20
4692.2768496400004
 30
25.0
  0
VERTEX
  5
1DB
  8
CLUSTERS
 10
639.33085991999997
 20
4692.1766109800001
 30
25.0
  0
VERTEX
  5
1DC
  8
CLUSTERS
 10
639.27945383500003
 20
4692.076372319998
 30
25.0
  0
VERTEX
  5
1DD
  8
CLUSTERS
 10
639.280405567
 20
4691.9761336499978
 30
25.0
  0
VERTEX
  5
1DE
  8
CLUSTERS
 10
639.328518798
 20
4691.8758949900002
 30
25.0
  0
VERTEX
  5
1DF
  8
CLUSTERS
 10
639.31469740499983
 20
4691.7756563199991
 30
25.0
  0
VERTEX
  5
1E0
  8
CLUSTERS
 10
639.23093681900002
 20
4691.6839440499998
 30
25.0
  0
VERTEX
  5
1E1
  8
CLUSTERS
 10
639.20272010099995
 20
4691.6754176599989
 30
25.0
  0
VERTEX
  5
1E2
  8
CLUSTERS
 10
639.13071895400003
 20
4691.6255798800003
 30
25.0
  0
VERTEX
  5
1E3
  8
CLUSTERS
 10
639.08134727699985
 20
4691.6754176599989
 30
25.0
  0
SEQEND
  5
1E4
  8
CLUSTERS
  0
POLYLINE
  5
32
  8
CLUSTERS
 66
     1
 10
0.0
 20
0.0
 30
25.0
 70
   129
  0
VERTEX
  5
1E5
  8
CLUSTERS
 10
640.57502499199984
 20
4691.0739856800001
 30
25.0
  0
VERTEX
  5
1E6
  8
CLUSTERS
 10
640.54096955699993
 20
4691.1742243400004
 30
25.0
  0
VERTEX
  5
1E7
  8
CLUSTERS
 10
640.616305582
 20
4691.2744630099996
 30
25.0
  0
VERTEX
  5
1E8
  8
CLUSTERS
 10
640.53376906300002
 20
4691.3638685599981
 30
25.0
  0
VERTEX
  5
1E9
  8
CLUSTERS
 10
640.43355119800003
 20
4691.3296190299989
 30
25.0
  0
VERTEX
  5
1EA
  8
CLUSTERS
 10
640.38584784
 20
4691.3747016699999
 30
25.0
  0
VERTEX
  5
1EB
  8
CLUSTERS
 10
640.33333333300004
 20
4691.3935932699987
 30
25.0
  0
VERTEX
  5
1EC
  8
CLUSTERS
 10
640.237273609
 20
4691.4749403300002
 30
25.0
  0
VERTEX
  5
1ED
  8
CLUSTERS
 10
640.23311546800005
 20
4691.5067088100004
 30
25.0
  0
VERTEX
  5
1EE
  8
CLUSTERS
 10
640.206468696
 20
4691.5751789999986
 30
25.0
  0
VERTEX
  5
1EF
  8
CLUSTERS
 10
640.13289760300006
 20
4691.6571618799999
 30
25.0
  0
VERTEX
  5
1F0
  8
CLUSTERS
 10
640.11485934400002
 20
4691.6754176599989
 30
25.0
  0
VERTEX
  5
1F1
  8
CLUSTERS
 10
640.03540210699998
 20
4691.7756563199991
 30
25.0
  0
VERTEX
  5
1F2
  8
CLUSTERS
 10
640.13289760300006
 20
4691.8504982699997
 30
25.0
  0
VERTEX
  5
1F3
  8
CLUSTERS
 10
640.20995217899986
 20
4691.7756563199991
 30
25.0
  0
VERTEX
  5
1F4
  8
CLUSTERS
 10
640.15281605199993
 20
4691.6754176599989
 30
25.0
  0
VERTEX
  5
1F5
  8
CLUSTERS
 10
640.23311546800005
 20
4691.6039952600004
 30
25.0
  0
VERTEX
  5
1F6
  8
CLUSTERS
 10
640.24180144000002
 20
4691.6754176599989
 30
25.0
  0
VERTEX
  5
1F7
  8
CLUSTERS
 10
640.24163025599978
 20
4691.7756563199991
 30
25.0
  0
VERTEX
  5
1F8
  8
CLUSTERS
 10
640.33333333300004
 20
4691.8667536100002
 30
25.0
  0
VERTEX
  5
1F9
  8
CLUSTERS
 10
640.38759434899998
 20
4691.8758949900002
 30
25.0
  0
VERTEX
  5
1FA
  8
CLUSTERS
 10
640.43355119800003
 20
4691.9375243999993
 30
25.0
  0
VERTEX
  5
1FB
  8
CLUSTERS
 10
640.53376906300002
 20
4691.8997984799998
 30
25.0
  0
VERTEX
  5
1FC
  8
CLUSTERS
 10
640.55108514599976
 20
4691.8758949900002
 30
25.0
  0
VERTEX
  5
1FD
  8
CLUSTERS
 10
640.62167276599985
 20
4691.7756563199991
 30
25.0
  0
VERTEX
  5
1FE
  8
CLUSTERS
 10
640.61139517200002
 20
4691.6754176599989
 30
25.0
  0
VERTEX
  5
1FF
  8
CLUSTERS
 10
640.63027693399977
 20
4691.5751789999986
 30
25.0
  0
VERTEX
  5
200
  8
CLUSTERS
 10
640.53376906300002
 20
4691.4831779599999
 30
25.0
  0
VERTEX
  5
201
  8
CLUSTERS
 10
640.530401213
 20
4691.4749403300002
 30
25.0
  0
VERTEX
  5
202
  8
CLUSTERS
 10
640.53376906300002
 20
4691.4143257300002
 30
25.0
  0
VERTEX
  5
203
  8
CLUSTERS
 10
640.54449778200001
 20
4691.3747016699999
 30
25.0
  0
VERTEX
  5
204
  8
CLUSTERS
 10
640.6339869279999
 20
4691.2919939100002
 30
25.0
  0
VERTEX
  5
205
  8
CLUSTERS
 10
640.694037063
 20
4691.2744630099996
 30
25.0
  0
VERTEX
  5
206
  8
CLUSTERS
 10
640.734204793
 20
4691.2734792499987
 30
25.0
  0
VERTEX
  5
207
  8
CLUSTERS
 10
640.74497558400003
 20
4691.2744630099996
 30
25.0
  0
VERTEX
  5
208
  8
CLUSTERS
 10
640.83442265799977
 20
4691.3279906999978
 30
25.0
  0
VERTEX
  5
209
  8
CLUSTERS
 10
640.91283131399996
 20
4691.2744630099996
 30
25.0
  0
VERTEX
  5
20A
  8
CLUSTERS
 10
640.93464052299987
 20
4691.2689898999997
 30
25.0
  0
VERTEX
  5
20B
  8
CLUSTERS
 10
641.02484801799994
 20
4691.1742243400004
 30
25.0
  0
VERTEX
  5
20C
  8
CLUSTERS
 10
641.01873094099994
 20
4691.0739856800001
 30
25.0
  0
VERTEX
  5
20D
  8
CLUSTERS
 10
640.93464052299987
 20
4690.9894492800004
 30
25.0
  0
VERTEX
  5
20E
  8
CLUSTERS
 10
640.83442265799977
 20
4690.9753462199988
 30
25.0
  0
VERTEX
  5
20F
  8
CLUSTERS
 10
640.734204793
 20
4690.9786621399999
 30
25.0
  0
VERTEX
  5
210
  8
CLUSTERS
 10
640.6339869279999
 20
4691.0139665599991
 30
25.0
  0
VERTEX
  5
211
  8
CLUSTERS
 10
640.57502499199984
 20
4691.0739856800001
 30
25.0
  0
SEQEND
  5
212
  8
CLUSTERS
  0
POLYLINE
  5
33
  8
CLUSTERS
 66
     1
 10
0.0
 20
0.0
 30
25.0
 70
   129
  0
VERTEX
  5
213
  8
CLUSTERS
 10
643.410472658
 20
4690.1718377099987
 30
25.0
  0
VERTEX
  5
214
  8
CLUSTERS
 10
643.35678296699984
 20
4690.2720763699999
 30
25.0
  0
VERTEX
  5
215
  8
CLUSTERS
 10
643.33986928099989
 20
4690.2984561999992
 30
25.0
  0
VERTEX
  5
216
  8
CLUSTERS
 10
643.31816552400005
 20
4690.2720763699999
 30
25.0
  0
VERTEX
  5
217
  8
CLUSTERS
 10
643.23965141600002
 20
4690.1943717800004
 30
25.0
  0
VERTEX
  5
218
  8
CLUSTERS
 10
643.16251627199995
 20
4690.2720763699999
 30
25.0
  0
VERTEX
  5
219
  8
CLUSTERS
 10
643.23965141600002
 20
4690.3522955899998
 30
25.0
  0
VERTEX
  5
21A
  8
CLUSTERS
 10
643.26408703699997
 20
4690.3723150400001
 30
25.0
  0
VERTEX
  5
21B
  8
CLUSTERS
 10
643.33986928099989
 20
4690.4447508699986
 30
25.0
  0
VERTEX
  5
21C
  8
CLUSTERS
 10
643.440087146
 20
4690.4686217799999
 30
25.0
  0
VERTEX
  5
21D
  8
CLUSTERS
 10
643.48654614199984
 20
4690.4725537000013
 30
25.0
  0
VERTEX
  5
21E
  8
CLUSTERS
 10
643.54030501099976
 20
4690.5126050400013
 30
25.0
  0
VERTEX
  5
21F
  8
CLUSTERS
 10
643.64052287599986
 20
4690.5422568699978
 30
25.0
  0
VERTEX
  5
220
  8
CLUSTERS
 10
643.71784397699992
 20
4690.4725537000013
 30
25.0
  0
VERTEX
  5
221
  8
CLUSTERS
 10
643.74074074099985
 20
4690.4708922700001
 30
25.0
  0
VERTEX
  5
222
  8
CLUSTERS
 10
643.83896198100001
 20
4690.3723150400001
 30
25.0
  0
VERTEX
  5
223
  8
CLUSTERS
 10
643.829239755
 20
4690.2720763699999
 30
25.0
  0
VERTEX
  5
224
  8
CLUSTERS
 10
643.74074074099985
 20
4690.1809503799986
 30
25.0
  0
VERTEX
  5
225
  8
CLUSTERS
 10
643.69331125999997
 20
4690.1718377099987
 30
25.0
  0
VERTEX
  5
226
  8
CLUSTERS
 10
643.64052287599986
 20
4690.1280796199999
 30
25.0
  0
VERTEX
  5
227
  8
CLUSTERS
 10
643.54030501099976
 20
4690.0774054699987
 30
25.0
  0
VERTEX
  5
228
  8
CLUSTERS
 10
643.440087146
 20
4690.142163049999
 30
25.0
  0
VERTEX
  5
229
  8
CLUSTERS
 10
643.410472658
 20
4690.1718377099987
 30
25.0
  0
SEQEND
  5
22A
  8
CLUSTERS
  0
POLYLINE
  5
34
  8
CLUSTERS
 66
     1
 10
0.0
 20
0.0
 30
25.0
 70
   129
  0
VERTEX
  5
22B
  8
CLUSTERS
 10
663.86360857199986
 20
4689.0692124099978
 30
25.0
  0
VERTEX
  5
22C
  8
CLUSTERS
 10
663.78431372499983
 20
4689.1102184199999
 30
25.0
  0
VERTEX
  5
22D
  8
CLUSTERS
 10
663.72170152900003
 20
4689.169451069999
 30
25.0
  0
VERTEX
  5
22E
  8
CLUSTERS
 10
663.69187180699976
 20
4689.2696897400001
 30
25.0
  0
VERTEX
  5
22F
  8
CLUSTERS
 10
663.68409586099995
 20
4689.2904491999998
 30
25.0
  0
VERTEX
  5
230
  8
CLUSTERS
 10
663.62683161699977
 20
4689.3699283999977
 30
25.0
  0
VERTEX
  5
231
  8
CLUSTERS
 10
663.59692984599997
 20
4689.4701670599998
 30
25.0
  0
VERTEX
  5
232
  8
CLUSTERS
 10
663.60456987500004
 20
4689.5704057299999
 30
25.0
  0
VERTEX
  5
233
  8
CLUSTERS
 10
663.61093594600004
 20
4689.6706443900002
 30
25.0
  0
VERTEX
  5
234
  8
CLUSTERS
 10
663.62706967099984
 20
4689.7708830499978
 30
25.0
  0
VERTEX
  5
235
  8
CLUSTERS
 10
663.68409586099995
 20
4689.8292584000001
 30
25.0
  0
VERTEX
  5
236
  8
CLUSTERS
 10
663.78431372499983
 20
4689.8666780399999
 30
25.0
  0
VERTEX
  5
237
  8
CLUSTERS
 10
663.88016761699987
 20
4689.7708830499978
 30
25.0
  0
VERTEX
  5
238
  8
CLUSTERS
 10
663.88242588499975
 20
4689.6706443900002
 30
25.0
  0
VERTEX
  5
239
  8
CLUSTERS
 10
663.88453159000005
 20
4689.6661386599981
 30
25.0
  0
VERTEX
  5
23A
  8
CLUSTERS
 10
663.97897128899979
 20
4689.5704057299999
 30
25.0
  0
VERTEX
  5
23B
  8
CLUSTERS
 10
663.98474945500004
 20
4689.5643004100002
 30
25.0
  0
VERTEX
  5
23C
  8
CLUSTERS
 10
664.07728809499997
 20
4689.4701670599998
 30
25.0
  0
VERTEX
  5
23D
  8
CLUSTERS
 10
664.07958728099993
 20
4689.3699283999977
 30
25.0
  0
VERTEX
  5
23E
  8
CLUSTERS
 10
663.98474945500004
 20
4689.2713102300004
 30
25.0
  0
VERTEX
  5
23F
  8
CLUSTERS
 10
663.96779421600002
 20
4689.2696897400001
 30
25.0
  0
VERTEX
  5
240
  8
CLUSTERS
 10
663.88453159000005
 20
4689.2093952799978
 30
25.0
  0
VERTEX
  5
241
  8
CLUSTERS
 10
663.84431033600004
 20
4689.169451069999
 30
25.0
  0
VERTEX
  5
242
  8
CLUSTERS
 10
663.88453159000005
 20
4689.0906768999976
 30
25.0
  0
VERTEX
  5
243
  8
CLUSTERS
 10
663.98474945500004
 20
4689.0842116699996
 30
25.0
  0
VERTEX
  5
244
  8
CLUSTERS
 10
663.99883467199993
 20
4689.0692124099978
 30
25.0
  0
VERTEX
  5
245
  8
CLUSTERS
 10
663.98474945500004
 20
4689.0546556999998
 30
25.0
  0
VERTEX
  5
246
  8
CLUSTERS
 10
663.88453159000005
 20
4689.0510336200014
 30
25.0
  0
VERTEX
  5
247
  8
CLUSTERS
 10
663.86360857199986
 20
4689.0692124099978
 30
25.0
  0
SEQEND
  5
248
  8
CLUSTERS
  0
POLYLINE
  5
35
  8
CLUSTERS
 66
     1
 10
0.0
 20
0.0
 30
25.0
 70
   129
  0
VERTEX
  5
249
  8
CLUSTERS
 10
638.18045631500001
 20
4688.8687350800001
 30
25.0
  0
VERTEX
  5
24A
  8
CLUSTERS
 10
638.128540305
 20
4688.8933212499996
 30
25.0
  0
VERTEX
  5
24B
  8
CLUSTERS
 10
638.05365672100004
 20
4688.9689737500003
 30
25.0
  0
VERTEX
  5
24C
  8
CLUSTERS
 10
638.02832244000001
 20
4689.0680111600004
 30
25.0
  0
VERTEX
  5
24D
  8
CLUSTERS
 10
638.02149626699997
 20
4689.0692124099978
 30
25.0
  0
VERTEX
  5
24E
  8
CLUSTERS
 10
638.02832244000001
 20
4689.0705324700002
 30
25.0
  0
VERTEX
  5
24F
  8
CLUSTERS
 10
638.03311588099984
 20
4689.0692124099978
 30
25.0
  0
VERTEX
  5
250
  8
CLUSTERS
 10
638.128540305
 20
4689.0616423399988
 30
25.0
  0
VERTEX
  5
251
  8
CLUSTERS
 10
638.22875816999988
 20
4689.0690436099994
 30
25.0
  0
VERTEX
  5
252
  8
CLUSTERS
 10
638.22911636000003
 20
4689.0692124099978
 30
25.0
  0
VERTEX
  5
253
  8
CLUSTERS
 10
638.32740105100004
 20
4689.169451069999
 30
25.0
  0
VERTEX
  5
254
  8
CLUSTERS
 10
638.32897603499998
 20
4689.1710772899996
 30
25.0
  0
VERTEX
  5
255
  8
CLUSTERS
 10
638.34055707799996
 20
4689.2696897400001
 30
25.0
  0
VERTEX
  5
256
  8
CLUSTERS
 10
638.34416164399977
 20
4689.3699283999977
 30
25.0
  0
VERTEX
  5
257
  8
CLUSTERS
 10
638.42919389999975
 20
4689.461883859999
 30
25.0
  0
VERTEX
  5
258
  8
CLUSTERS
 10
638.44986310000002
 20
4689.4701670599998
 30
25.0
  0
VERTEX
  5
259
  8
CLUSTERS
 10
638.52941176499985
 20
4689.5358980899991
 30
25.0
  0
VERTEX
  5
25A
  8
CLUSTERS
 10
638.62962962999984
 20
4689.5565537800012
 30
25.0
  0
VERTEX
  5
25B
  8
CLUSTERS
 10
638.72984749499983
 20
4689.5153996899999
 30
25.0
  0
VERTEX
  5
25C
  8
CLUSTERS
 10
638.77546105199997
 20
4689.4701670599998
 30
25.0
  0
VERTEX
  5
25D
  8
CLUSTERS
 10
638.80028624399995
 20
4689.3699283999977
 30
25.0
  0
VERTEX
  5
25E
  8
CLUSTERS
 10
638.72984749499983
 20
4689.2893333299999
 30
25.0
  0
VERTEX
  5
25F
  8
CLUSTERS
 10
638.72249350899995
 20
4689.2696897400001
 30
25.0
  0
VERTEX
  5
260
  8
CLUSTERS
 10
638.68251545300006
 20
4689.169451069999
 30
25.0
  0
VERTEX
  5
261
  8
CLUSTERS
 10
638.62962962999984
 20
4689.1168048600002
 30
25.0
  0
VERTEX
  5
262
  8
CLUSTERS
 10
638.52941176499985
 20
4689.0824356499988
 30
25.0
  0
VERTEX
  5
263
  8
CLUSTERS
 10
638.42919389999975
 20
4689.0796560500003
 30
25.0
  0
VERTEX
  5
264
  8
CLUSTERS
 10
638.41210425199995
 20
4689.0692124099978
 30
25.0
  0
VERTEX
  5
265
  8
CLUSTERS
 10
638.41739623599995
 20
4688.9689737500003
 30
25.0
  0
VERTEX
  5
266
  8
CLUSTERS
 10
638.32897603499998
 20
4688.8802917800012
 30
25.0
  0
VERTEX
  5
267
  8
CLUSTERS
 10
638.27948998500005
 20
4688.8687350800001
 30
25.0
  0
VERTEX
  5
268
  8
CLUSTERS
 10
638.22875816999988
 20
4688.8215019400004
 30
25.0
  0
VERTEX
  5
269
  8
CLUSTERS
 10
638.18045631500001
 20
4688.8687350800001
 30
25.0
  0
SEQEND
  5
26A
  8
CLUSTERS
  0
POLYLINE
  5
36
  8
CLUSTERS
 66
     1
 10
0.0
 20
0.0
 30
25.0
 70
   129
  0
VERTEX
  5
26B
  8
CLUSTERS
 10
633.37027920800006
 20
4688.6682577600004
 30
25.0
  0
VERTEX
  5
26C
  8
CLUSTERS
 10
633.31808278899985
 20
4688.7445660599997
 30
25.0
  0
VERTEX
  5
26D
  8
CLUSTERS
 10
633.24950352600001
 20
4688.768496419998
 30
25.0
  0
VERTEX
  5
26E
  8
CLUSTERS
 10
633.21786492399985
 20
4688.7842638299999
 30
25.0
  0
VERTEX
  5
26F
  8
CLUSTERS
 10
633.15984290599999
 20
4688.8687350800001
 30
25.0
  0
VERTEX
  5
270
  8
CLUSTERS
 10
633.21786492399985
 20
4688.9110221800001
 30
25.0
  0
VERTEX
  5
271
  8
CLUSTERS
 10
633.31808278899985
 20
4688.9381131500004
 30
25.0
  0
VERTEX
  5
272
  8
CLUSTERS
 10
633.39728350799987
 20
4688.8687350800001
 30
25.0
  0
VERTEX
  5
273
  8
CLUSTERS
 10
633.34758865000003
 20
4688.768496419998
 30
25.0
  0
VERTEX
  5
274
  8
CLUSTERS
 10
633.41830065399995
 20
4688.7234279800014
 30
25.0
  0
VERTEX
  5
275
  8
CLUSTERS
 10
633.45361833100003
 20
4688.768496419998
 30
25.0
  0
VERTEX
  5
276
  8
CLUSTERS
 10
633.44792370699997
 20
4688.8687350800001
 30
25.0
  0
VERTEX
  5
277
  8
CLUSTERS
 10
633.51851851900005
 20
4688.9273529000002
 30
25.0
  0
VERTEX
  5
278
  8
CLUSTERS
 10
633.61873638300005
 20
4688.9272959099999
 30
25.0
  0
VERTEX
  5
279
  8
CLUSTERS
 10
633.68059740800004
 20
4688.8687350800001
 30
25.0
  0
VERTEX
  5
27A
  8
CLUSTERS
 10
633.62061016099995
 20
4688.768496419998
 30
25.0
  0
VERTEX
  5
27B
  8
CLUSTERS
 10
633.61873638300005
 20
4688.7664500700012
 30
25.0
  0
VERTEX
  5
27C
  8
CLUSTERS
 10
633.56536779700002
 20
4688.6682577600004
 30
25.0
  0
VERTEX
  5
27D
  8
CLUSTERS
 10
633.51851851900005
 20
4688.6065357999996
 30
25.0
  0
VERTEX
  5
27E
  8
CLUSTERS
 10
633.41830065399995
 20
4688.6130366199977
 30
25.0
  0
VERTEX
  5
27F
  8
CLUSTERS
 10
633.37027920800006
 20
4688.6682577600004
 30
25.0
  0
SEQEND
  5
280
  8
CLUSTERS
  0
POLYLINE
  5
37
  8
CLUSTERS
 66
     1
 10
0.0
 20
0.0
 30
25.0
 70
   129
  0
VERTEX
  5
281
  8
CLUSTERS
 10
632.95514877499977
 20
4688.6682577600004
 30
25.0
  0
VERTEX
  5
282
  8
CLUSTERS
 10
633.01742919399976
 20
4688.7386606999989
 30
25.0
  0
VERTEX
  5
283
  8
CLUSTERS
 10
633.11764705899986
 20
4688.7680398399998
 30
25.0
  0
VERTEX
  5
284
  8
CLUSTERS
 10
633.21095245599975
 20
4688.6682577600004
 30
25.0
  0
VERTEX
  5
285
  8
CLUSTERS
 10
633.11764705899986
 20
4688.5793108300004
 30
25.0
  0
VERTEX
  5
286
  8
CLUSTERS
 10
633.01742919399976
 20
4688.6038731299986
 30
25.0
  0
VERTEX
  5
287
  8
CLUSTERS
 10
632.95514877499977
 20
4688.6682577600004
 30
25.0
  0
SEQEND
  5
288
  8
CLUSTERS
  0
POLYLINE
  5
38
  8
CLUSTERS
 66
     1
 10
0.0
 20
0.0
 30
25.0
 70
   129
  0
VERTEX
  5
289
  8
CLUSTERS
 10
639.44432877799977
 20
4688.467780429999
 30
25.0
  0
VERTEX
  5
28A
  8
CLUSTERS
 10
639.53159041399999
 20
4688.5550091200002
 30
25.0
  0
VERTEX
  5
28B
  8
CLUSTERS
 10
639.62953636600002
 20
4688.467780429999
 30
25.0
  0
VERTEX
  5
28C
  8
CLUSTERS
 10
639.53159041399999
 20
4688.3795029000012
 30
25.0
  0
VERTEX
  5
28D
  8
CLUSTERS
 10
639.44432877799977
 20
4688.467780429999
 30
25.0
  0
SEQEND
  5
28E
  8
CLUSTERS
  0
POLYLINE
  5
39
  8
CLUSTERS
 66
     1
 10
0.0
 20
0.0
 30
25.0
 70
   129
  0
VERTEX
  5
28F
  8
CLUSTERS
 10
638.85974877199999
 20
4688.1670644400001
 30
25.0
  0
VERTEX
  5
290
  8
CLUSTERS
 10
638.93028322400005
 20
4688.2406966299986
 30
25.0
  0
VERTEX
  5
291
  8
CLUSTERS
 10
638.94079141400005
 20
4688.2673031000004
 30
25.0
  0
VERTEX
  5
292
  8
CLUSTERS
 10
639.03050108900004
 20
4688.3556297499999
 30
25.0
  0
VERTEX
  5
293
  8
CLUSTERS
 10
639.13071895400003
 20
4688.3303785899989
 30
25.0
  0
VERTEX
  5
294
  8
CLUSTERS
 10
639.19449527500001
 20
4688.2673031000004
 30
25.0
  0
VERTEX
  5
295
  8
CLUSTERS
 10
639.16953746499985
 20
4688.1670644400001
 30
25.0
  0
VERTEX
  5
296
  8
CLUSTERS
 10
639.13071895400003
 20
4688.12769243
 30
25.0
  0
VERTEX
  5
297
  8
CLUSTERS
 10
639.03050108900004
 20
4688.07167863
 30
25.0
  0
VERTEX
  5
298
  8
CLUSTERS
 10
638.93028322400005
 20
4688.0955669900004
 30
25.0
  0
VERTEX
  5
299
  8
CLUSTERS
 10
638.85974877199999
 20
4688.1670644400001
 30
25.0
  0
SEQEND
  5
29A
  8
CLUSTERS
  0
POLYLINE
  5
3A
  8
CLUSTERS
 66
     1
 10
0.0
 20
0.0
 30
25.0
 70
   129
  0
VERTEX
  5
29B
  8
CLUSTERS
 10
639.32454871499976
 20
4688.0668257799998
 30
25.0
  0
VERTEX
  5
29C
  8
CLUSTERS
 10
639.33115468400001
 20
4688.0738466800003
 30
25.0
  0
VERTEX
  5
29D
  8
CLUSTERS
 10
639.36093946999983
 20
4688.1670644400001
 30
25.0
  0
VERTEX
  5
29E
  8
CLUSTERS
 10
639.33115468400001
 20
4688.1835606599989
 30
25.0
  0
VERTEX
  5
29F
  8
CLUSTERS
 10
639.24786926699994
 20
4688.2673031000004
 30
25.0
  0
VERTEX
  5
2A0
  8
CLUSTERS
 10
639.33115468400001
 20
4688.3502781200004
 30
25.0
  0
VERTEX
  5
2A1
  8
CLUSTERS
 10
639.43137254899989
 20
4688.3619719400003
 30
25.0
  0
VERTEX
  5
2A2
  8
CLUSTERS
 10
639.53159041399999
 20
4688.3571132500001
 30
25.0
  0
VERTEX
  5
2A3
  8
CLUSTERS
 10
639.62268056599976
 20
4688.2673031000004
 30
25.0
  0
VERTEX
  5
2A4
  8
CLUSTERS
 10
639.63180827899976
 20
4688.2661983400003
 30
25.0
  0
VERTEX
  5
2A5
  8
CLUSTERS
 10
639.73202614399986
 20
4688.2578062499988
 30
25.0
  0
VERTEX
  5
2A6
  8
CLUSTERS
 10
639.82279850199996
 20
4688.1670644400001
 30
25.0
  0
VERTEX
  5
2A7
  8
CLUSTERS
 10
639.78072917400004
 20
4688.0668257799998
 30
25.0
  0
VERTEX
  5
2A8
  8
CLUSTERS
 10
639.73202614399986
 20
4688.01752794
 30
25.0
  0
VERTEX
  5
2A9
  8
CLUSTERS
 10
639.63180827899976
 20
4687.9701004899998
 30
25.0
  0
VERTEX
  5
2AA
  8
CLUSTERS
 10
639.53484674299978
 20
4688.0668257799998
 30
25.0
  0
VERTEX
  5
2AB
  8
CLUSTERS
 10
639.53159041399999
 20
4688.0839555800003
 30
25.0
  0
VERTEX
  5
2AC
  8
CLUSTERS
 10
639.497157023
 20
4688.0668257799998
 30
25.0
  0
VERTEX
  5
2AD
  8
CLUSTERS
 10
639.43137254899989
 20
4688.0069807199989
 30
25.0
  0
VERTEX
  5
2AE
  8
CLUSTERS
 10
639.33115468400001
 20
4688.0602217300002
 30
25.0
  0
VERTEX
  5
2AF
  8
CLUSTERS
 10
639.32454871499976
 20
4688.0668257799998
 30
25.0
  0
SEQEND
  5
2B0
  8
CLUSTERS
  0
POLYLINE
  5
3B
  8
CLUSTERS
 66
     1
 10
0.0
 20
0.0
 30
25.0
 70
   129
  0
VERTEX
  5
2B1
  8
CLUSTERS
 10
632.94533329800004
 20
4688.0668257799998
 30
25.0
  0
VERTEX
  5
2B2
  8
CLUSTERS
 10
632.917211329
 20
4688.1413915599996
 30
25.0
  0
VERTEX
  5
2B3
  8
CLUSTERS
 10
632.894171572
 20
4688.1670644400001
 30
25.0
  0
VERTEX
  5
2B4
  8
CLUSTERS
 10
632.917211329
 20
4688.1954188299997
 30
25.0
  0
VERTEX
  5
2B5
  8
CLUSTERS
 10
632.93642408599999
 20
4688.2673031000004
 30
25.0
  0
VERTEX
  5
2B6
  8
CLUSTERS
 10
633.01742919399976
 20
4688.3442572100003
 30
25.0
  0
VERTEX
  5
2B7
  8
CLUSTERS
 10
633.11764705899986
 20
4688.3274543400003
 30
25.0
  0
VERTEX
  5
2B8
  8
CLUSTERS
 10
633.18194667199975
 20
4688.2673031000004
 30
25.0
  0
VERTEX
  5
2B9
  8
CLUSTERS
 10
633.20973862699998
 20
4688.1670644400001
 30
25.0
  0
VERTEX
  5
2BA
  8
CLUSTERS
 10
633.21786492399985
 20
4688.14019491
 30
25.0
  0
VERTEX
  5
2BB
  8
CLUSTERS
 10
633.28584890100001
 20
4688.1670644400001
 30
25.0
  0
VERTEX
  5
2BC
  8
CLUSTERS
 10
633.31808278899985
 20
4688.1932708100003
 30
25.0
  0
VERTEX
  5
2BD
  8
CLUSTERS
 10
633.41830065399995
 20
4688.1869587800002
 30
25.0
  0
VERTEX
  5
2BE
  8
CLUSTERS
 10
633.42400859999998
 20
4688.1670644400001
 30
25.0
  0
VERTEX
  5
2BF
  8
CLUSTERS
 10
633.41830065399995
 20
4688.1600789499998
 30
25.0
  0
VERTEX
  5
2C0
  8
CLUSTERS
 10
633.33827564499984
 20
4688.0668257799998
 30
25.0
  0
VERTEX
  5
2C1
  8
CLUSTERS
 10
633.31808278899985
 20
4688.0501112600004
 30
25.0
  0
VERTEX
  5
2C2
  8
CLUSTERS
 10
633.21786492399985
 20
4688.0088304700002
 30
25.0
  0
VERTEX
  5
2C3
  8
CLUSTERS
 10
633.11764705899986
 20
4687.98183668
 30
25.0
  0
VERTEX
  5
2C4
  8
CLUSTERS
 10
633.01742919399976
 20
4687.9955030800002
 30
25.0
  0
VERTEX
  5
2C5
  8
CLUSTERS
 10
632.94533329800004
 20
4688.0668257799998
 30
25.0
  0
SEQEND
  5
2C6
  8
CLUSTERS
  0
POLYLINE
  5
3C
  8
CLUSTERS
 66
     1
 10
0.0
 20
0.0
 30
25.0
 70
   129
  0
VERTEX
  5
2C7
  8
CLUSTERS
 10
637.84868472300002
 20
4687.9665871099996
 30
25.0
  0
VERTEX
  5
2C8
  8
CLUSTERS
 10
637.82788671000003
 20
4687.970853849999
 30
25.0
  0
VERTEX
  5
2C9
  8
CLUSTERS
 10
637.73279972
 20
4688.0668257799998
 30
25.0
  0
VERTEX
  5
2CA
  8
CLUSTERS
 10
637.76038845400001
 20
4688.1670644400001
 30
25.0
  0
VERTEX
  5
2CB
  8
CLUSTERS
 10
637.82788671000003
 20
4688.2344068000002
 30
25.0
  0
VERTEX
  5
2CC
  8
CLUSTERS
 10
637.89745930599975
 20
4688.1670644400001
 30
25.0
  0
VERTEX
  5
2CD
  8
CLUSTERS
 10
637.92810457499979
 20
4688.16084151
 30
25.0
  0
VERTEX
  5
2CE
  8
CLUSTERS
 10
638.02275334699993
 20
4688.0668257799998
 30
25.0
  0
VERTEX
  5
2CF
  8
CLUSTERS
 10
638.00997251000001
 20
4687.9665871099996
 30
25.0
  0
VERTEX
  5
2D0
  8
CLUSTERS
 10
637.92810457499979
 20
4687.8906202799999
 30
25.0
  0
VERTEX
  5
2D1
  8
CLUSTERS
 10
637.84868472300002
 20
4687.9665871099996
 30
25.0
  0
SEQEND
  5
2D2
  8
CLUSTERS
  0
POLYLINE
  5
3D
  8
CLUSTERS
 66
     1
 10
0.0
 20
0.0
 30
25.0
 70
   129
  0
VERTEX
  5
2D3
  8
CLUSTERS
 10
639.37420452200001
 20
4687.76610979
 30
25.0
  0
VERTEX
  5
2D4
  8
CLUSTERS
 10
639.43137254899989
 20
4687.8235302499988
 30
25.0
  0
VERTEX
  5
2D5
  8
CLUSTERS
 10
639.46636249300002
 20
4687.8663484500003
 30
25.0
  0
VERTEX
  5
2D6
  8
CLUSTERS
 10
639.53159041399999
 20
4687.9322893699991
 30
25.0
  0
VERTEX
  5
2D7
  8
CLUSTERS
 10
639.59730215199977
 20
4687.8663484500003
 30
25.0
  0
VERTEX
  5
2D8
  8
CLUSTERS
 10
639.61668135299976
 20
4687.76610979
 30
25.0
  0
VERTEX
  5
2D9
  8
CLUSTERS
 10
639.53159041399999
 20
4687.6811087799979
 30
25.0
  0
VERTEX
  5
2DA
  8
CLUSTERS
 10
639.43137254899989
 20
4687.7085926299987
 30
25.0
  0
VERTEX
  5
2DB
  8
CLUSTERS
 10
639.37420452200001
 20
4687.76610979
 30
25.0
  0
SEQEND
  5
2DC
  8
CLUSTERS
  0
POLYLINE
  5
3E
  8
CLUSTERS
 66
     1
 10
0.0
 20
0.0
 30
25.0
 70
   129
  0
VERTEX
  5
2DD
  8
CLUSTERS
 10
638.83438010199984
 20
4687.6658711199998
 30
25.0
  0
VERTEX
  5
2DE
  8
CLUSTERS
 10
638.83006535899995
 20
4687.6698455599999
 30
25.0
  0
VERTEX
  5
2DF
  8
CLUSTERS
 10
638.73457406699993
 20
4687.76610979
 30
25.0
  0
VERTEX
  5
2E0
  8
CLUSTERS
 10
638.73443271199994
 20
4687.8663484500003
 30
25.0
  0
VERTEX
  5
2E1
  8
CLUSTERS
 10
638.83006535899995
 20
4687.9644435199998
 30
25.0
  0
VERTEX
  5
2E2
  8
CLUSTERS
 10
638.93028322400005
 20
4687.9657067099997
 30
25.0
  0
VERTEX
  5
2E3
  8
CLUSTERS
 10
639.03050108900004
 20
4687.8853416600004
 30
25.0
  0
VERTEX
  5
2E4
  8
CLUSTERS
 10
639.04919616500001
 20
4687.8663484500003
 30
25.0
  0
VERTEX
  5
2E5
  8
CLUSTERS
 10
639.08400690099995
 20
4687.76610979
 30
25.0
  0
VERTEX
  5
2E6
  8
CLUSTERS
 10
639.03050108900004
 20
4687.6941408999983
 30
25.0
  0
VERTEX
  5
2E7
  8
CLUSTERS
 10
639.02805296199995
 20
4687.6658711199998
 30
25.0
  0
VERTEX
  5
2E8
  8
CLUSTERS
 10
638.93028322400005
 20
4687.5703589100003
 30
25.0
  0
VERTEX
  5
2E9
  8
CLUSTERS
 10
638.83438010199984
 20
4687.6658711199998
 30
25.0
  0
SEQEND
  5
2EA
  8
CLUSTERS
  0
POLYLINE
  5
3F
  8
CLUSTERS
 66
     1
 10
0.0
 20
0.0
 30
25.0
 70
   129
  0
VERTEX
  5
2EB
  8
CLUSTERS
 10
636.73998339499985
 20
4687.2649164699997
 30
25.0
  0
VERTEX
  5
2EC
  8
CLUSTERS
 10
636.825708061
 20
4687.3437367899987
 30
25.0
  0
VERTEX
  5
2ED
  8
CLUSTERS
 10
636.91558515500003
 20
4687.3651551299999
 30
25.0
  0
VERTEX
  5
2EE
  8
CLUSTERS
 10
636.92592592599976
 20
4687.3735694400002
 30
25.0
  0
VERTEX
  5
2EF
  8
CLUSTERS
 10
637.02614379099987
 20
4687.4309797599999
 30
25.0
  0
VERTEX
  5
2F0
  8
CLUSTERS
 10
637.081054279
 20
4687.3651551299999
 30
25.0
  0
VERTEX
  5
2F1
  8
CLUSTERS
 10
637.02614379099987
 20
4687.3095698500001
 30
25.0
  0
VERTEX
  5
2F2
  8
CLUSTERS
 10
636.98109423799997
 20
4687.2649164699997
 30
25.0
  0
VERTEX
  5
2F3
  8
CLUSTERS
 10
636.92592592599976
 20
4687.2101194699999
 30
25.0
  0
VERTEX
  5
2F4
  8
CLUSTERS
 10
636.825708061
 20
4687.1717204699999
 30
25.0
  0
VERTEX
  5
2F5
  8
CLUSTERS
 10
636.73998339499985
 20
4687.2649164699997
 30
25.0
  0
SEQEND
  5
2F6
  8
CLUSTERS
  0
POLYLINE
  5
40
  8
CLUSTERS
 66
     1
 10
0.0
 20
0.0
 30
25.0
 70
   129
  0
VERTEX
  5
2F7
  8
CLUSTERS
 10
662.76569923099999
 20
4687.1646778000013
 30
25.0
  0
VERTEX
  5
2F8
  8
CLUSTERS
 10
662.78213507600003
 20
4687.1829204300002
 30
25.0
  0
VERTEX
  5
2F9
  8
CLUSTERS
 10
662.79644331400004
 20
4687.1646778000013
 30
25.0
  0
VERTEX
  5
2FA
  8
CLUSTERS
 10
662.78213507600003
 20
4687.1500941200002
 30
25.0
  0
VERTEX
  5
2FB
  8
CLUSTERS
 10
662.76569923099999
 20
4687.1646778000013
 30
25.0
  0
SEQEND
  5
2FC
  8
CLUSTERS
  0
POLYLINE
  5
41
  8
CLUSTERS
 66
     1
 10
0.0
 20
0.0
 30
25.0
 70
   129
  0
VERTEX
  5
2FD
  8
CLUSTERS
 10
639.00396766599977
 20
4687.1646778000013
 30
25.0
  0
VERTEX
  5
2FE
  8
CLUSTERS
 10
638.96403928199993
 20
4687.2649164699997
 30
25.0
  0
VERTEX
  5
2FF
  8
CLUSTERS
 10
638.97003073500002
 20
4687.3651551299999
 30
25.0
  0
VERTEX
  5
300
  8
CLUSTERS
 10
639.03050108900004
 20
4687.42585925
 30
25.0
  0
VERTEX
  5
301
  8
CLUSTERS
 10
639.08091838899998
 20
4687.4653937900002
 30
25.0
  0
VERTEX
  5
302
  8
CLUSTERS
 10
639.13071895400003
 20
4687.5172998000016
 30
25.0
  0
VERTEX
  5
303
  8
CLUSTERS
 10
639.23093681900002
 20
4687.5619294799999
 30
25.0
  0
VERTEX
  5
304
  8
CLUSTERS
 10
639.31585753399997
 20
4687.4653937900002
 30
25.0
  0
VERTEX
  5
305
  8
CLUSTERS
 10
639.23093681900002
 20
4687.3667936899992
 30
25.0
  0
VERTEX
  5
306
  8
CLUSTERS
 10
639.13071895400003
 20
4687.3705848199997
 30
25.0
  0
VERTEX
  5
307
  8
CLUSTERS
 10
639.12715795999975
 20
4687.3651551299999
 30
25.0
  0
VERTEX
  5
308
  8
CLUSTERS
 10
639.13071895400003
 20
4687.3609379700001
 30
25.0
  0
VERTEX
  5
309
  8
CLUSTERS
 10
639.19283463300007
 20
4687.2649164699997
 30
25.0
  0
VERTEX
  5
30A
  8
CLUSTERS
 10
639.16875212299976
 20
4687.1646778000013
 30
25.0
  0
VERTEX
  5
30B
  8
CLUSTERS
 10
639.13071895400003
 20
4687.1287106999998
 30
25.0
  0
VERTEX
  5
30C
  8
CLUSTERS
 10
639.03050108900004
 20
4687.142955729998
 30
25.0
  0
VERTEX
  5
30D
  8
CLUSTERS
 10
639.00396766599977
 20
4687.1646778000013
 30
25.0
  0
SEQEND
  5
30E
  8
CLUSTERS
  0
POLYLINE
  5
42
  8
CLUSTERS
 66
     1
 10
0.0
 20
0.0
 30
25.0
 70
   129
  0
VERTEX
  5
30F
  8
CLUSTERS
 10
640.03512919399975
 20
4687.0644391400001
 30
25.0
  0
VERTEX
  5
310
  8
CLUSTERS
 10
640.06967354599999
 20
4687.1646778000013
 30
25.0
  0
VERTEX
  5
311
  8
CLUSTERS
 10
640.13289760300006
 20
4687.2277456499978
 30
25.0
  0
VERTEX
  5
312
  8
CLUSTERS
 10
640.23311546800005
 20
4687.2495019899998
 30
25.0
  0
VERTEX
  5
313
  8
CLUSTERS
 10
640.32284575799997
 20
4687.1646778000013
 30
25.0
  0
VERTEX
  5
314
  8
CLUSTERS
 10
640.33333333300004
 20
4687.120377100001
 30
25.0
  0
VERTEX
  5
315
  8
CLUSTERS
 10
640.33602060999999
 20
4687.1646778000013
 30
25.0
  0
VERTEX
  5
316
  8
CLUSTERS
 10
640.43355119800003
 20
4687.2608681299998
 30
25.0
  0
VERTEX
  5
317
  8
CLUSTERS
 10
640.53376906300002
 20
4687.229133599998
 30
25.0
  0
VERTEX
  5
318
  8
CLUSTERS
 10
640.59825999199984
 20
4687.1646778000013
 30
25.0
  0
VERTEX
  5
319
  8
CLUSTERS
 10
640.62212245399985
 20
4687.0644391400001
 30
25.0
  0
VERTEX
  5
31A
  8
CLUSTERS
 10
640.53376906300002
 20
4686.9760017500003
 30
25.0
  0
VERTEX
  5
31B
  8
CLUSTERS
 10
640.43355119800003
 20
4686.9712075099997
 30
25.0
  0
VERTEX
  5
31C
  8
CLUSTERS
 10
640.33333333300004
 20
4687.0183891799988
 30
25.0
  0
VERTEX
  5
31D
  8
CLUSTERS
 10
640.23311546800005
 20
4686.9663155899998
 30
25.0
  0
VERTEX
  5
31E
  8
CLUSTERS
 10
640.13289760300006
 20
4686.9663307299979
 30
25.0
  0
VERTEX
  5
31F
  8
CLUSTERS
 10
640.03512919399975
 20
4687.0644391400001
 30
25.0
  0
SEQEND
  5
320
  8
CLUSTERS
  0
POLYLINE
  5
43
  8
CLUSTERS
 66
     1
 10
0.0
 20
0.0
 30
25.0
 70
   129
  0
VERTEX
  5
321
  8
CLUSTERS
 10
631.19938079600001
 20
4686.9642004799998
 30
25.0
  0
VERTEX
  5
322
  8
CLUSTERS
 10
631.17609111599995
 20
4687.0644391400001
 30
25.0
  0
VERTEX
  5
323
  8
CLUSTERS
 10
631.21350762500003
 20
4687.1101971500002
 30
25.0
  0
VERTEX
  5
324
  8
CLUSTERS
 10
631.24661712499983
 20
4687.1646778000013
 30
25.0
  0
VERTEX
  5
325
  8
CLUSTERS
 10
631.3137254899998
 20
4687.2242582899999
 30
25.0
  0
VERTEX
  5
326
  8
CLUSTERS
 10
631.41394335500001
 20
4687.1682945499997
 30
25.0
  0
VERTEX
  5
327
  8
CLUSTERS
 10
631.51416122000001
 20
4687.2150313599996
 30
25.0
  0
VERTEX
  5
328
  8
CLUSTERS
 10
631.61437908499988
 20
4687.24588537
 30
25.0
  0
VERTEX
  5
329
  8
CLUSTERS
 10
631.71459694999999
 20
4687.2455518699999
 30
25.0
  0
VERTEX
  5
32A
  8
CLUSTERS
 10
631.78883415699977
 20
4687.1646778000013
 30
25.0
  0
VERTEX
  5
32B
  8
CLUSTERS
 10
631.72999207600003
 20
4687.0644391400001
 30
25.0
  0
VERTEX
  5
32C
  8
CLUSTERS
 10
631.71459694999999
 20
4687.050276519999
 30
25.0
  0
VERTEX
  5
32D
  8
CLUSTERS
 10
631.61437908499988
 20
4687.0326383000001
 30
25.0
  0
VERTEX
  5
32E
  8
CLUSTERS
 10
631.553372986
 20
4686.9642004799998
 30
25.0
  0
VERTEX
  5
32F
  8
CLUSTERS
 10
631.51416122000001
 20
4686.9262522500012
 30
25.0
  0
VERTEX
  5
330
  8
CLUSTERS
 10
631.41394335500001
 20
4686.89299183
 30
25.0
  0
VERTEX
  5
331
  8
CLUSTERS
 10
631.3137254899998
 20
4686.8828568999998
 30
25.0
  0
VERTEX
  5
332
  8
CLUSTERS
 10
631.21350762500003
 20
4686.94649854
 30
25.0
  0
VERTEX
  5
333
  8
CLUSTERS
 10
631.19938079600001
 20
4686.9642004799998
 30
25.0
  0
SEQEND
  5
334
  8
CLUSTERS
  0
POLYLINE
  5
44
  8
CLUSTERS
 66
     1
 10
0.0
 20
0.0
 30
25.0
 70
   129
  0
VERTEX
  5
335
  8
CLUSTERS
 10
641.24765715699994
 20
4686.8639618099996
 30
25.0
  0
VERTEX
  5
336
  8
CLUSTERS
 10
641.23529411799996
 20
4686.8784297299999
 30
25.0
  0
VERTEX
  5
337
  8
CLUSTERS
 10
641.15871585699995
 20
4686.9642004799998
 30
25.0
  0
VERTEX
  5
338
  8
CLUSTERS
 10
641.14908608799976
 20
4687.0644391400001
 30
25.0
  0
VERTEX
  5
339
  8
CLUSTERS
 10
641.23529411799996
 20
4687.1528000300004
 30
25.0
  0
VERTEX
  5
33A
  8
CLUSTERS
 10
641.25243644599993
 20
4687.1646778000013
 30
25.0
  0
VERTEX
  5
33B
  8
CLUSTERS
 10
641.23529411799996
 20
4687.1821091100001
 30
25.0
  0
VERTEX
  5
33C
  8
CLUSTERS
 10
641.15434815499975
 20
4687.2649164699997
 30
25.0
  0
VERTEX
  5
33D
  8
CLUSTERS
 10
641.13507625299997
 20
4687.2888707599977
 30
25.0
  0
VERTEX
  5
33E
  8
CLUSTERS
 10
641.05873525200002
 20
4687.3651551299999
 30
25.0
  0
VERTEX
  5
33F
  8
CLUSTERS
 10
641.03495072300007
 20
4687.4653937900002
 30
25.0
  0
VERTEX
  5
340
  8
CLUSTERS
 10
641.03485838799998
 20
4687.46594379
 30
25.0
  0
VERTEX
  5
341
  8
CLUSTERS
 10
640.94461416000001
 20
4687.5656324600013
 30
25.0
  0
VERTEX
  5
342
  8
CLUSTERS
 10
640.93464052299987
 20
4687.58943043
 30
25.0
  0
VERTEX
  5
343
  8
CLUSTERS
 10
640.86103781500003
 20
4687.6658711199998
 30
25.0
  0
VERTEX
  5
344
  8
CLUSTERS
 10
640.84530665399996
 20
4687.76610979
 30
25.0
  0
VERTEX
  5
345
  8
CLUSTERS
 10
640.83442265799977
 20
4687.7765512400001
 30
25.0
  0
VERTEX
  5
346
  8
CLUSTERS
 10
640.74528511800008
 20
4687.8663484500003
 30
25.0
  0
VERTEX
  5
347
  8
CLUSTERS
 10
640.73517491799998
 20
4687.9665871099996
 30
25.0
  0
VERTEX
  5
348
  8
CLUSTERS
 10
640.734204793
 20
4687.9684171600002
 30
25.0
  0
VERTEX
  5
349
  8
CLUSTERS
 10
640.65332744
 20
4688.0668257799998
 30
25.0
  0
VERTEX
  5
34A
  8
CLUSTERS
 10
640.734204793
 20
4688.1477919400004
 30
25.0
  0
VERTEX
  5
34B
  8
CLUSTERS
 10
640.80550523599993
 20
4688.1670644400001
 30
25.0
  0
VERTEX
  5
34C
  8
CLUSTERS
 10
640.83442265799977
 20
4688.1957559700004
 30
25.0
  0
VERTEX
  5
34D
  8
CLUSTERS
 10
640.86355387200001
 20
4688.1670644400001
 30
25.0
  0
VERTEX
  5
34E
  8
CLUSTERS
 10
640.93464052299987
 20
4688.1448790200002
 30
25.0
  0
VERTEX
  5
34F
  8
CLUSTERS
 10
641.01320535299988
 20
4688.0668257799998
 30
25.0
  0
VERTEX
  5
350
  8
CLUSTERS
 10
641.03485838799998
 20
4688.0525872600001
 30
25.0
  0
VERTEX
  5
351
  8
CLUSTERS
 10
641.120947849
 20
4687.9665871099996
 30
25.0
  0
VERTEX
  5
352
  8
CLUSTERS
 10
641.13507625299997
 20
4687.8739011600001
 30
25.0
  0
VERTEX
  5
353
  8
CLUSTERS
 10
641.14277958299976
 20
4687.8663484500003
 30
25.0
  0
VERTEX
  5
354
  8
CLUSTERS
 10
641.23529411799996
 20
4687.8596888299999
 30
25.0
  0
VERTEX
  5
355
  8
CLUSTERS
 10
641.32975949199999
 20
4687.76610979
 30
25.0
  0
VERTEX
  5
356
  8
CLUSTERS
 10
641.33551198300006
 20
4687.7643517300003
 30
25.0
  0
VERTEX
  5
357
  8
CLUSTERS
 10
641.43572984699995
 20
4687.75373347
 30
25.0
  0
VERTEX
  5
358
  8
CLUSTERS
 10
641.52442609199977
 20
4687.6658711199998
 30
25.0
  0
VERTEX
  5
359
  8
CLUSTERS
 10
641.53594771199994
 20
4687.6632370400002
 30
25.0
  0
VERTEX
  5
35A
  8
CLUSTERS
 10
641.63616557699993
 20
4687.60735604
 30
25.0
  0
VERTEX
  5
35B
  8
CLUSTERS
 10
641.67847624900003
 20
4687.5656324600013
 30
25.0
  0
VERTEX
  5
35C
  8
CLUSTERS
 10
641.73638344199992
 20
4687.5576216299987
 30
25.0
  0
VERTEX
  5
35D
  8
CLUSTERS
 10
641.82871415199975
 20
4687.4653937900002
 30
25.0
  0
VERTEX
  5
35E
  8
CLUSTERS
 10
641.83660130699991
 20
4687.4447186799998
 30
25.0
  0
VERTEX
  5
35F
  8
CLUSTERS
 10
641.91522608199978
 20
4687.3651551299999
 30
25.0
  0
VERTEX
  5
360
  8
CLUSTERS
 10
641.93051438099985
 20
4687.2649164699997
 30
25.0
  0
VERTEX
  5
361
  8
CLUSTERS
 10
641.92043455299995
 20
4687.1646778000013
 30
25.0
  0
VERTEX
  5
362
  8
CLUSTERS
 10
641.93681917200001
 20
4687.1482810500002
 30
25.0
  0
VERTEX
  5
363
  8
CLUSTERS
 10
642.02013497400003
 20
4687.0644391400001
 30
25.0
  0
VERTEX
  5
364
  8
CLUSTERS
 10
641.93681917200001
 20
4686.9807068999999
 30
25.0
  0
VERTEX
  5
365
  8
CLUSTERS
 10
641.92532941000002
 20
4686.9642004799998
 30
25.0
  0
VERTEX
  5
366
  8
CLUSTERS
 10
641.83660130699991
 20
4686.8733812399978
 30
25.0
  0
VERTEX
  5
367
  8
CLUSTERS
 10
641.80448251899986
 20
4686.8639618099996
 30
25.0
  0
VERTEX
  5
368
  8
CLUSTERS
 10
641.73638344199992
 20
4686.8017507799987
 30
25.0
  0
VERTEX
  5
369
  8
CLUSTERS
 10
641.66583919499999
 20
4686.8639618099996
 30
25.0
  0
VERTEX
  5
36A
  8
CLUSTERS
 10
641.63616557699993
 20
4686.8719750299979
 30
25.0
  0
VERTEX
  5
36B
  8
CLUSTERS
 10
641.53594771199994
 20
4686.8796161299979
 30
25.0
  0
VERTEX
  5
36C
  8
CLUSTERS
 10
641.51852538599985
 20
4686.8639618099996
 30
25.0
  0
VERTEX
  5
36D
  8
CLUSTERS
 10
641.43572984699995
 20
4686.7814809800002
 30
25.0
  0
VERTEX
  5
36E
  8
CLUSTERS
 10
641.33551198300006
 20
4686.7840516599999
 30
25.0
  0
VERTEX
  5
36F
  8
CLUSTERS
 10
641.24765715699994
 20
4686.8639618099996
 30
25.0
  0
SEQEND
  5
370
  8
CLUSTERS
  0
POLYLINE
  5
45
  8
CLUSTERS
 66
     1
 10
0.0
 20
0.0
 30
25.0
 70
   129
  0
VERTEX
  5
371
  8
CLUSTERS
 10
640.66432910499987
 20
4686.5632458199989
 30
25.0
  0
VERTEX
  5
372
  8
CLUSTERS
 10
640.6339869279999
 20
4686.6030777400001
 30
25.0
  0
VERTEX
  5
373
  8
CLUSTERS
 10
640.53376906300002
 20
4686.5652511199996
 30
25.0
  0
VERTEX
  5
374
  8
CLUSTERS
 10
640.44875947699984
 20
4686.66348449
 30
25.0
  0
VERTEX
  5
375
  8
CLUSTERS
 10
640.53376906300002
 20
4686.748033689998
 30
25.0
  0
VERTEX
  5
376
  8
CLUSTERS
 10
640.58200650399999
 20
4686.7637231500003
 30
25.0
  0
VERTEX
  5
377
  8
CLUSTERS
 10
640.6339869279999
 20
4686.8155786500001
 30
25.0
  0
VERTEX
  5
378
  8
CLUSTERS
 10
640.734204793
 20
4686.8321542800013
 30
25.0
  0
VERTEX
  5
379
  8
CLUSTERS
 10
640.83442265799977
 20
4686.8165916899989
 30
25.0
  0
VERTEX
  5
37A
  8
CLUSTERS
 10
640.88737857299986
 20
4686.7637231500003
 30
25.0
  0
VERTEX
  5
37B
  8
CLUSTERS
 10
640.87523955999984
 20
4686.66348449
 30
25.0
  0
VERTEX
  5
37C
  8
CLUSTERS
 10
640.86892554500002
 20
4686.5632458199989
 30
25.0
  0
VERTEX
  5
37D
  8
CLUSTERS
 10
640.83442265799977
 20
4686.5287335000003
 30
25.0
  0
VERTEX
  5
37E
  8
CLUSTERS
 10
640.734204793
 20
4686.4935777700002
 30
25.0
  0
VERTEX
  5
37F
  8
CLUSTERS
 10
640.66432910499987
 20
4686.5632458199989
 30
25.0
  0
SEQEND
  5
380
  8
CLUSTERS
  0
POLYLINE
  5
46
  8
CLUSTERS
 66
     1
 10
0.0
 20
0.0
 30
25.0
 70
   129
  0
VERTEX
  5
381
  8
CLUSTERS
 10
631.13326567000001
 20
4685.8615751799998
 30
25.0
  0
VERTEX
  5
382
  8
CLUSTERS
 10
631.11328976000004
 20
4685.8829715800002
 30
25.0
  0
VERTEX
  5
383
  8
CLUSTERS
 10
631.01307189500005
 20
4685.8677938500005
 30
25.0
  0
VERTEX
  5
384
  8
CLUSTERS
 10
630.91285403099994
 20
4685.8865978499989
 30
25.0
  0
VERTEX
  5
385
  8
CLUSTERS
 10
630.83769637900002
 20
4685.9618138400001
 30
25.0
  0
VERTEX
  5
386
  8
CLUSTERS
 10
630.81415885900003
 20
4686.0620525100003
 30
25.0
  0
VERTEX
  5
387
  8
CLUSTERS
 10
630.81529309500002
 20
4686.1622911699978
 30
25.0
  0
VERTEX
  5
388
  8
CLUSTERS
 10
630.91285403099994
 20
4686.2606376000012
 30
25.0
  0
VERTEX
  5
389
  8
CLUSTERS
 10
630.99558772499984
 20
4686.2625298299999
 30
25.0
  0
VERTEX
  5
38A
  8
CLUSTERS
 10
631.01307189500005
 20
4686.27275981
 30
25.0
  0
VERTEX
  5
38B
  8
CLUSTERS
 10
631.06258472299976
 20
4686.2625298299999
 30
25.0
  0
VERTEX
  5
38C
  8
CLUSTERS
 10
631.11328976000004
 20
4686.2621873500002
 30
25.0
  0
VERTEX
  5
38D
  8
CLUSTERS
 10
631.21350762500003
 20
4686.2399608599999
 30
25.0
  0
VERTEX
  5
38E
  8
CLUSTERS
 10
631.28806734599993
 20
4686.1622911699978
 30
25.0
  0
VERTEX
  5
38F
  8
CLUSTERS
 10
631.30674496999995
 20
4686.0620525100003
 30
25.0
  0
VERTEX
  5
390
  8
CLUSTERS
 10
631.3137254899998
 20
4686.0611148099997
 30
25.0
  0
VERTEX
  5
391
  8
CLUSTERS
 10
631.41394335500001
 20
4686.0401265800001
 30
25.0
  0
VERTEX
  5
392
  8
CLUSTERS
 10
631.49355886800004
 20
4685.9618138400001
 30
25.0
  0
VERTEX
  5
393
  8
CLUSTERS
 10
631.51416122000001
 20
4685.9534937699991
 30
25.0
  0
VERTEX
  5
394
  8
CLUSTERS
 10
631.61437908499988
 20
4685.9553108600003
 30
25.0
  0
VERTEX
  5
395
  8
CLUSTERS
 10
631.71459694999999
 20
4685.8821621500001
 30
25.0
  0
VERTEX
  5
396
  8
CLUSTERS
 10
631.73409212800004
 20
4685.8615751799998
 30
25.0
  0
VERTEX
  5
397
  8
CLUSTERS
 10
631.71459694999999
 20
4685.8395852499998
 30
25.0
  0
VERTEX
  5
398
  8
CLUSTERS
 10
631.61437908499988
 20
4685.7663742399991
 30
25.0
  0
VERTEX
  5
399
  8
CLUSTERS
 10
631.51416122000001
 20
4685.77024136
 30
25.0
  0
VERTEX
  5
39A
  8
CLUSTERS
 10
631.41394335500001
 20
4685.7869948899988
 30
25.0
  0
VERTEX
  5
39B
  8
CLUSTERS
 10
631.3137254899998
 20
4685.7682826500004
 30
25.0
  0
VERTEX
  5
39C
  8
CLUSTERS
 10
631.21350762500003
 20
4685.7881246200013
 30
25.0
  0
VERTEX
  5
39D
  8
CLUSTERS
 10
631.13326567000001
 20
4685.8615751799998
 30
25.0
  0
SEQEND
  5
39E
  8
CLUSTERS
  0
POLYLINE
  5
47
  8
CLUSTERS
 66
     1
 10
0.0
 20
0.0
 30
25.0
 70
   129
  0
VERTEX
  5
39F
  8
CLUSTERS
 10
633.55484199400007
 20
4683.1551312600004
 30
25.0
  0
VERTEX
  5
3A0
  8
CLUSTERS
 10
633.54691522799988
 20
4683.2553699299997
 30
25.0
  0
VERTEX
  5
3A1
  8
CLUSTERS
 10
633.58996721099993
 20
4683.35560859
 30
25.0
  0
VERTEX
  5
3A2
  8
CLUSTERS
 10
633.53609265800003
 20
4683.4558472600002
 30
25.0
  0
VERTEX
  5
3A3
  8
CLUSTERS
 10
633.53123466800002
 20
4683.5560859200023
 30
25.0
  0
VERTEX
  5
3A4
  8
CLUSTERS
 10
633.61873638300005
 20
4683.6472872599998
 30
25.0
  0
VERTEX
  5
3A5
  8
CLUSTERS
 10
633.65451181799995
 20
4683.6563245799998
 30
25.0
  0
VERTEX
  5
3A6
  8
CLUSTERS
 10
633.69637055099975
 20
4683.75656325
 30
25.0
  0
VERTEX
  5
3A7
  8
CLUSTERS
 10
633.61873638300005
 20
4683.7678565699989
 30
25.0
  0
VERTEX
  5
3A8
  8
CLUSTERS
 10
633.51851851900005
 20
4683.7886743799991
 30
25.0
  0
VERTEX
  5
3A9
  8
CLUSTERS
 10
633.46516334299997
 20
4683.8568019100003
 30
25.0
  0
VERTEX
  5
3AA
  8
CLUSTERS
 10
633.42397296900003
 20
4683.9570405699988
 30
25.0
  0
VERTEX
  5
3AB
  8
CLUSTERS
 10
633.51851851900005
 20
4684.0435723800001
 30
25.0
  0
VERTEX
  5
3AC
  8
CLUSTERS
 10
633.61873638300005
 20
4684.0380835899987
 30
25.0
  0
VERTEX
  5
3AD
  8
CLUSTERS
 10
633.68849608699986
 20
4683.9570405699988
 30
25.0
  0
VERTEX
  5
3AE
  8
CLUSTERS
 10
633.70205840699998
 20
4683.8568019100003
 30
25.0
  0
VERTEX
  5
3AF
  8
CLUSTERS
 10
633.71895424800005
 20
4683.7720081300004
 30
25.0
  0
VERTEX
  5
3B0
  8
CLUSTERS
 10
633.73293174699995
 20
4683.75656325
 30
25.0
  0
VERTEX
  5
3B1
  8
CLUSTERS
 10
633.81917211300004
 20
4683.7468998900003
 30
25.0
  0
VERTEX
  5
3B2
  8
CLUSTERS
 10
633.91938997800003
 20
4683.7290070600011
 30
25.0
  0
VERTEX
  5
3B3
  8
CLUSTERS
 10
634.0196078429999
 20
4683.7426518800003
 30
25.0
  0
VERTEX
  5
3B4
  8
CLUSTERS
 10
634.09803106499999
 20
4683.6563245799998
 30
25.0
  0
VERTEX
  5
3B5
  8
CLUSTERS
 10
634.02775306800004
 20
4683.5560859200023
 30
25.0
  0
VERTEX
  5
3B6
  8
CLUSTERS
 10
634.0196078429999
 20
4683.5481265899989
 30
25.0
  0
VERTEX
  5
3B7
  8
CLUSTERS
 10
633.91938997800003
 20
4683.5098284200003
 30
25.0
  0
VERTEX
  5
3B8
  8
CLUSTERS
 10
633.89041259500004
 20
4683.4558472600002
 30
25.0
  0
VERTEX
  5
3B9
  8
CLUSTERS
 10
633.91938997800003
 20
4683.3846901200004
 30
25.0
  0
VERTEX
  5
3BA
  8
CLUSTERS
 10
633.94505998699992
 20
4683.35560859
 30
25.0
  0
VERTEX
  5
3BB
  8
CLUSTERS
 10
633.91938997800003
 20
4683.2963000700001
 30
25.0
  0
VERTEX
  5
3BC
  8
CLUSTERS
 10
633.89947110699984
 20
4683.2553699299997
 30
25.0
  0
VERTEX
  5
3BD
  8
CLUSTERS
 10
633.81917211300004
 20
4683.2060490000003
 30
25.0
  0
VERTEX
  5
3BE
  8
CLUSTERS
 10
633.71895424800005
 20
4683.1805015899981
 30
25.0
  0
VERTEX
  5
3BF
  8
CLUSTERS
 10
633.70595033899986
 20
4683.1551312600004
 30
25.0
  0
VERTEX
  5
3C0
  8
CLUSTERS
 10
633.61873638300005
 20
4683.0965311600003
 30
25.0
  0
VERTEX
  5
3C1
  8
CLUSTERS
 10
633.55484199400007
 20
4683.1551312600004
 30
25.0
  0
SEQEND
  5
3C2
  8
CLUSTERS
  0
POLYLINE
  5
48
  8
CLUSTERS
 66
     1
 10
0.0
 20
0.0
 30
25.0
 70
   129
  0
VERTEX
  5
3C3
  8
CLUSTERS
 10
633.14188364099994
 20
4681.6515513099994
 30
25.0
  0
VERTEX
  5
3C4
  8
CLUSTERS
 10
633.21786492399985
 20
4681.7476917900003
 30
25.0
  0
VERTEX
  5
3C5
  8
CLUSTERS
 10
633.222778113
 20
4681.7517899799977
 30
25.0
  0
VERTEX
  5
3C6
  8
CLUSTERS
 10
633.31808278899985
 20
4681.8279274500001
 30
25.0
  0
VERTEX
  5
3C7
  8
CLUSTERS
 10
633.32782856800009
 20
4681.852028639998
 30
25.0
  0
VERTEX
  5
3C8
  8
CLUSTERS
 10
633.31952343599994
 20
4681.9522673000001
 30
25.0
  0
VERTEX
  5
3C9
  8
CLUSTERS
 10
633.31949442300004
 20
4682.0525059700003
 30
25.0
  0
VERTEX
  5
3CA
  8
CLUSTERS
 10
633.41830065399995
 20
4682.15181777
 30
25.0
  0
VERTEX
  5
3CB
  8
CLUSTERS
 10
633.46336602899976
 20
4682.1527446299979
 30
25.0
  0
VERTEX
  5
3CC
  8
CLUSTERS
 10
633.51851851900005
 20
4682.191415440001
 30
25.0
  0
VERTEX
  5
3CD
  8
CLUSTERS
 10
633.585546303
 20
4682.1527446299979
 30
25.0
  0
VERTEX
  5
3CE
  8
CLUSTERS
 10
633.61873638300005
 20
4682.1520945499997
 30
25.0
  0
VERTEX
  5
3CF
  8
CLUSTERS
 10
633.71895424800005
 20
4682.1494325000012
 30
25.0
  0
VERTEX
  5
3D0
  8
CLUSTERS
 10
633.81833538099977
 20
4682.0525059700003
 30
25.0
  0
VERTEX
  5
3D1
  8
CLUSTERS
 10
633.8183987839999
 20
4681.9522673000001
 30
25.0
  0
VERTEX
  5
3D2
  8
CLUSTERS
 10
633.71895424800005
 20
4681.8547923100014
 30
25.0
  0
VERTEX
  5
3D3
  8
CLUSTERS
 10
633.693500728
 20
4681.852028639998
 30
25.0
  0
VERTEX
  5
3D4
  8
CLUSTERS
 10
633.61873638300005
 20
4681.7847633900001
 30
25.0
  0
VERTEX
  5
3D5
  8
CLUSTERS
 10
633.52596445899985
 20
4681.7517899799977
 30
25.0
  0
VERTEX
  5
3D6
  8
CLUSTERS
 10
633.51851851900005
 20
4681.7181158999983
 30
25.0
  0
VERTEX
  5
3D7
  8
CLUSTERS
 10
633.51784864399997
 20
4681.6515513099994
 30
25.0
  0
VERTEX
  5
3D8
  8
CLUSTERS
 10
633.41830065399995
 20
4681.5551759800001
 30
25.0
  0
VERTEX
  5
3D9
  8
CLUSTERS
 10
633.31808278899985
 20
4681.5541449199991
 30
25.0
  0
VERTEX
  5
3DA
  8
CLUSTERS
 10
633.21786492399985
 20
4681.5745380300013
 30
25.0
  0
VERTEX
  5
3DB
  8
CLUSTERS
 10
633.14188364099994
 20
4681.6515513099994
 30
25.0
  0
SEQEND
  5
3DC
  8
CLUSTERS
  0
POLYLINE
  5
49
  8
CLUSTERS
 66
     1
 10
0.0
 20
0.0
 30
25.0
 70
   129
  0
VERTEX
  5
3DD
  8
CLUSTERS
 10
645.54081236699994
 20
4681.4510739899988
 30
25.0
  0
VERTEX
  5
3DE
  8
CLUSTERS
 10
645.54466230900005
 20
4681.4587754800023
 30
25.0
  0
VERTEX
  5
3DF
  8
CLUSTERS
 10
645.54851225699986
 20
4681.4510739899988
 30
25.0
  0
VERTEX
  5
3E0
  8
CLUSTERS
 10
645.54466230900005
 20
4681.4472232400012
 30
25.0
  0
VERTEX
  5
3E1
  8
CLUSTERS
 10
645.54081236699994
 20
4681.4510739899988
 30
25.0
  0
SEQEND
  5
3E2
  8
CLUSTERS
  0
POLYLINE
  5
4A
  8
CLUSTERS
 66
     1
 10
0.0
 20
0.0
 30
25.0
 70
   129
  0
VERTEX
  5
3E3
  8
CLUSTERS
 10
635.58504147699989
 20
4681.4510739899988
 30
25.0
  0
VERTEX
  5
3E4
  8
CLUSTERS
 10
635.54195751700001
 20
4681.5513126499991
 30
25.0
  0
VERTEX
  5
3E5
  8
CLUSTERS
 10
635.56136895600002
 20
4681.6515513099994
 30
25.0
  0
VERTEX
  5
3E6
  8
CLUSTERS
 10
635.58829816000002
 20
4681.7517899799977
 30
25.0
  0
VERTEX
  5
3E7
  8
CLUSTERS
 10
635.62309368199999
 20
4681.7986966799999
 30
25.0
  0
VERTEX
  5
3E8
  8
CLUSTERS
 10
635.65988662799975
 20
4681.852028639998
 30
25.0
  0
VERTEX
  5
3E9
  8
CLUSTERS
 10
635.72331154699975
 20
4681.9033010200001
 30
25.0
  0
VERTEX
  5
3EA
  8
CLUSTERS
 10
635.80425978599988
 20
4681.852028639998
 30
25.0
  0
VERTEX
  5
3EB
  8
CLUSTERS
 10
635.82352941199986
 20
4681.8368898600002
 30
25.0
  0
VERTEX
  5
3EC
  8
CLUSTERS
 10
635.87472333100004
 20
4681.852028639998
 30
25.0
  0
VERTEX
  5
3ED
  8
CLUSTERS
 10
635.92374727699985
 20
4681.8713330099999
 30
25.0
  0
VERTEX
  5
3EE
  8
CLUSTERS
 10
636.02396514199984
 20
4681.8594366899988
 30
25.0
  0
VERTEX
  5
3EF
  8
CLUSTERS
 10
636.03144583000005
 20
4681.852028639998
 30
25.0
  0
VERTEX
  5
3F0
  8
CLUSTERS
 10
636.07051559900003
 20
4681.7517899799977
 30
25.0
  0
VERTEX
  5
3F1
  8
CLUSTERS
 10
636.02396514199984
 20
4681.6641106300003
 30
25.0
  0
VERTEX
  5
3F2
  8
CLUSTERS
 10
636.02088209800002
 20
4681.6515513099994
 30
25.0
  0
VERTEX
  5
3F3
  8
CLUSTERS
 10
635.98366314299994
 20
4681.5513126499991
 30
25.0
  0
VERTEX
  5
3F4
  8
CLUSTERS
 10
635.92374727699985
 20
4681.5065983000004
 30
25.0
  0
VERTEX
  5
3F5
  8
CLUSTERS
 10
635.82352941199986
 20
4681.5209224799992
 30
25.0
  0
VERTEX
  5
3F6
  8
CLUSTERS
 10
635.72331154699975
 20
4681.466755909998
 30
25.0
  0
VERTEX
  5
3F7
  8
CLUSTERS
 10
635.67085785099994
 20
4681.4510739899988
 30
25.0
  0
VERTEX
  5
3F8
  8
CLUSTERS
 10
635.62309368199999
 20
4681.4129718100003
 30
25.0
  0
VERTEX
  5
3F9
  8
CLUSTERS
 10
635.58504147699989
 20
4681.4510739899988
 30
25.0
  0
SEQEND
  5
3FA
  8
CLUSTERS
  0
POLYLINE
  5
4B
  8
CLUSTERS
 66
     1
 10
0.0
 20
0.0
 30
25.0
 70
   129
  0
VERTEX
  5
3FB
  8
CLUSTERS
 10
628.23858496100002
 20
4680.9498806700003
 30
25.0
  0
VERTEX
  5
3FC
  8
CLUSTERS
 10
628.30718954199995
 20
4681.0167775600003
 30
25.0
  0
VERTEX
  5
3FD
  8
CLUSTERS
 10
628.40740740699994
 20
4681.0324805500004
 30
25.0
  0
VERTEX
  5
3FE
  8
CLUSTERS
 10
628.50762527199993
 20
4680.9716069799997
 30
25.0
  0
VERTEX
  5
3FF
  8
CLUSTERS
 10
628.55655918299999
 20
4681.0501193299997
 30
25.0
  0
VERTEX
  5
400
  8
CLUSTERS
 10
628.50762527199993
 20
4681.1095338200003
 30
25.0
  0
VERTEX
  5
401
  8
CLUSTERS
 10
628.46922369499976
 20
4681.1503579999999
 30
25.0
  0
VERTEX
  5
402
  8
CLUSTERS
 10
628.41144502500003
 20
4681.2505966599992
 30
25.0
  0
VERTEX
  5
403
  8
CLUSTERS
 10
628.43327656600002
 20
4681.3508353200004
 30
25.0
  0
VERTEX
  5
404
  8
CLUSTERS
 10
628.50762527199993
 20
4681.4258097399997
 30
25.0
  0
VERTEX
  5
405
  8
CLUSTERS
 10
628.60784313699992
 20
4681.4244610499991
 30
25.0
  0
VERTEX
  5
406
  8
CLUSTERS
 10
628.70345302500004
 20
4681.3508353200004
 30
25.0
  0
VERTEX
  5
407
  8
CLUSTERS
 10
628.70806100200002
 20
4681.3151122999998
 30
25.0
  0
VERTEX
  5
408
  8
CLUSTERS
 10
628.72769366
 20
4681.2505966599992
 30
25.0
  0
VERTEX
  5
409
  8
CLUSTERS
 10
628.78743234900003
 20
4681.1503579999999
 30
25.0
  0
VERTEX
  5
40A
  8
CLUSTERS
 10
628.76442459999998
 20
4681.0501193299997
 30
25.0
  0
VERTEX
  5
40B
  8
CLUSTERS
 10
628.70806100200002
 20
4681.0032093700001
 30
25.0
  0
VERTEX
  5
40C
  8
CLUSTERS
 10
628.60784313699992
 20
4681.0008158700002
 30
25.0
  0
VERTEX
  5
40D
  8
CLUSTERS
 10
628.52802548699992
 20
4680.9498806700003
 30
25.0
  0
VERTEX
  5
40E
  8
CLUSTERS
 10
628.50762527199993
 20
4680.92878483
 30
25.0
  0
VERTEX
  5
40F
  8
CLUSTERS
 10
628.40740740699994
 20
4680.8673621500002
 30
25.0
  0
VERTEX
  5
410
  8
CLUSTERS
 10
628.30718954199995
 20
4680.8766820999999
 30
25.0
  0
VERTEX
  5
411
  8
CLUSTERS
 10
628.23858496100002
 20
4680.9498806700003
 30
25.0
  0
SEQEND
  5
412
  8
CLUSTERS
  0
POLYLINE
  5
4C
  8
CLUSTERS
 66
     1
 10
0.0
 20
0.0
 30
25.0
 70
   129
  0
VERTEX
  5
413
  8
CLUSTERS
 10
627.940921656
 20
4680.8496420000001
 30
25.0
  0
VERTEX
  5
414
  8
CLUSTERS
 10
627.90631808299975
 20
4680.9066295700004
 30
25.0
  0
VERTEX
  5
415
  8
CLUSTERS
 10
627.86768881399985
 20
4680.9498806700003
 30
25.0
  0
VERTEX
  5
416
  8
CLUSTERS
 10
627.80610021799998
 20
4680.9612473300003
 30
25.0
  0
VERTEX
  5
417
  8
CLUSTERS
 10
627.70588235299988
 20
4680.96419565
 30
25.0
  0
VERTEX
  5
418
  8
CLUSTERS
 10
627.605664488
 20
4680.9810671200003
 30
25.0
  0
VERTEX
  5
419
  8
CLUSTERS
 10
627.52323739600001
 20
4681.0501193299997
 30
25.0
  0
VERTEX
  5
41A
  8
CLUSTERS
 10
627.605664488
 20
4681.1295189100001
 30
25.0
  0
VERTEX
  5
41B
  8
CLUSTERS
 10
627.61929526699976
 20
4681.1503579999999
 30
25.0
  0
VERTEX
  5
41C
  8
CLUSTERS
 10
627.70588235299988
 20
4681.2299641400004
 30
25.0
  0
VERTEX
  5
41D
  8
CLUSTERS
 10
627.80610021799998
 20
4681.2394868800002
 30
25.0
  0
VERTEX
  5
41E
  8
CLUSTERS
 10
627.90631808299975
 20
4681.2360403399989
 30
25.0
  0
VERTEX
  5
41F
  8
CLUSTERS
 10
628.00653594799996
 20
4681.1792060300013
 30
25.0
  0
VERTEX
  5
420
  8
CLUSTERS
 10
628.03434564899976
 20
4681.1503579999999
 30
25.0
  0
VERTEX
  5
421
  8
CLUSTERS
 10
628.0678096019999
 20
4681.0501193299997
 30
25.0
  0
VERTEX
  5
422
  8
CLUSTERS
 10
628.10675381300007
 20
4681.0003896400003
 30
25.0
  0
VERTEX
  5
423
  8
CLUSTERS
 10
628.15729734699994
 20
4680.9498806700003
 30
25.0
  0
VERTEX
  5
424
  8
CLUSTERS
 10
628.15763609699991
 20
4680.8496420000001
 30
25.0
  0
VERTEX
  5
425
  8
CLUSTERS
 10
628.10675381300007
 20
4680.8399608299997
 30
25.0
  0
VERTEX
  5
426
  8
CLUSTERS
 10
628.00653594799996
 20
4680.7948487200001
 30
25.0
  0
VERTEX
  5
427
  8
CLUSTERS
 10
627.940921656
 20
4680.8496420000001
 30
25.0
  0
SEQEND
  5
428
  8
CLUSTERS
  0
POLYLINE
  5
4D
  8
CLUSTERS
 66
     1
 10
0.0
 20
0.0
 30
25.0
 70
   129
  0
VERTEX
  5
429
  8
CLUSTERS
 10
632.71885964399996
 20
4680.7494033399998
 30
25.0
  0
VERTEX
  5
42A
  8
CLUSTERS
 10
632.81100397800003
 20
4680.8496420000001
 30
25.0
  0
VERTEX
  5
42B
  8
CLUSTERS
 10
632.71696378499985
 20
4680.9498806700003
 30
25.0
  0
VERTEX
  5
42C
  8
CLUSTERS
 10
632.72985768499984
 20
4681.0501193299997
 30
25.0
  0
VERTEX
  5
42D
  8
CLUSTERS
 10
632.81699346399989
 20
4681.1370892399991
 30
25.0
  0
VERTEX
  5
42E
  8
CLUSTERS
 10
632.82136771899991
 20
4681.1503579999999
 30
25.0
  0
VERTEX
  5
42F
  8
CLUSTERS
 10
632.83844571199984
 20
4681.2505966599992
 30
25.0
  0
VERTEX
  5
430
  8
CLUSTERS
 10
632.917211329
 20
4681.3291345999996
 30
25.0
  0
VERTEX
  5
431
  8
CLUSTERS
 10
633.01742919399976
 20
4681.3088320400002
 30
25.0
  0
VERTEX
  5
432
  8
CLUSTERS
 10
633.11764705899986
 20
4681.3049349599987
 30
25.0
  0
VERTEX
  5
433
  8
CLUSTERS
 10
633.21786492399985
 20
4681.3238313499987
 30
25.0
  0
VERTEX
  5
434
  8
CLUSTERS
 10
633.31502883300004
 20
4681.2505966599992
 30
25.0
  0
VERTEX
  5
435
  8
CLUSTERS
 10
633.250876038
 20
4681.1503579999999
 30
25.0
  0
VERTEX
  5
436
  8
CLUSTERS
 10
633.31808278899985
 20
4681.0876824099996
 30
25.0
  0
VERTEX
  5
437
  8
CLUSTERS
 10
633.36900246100004
 20
4681.0501193299997
 30
25.0
  0
VERTEX
  5
438
  8
CLUSTERS
 10
633.31808278899985
 20
4681.00157812
 30
25.0
  0
VERTEX
  5
439
  8
CLUSTERS
 10
633.27683961299977
 20
4681.0501193299997
 30
25.0
  0
VERTEX
  5
43A
  8
CLUSTERS
 10
633.21786492399985
 20
4681.1138376299978
 30
25.0
  0
VERTEX
  5
43B
  8
CLUSTERS
 10
633.19740026199986
 20
4681.0501193299997
 30
25.0
  0
VERTEX
  5
43C
  8
CLUSTERS
 10
633.11764705899986
 20
4680.9699487199978
 30
25.0
  0
VERTEX
  5
43D
  8
CLUSTERS
 10
633.04874948199995
 20
4680.9498806700003
 30
25.0
  0
VERTEX
  5
43E
  8
CLUSTERS
 10
633.11764705899986
 20
4680.9297545500012
 30
25.0
  0
VERTEX
  5
43F
  8
CLUSTERS
 10
633.196760574
 20
4680.8496420000001
 30
25.0
  0
VERTEX
  5
440
  8
CLUSTERS
 10
633.11764705899986
 20
4680.7631164499999
 30
25.0
  0
VERTEX
  5
441
  8
CLUSTERS
 10
633.08784159100003
 20
4680.7494033399998
 30
25.0
  0
VERTEX
  5
442
  8
CLUSTERS
 10
633.01742919399976
 20
4680.6947085899992
 30
25.0
  0
VERTEX
  5
443
  8
CLUSTERS
 10
632.917211329
 20
4680.6596677099978
 30
25.0
  0
VERTEX
  5
444
  8
CLUSTERS
 10
632.81699346399989
 20
4680.6576942700003
 30
25.0
  0
VERTEX
  5
445
  8
CLUSTERS
 10
632.71885964399996
 20
4680.7494033399998
 30
25.0
  0
SEQEND
  5
446
  8
CLUSTERS
  0
POLYLINE
  5
4E
  8
CLUSTERS
 66
     1
 10
0.0
 20
0.0
 30
25.0
 70
   129
  0
VERTEX
  5
447
  8
CLUSTERS
 10
645.88110459500001
 20
4680.44868735
 30
25.0
  0
VERTEX
  5
448
  8
CLUSTERS
 10
645.84531590400002
 20
4680.4800089800001
 30
25.0
  0
VERTEX
  5
449
  8
CLUSTERS
 10
645.77641402799998
 20
4680.5489260100012
 30
25.0
  0
VERTEX
  5
44A
  8
CLUSTERS
 10
645.76514071600002
 20
4680.6491646799996
 30
25.0
  0
VERTEX
  5
44B
  8
CLUSTERS
 10
645.79520609500003
 20
4680.7494033399998
 30
25.0
  0
VERTEX
  5
44C
  8
CLUSTERS
 10
645.84531590400002
 20
4680.7995234099999
 30
25.0
  0
VERTEX
  5
44D
  8
CLUSTERS
 10
645.90956339999968
 20
4680.7494033399998
 30
25.0
  0
VERTEX
  5
44E
  8
CLUSTERS
 10
645.94553376900001
 20
4680.7468476800004
 30
25.0
  0
VERTEX
  5
44F
  8
CLUSTERS
 10
646.04575163399988
 20
4680.7337423099998
 30
25.0
  0
VERTEX
  5
450
  8
CLUSTERS
 10
646.07488284600004
 20
4680.7494033399998
 30
25.0
  0
VERTEX
  5
451
  8
CLUSTERS
 10
646.101424221
 20
4680.8496420000001
 30
25.0
  0
VERTEX
  5
452
  8
CLUSTERS
 10
646.06430966300002
 20
4680.9498806700003
 30
25.0
  0
VERTEX
  5
453
  8
CLUSTERS
 10
646.06201998199992
 20
4681.0501193299997
 30
25.0
  0
VERTEX
  5
454
  8
CLUSTERS
 10
646.14596949899999
 20
4681.1340872600013
 30
25.0
  0
VERTEX
  5
455
  8
CLUSTERS
 10
646.15041919500004
 20
4681.1503579999999
 30
25.0
  0
VERTEX
  5
456
  8
CLUSTERS
 10
646.20164279799997
 20
4681.2505966599992
 30
25.0
  0
VERTEX
  5
457
  8
CLUSTERS
 10
646.24618736399975
 20
4681.2951501799998
 30
25.0
  0
VERTEX
  5
458
  8
CLUSTERS
 10
646.34640522899986
 20
4681.3410084400002
 30
25.0
  0
VERTEX
  5
459
  8
CLUSTERS
 10
646.44662309399985
 20
4681.3474718300004
 30
25.0
  0
VERTEX
  5
45A
  8
CLUSTERS
 10
646.54684095899995
 20
4681.34735499
 30
25.0
  0
VERTEX
  5
45B
  8
CLUSTERS
 10
646.64357922199974
 20
4681.2505966599992
 30
25.0
  0
VERTEX
  5
45C
  8
CLUSTERS
 10
646.64614218500003
 20
4681.1503579999999
 30
25.0
  0
VERTEX
  5
45D
  8
CLUSTERS
 10
646.64376673000004
 20
4681.0501193299997
 30
25.0
  0
VERTEX
  5
45E
  8
CLUSTERS
 10
646.64465908199975
 20
4680.9498806700003
 30
25.0
  0
VERTEX
  5
45F
  8
CLUSTERS
 10
646.54684095899995
 20
4680.85204221
 30
25.0
  0
VERTEX
  5
460
  8
CLUSTERS
 10
646.44662309399985
 20
4680.85225756
 30
25.0
  0
VERTEX
  5
461
  8
CLUSTERS
 10
646.42720333400007
 20
4680.8496420000001
 30
25.0
  0
VERTEX
  5
462
  8
CLUSTERS
 10
646.34640522899986
 20
4680.7688276999979
 30
25.0
  0
VERTEX
  5
463
  8
CLUSTERS
 10
646.34067229599998
 20
4680.7494033399998
 30
25.0
  0
VERTEX
  5
464
  8
CLUSTERS
 10
646.24618736399975
 20
4680.6542456500001
 30
25.0
  0
VERTEX
  5
465
  8
CLUSTERS
 10
646.14596949899999
 20
4680.6783020000003
 30
25.0
  0
VERTEX
  5
466
  8
CLUSTERS
 10
646.13031166899987
 20
4680.6491646799996
 30
25.0
  0
VERTEX
  5
467
  8
CLUSTERS
 10
646.14133016300002
 20
4680.5489260100012
 30
25.0
  0
VERTEX
  5
468
  8
CLUSTERS
 10
646.06246254400003
 20
4680.44868735
 30
25.0
  0
VERTEX
  5
469
  8
CLUSTERS
 10
646.04575163399988
 20
4680.4319731200012
 30
25.0
  0
VERTEX
  5
46A
  8
CLUSTERS
 10
645.94553376900001
 20
4680.3842460300002
 30
25.0
  0
VERTEX
  5
46B
  8
CLUSTERS
 10
645.88110459500001
 20
4680.44868735
 30
25.0
  0
SEQEND
  5
46C
  8
CLUSTERS
  0
POLYLINE
  5
4F
  8
CLUSTERS
 66
     1
 10
0.0
 20
0.0
 30
25.0
 70
   129
  0
VERTEX
  5
46D
  8
CLUSTERS
 10
628.92123787699984
 20
4680.2482100200023
 30
25.0
  0
VERTEX
  5
46E
  8
CLUSTERS
 10
628.91265520099989
 20
4680.3484486899997
 30
25.0
  0
VERTEX
  5
46F
  8
CLUSTERS
 10
628.90849673199989
 20
4680.3545341999998
 30
25.0
  0
VERTEX
  5
470
  8
CLUSTERS
 10
628.81736072800004
 20
4680.44868735
 30
25.0
  0
VERTEX
  5
471
  8
CLUSTERS
 10
628.90142837300004
 20
4680.5489260100012
 30
25.0
  0
VERTEX
  5
472
  8
CLUSTERS
 10
628.82162945100004
 20
4680.6491646799996
 30
25.0
  0
VERTEX
  5
473
  8
CLUSTERS
 10
628.90849673199989
 20
4680.7473112500011
 30
25.0
  0
VERTEX
  5
474
  8
CLUSTERS
 10
628.92038729099988
 20
4680.7494033399998
 30
25.0
  0
VERTEX
  5
475
  8
CLUSTERS
 10
629.00871459699999
 20
4680.7994064000004
 30
25.0
  0
VERTEX
  5
476
  8
CLUSTERS
 10
629.07451239899979
 20
4680.7494033399998
 30
25.0
  0
VERTEX
  5
477
  8
CLUSTERS
 10
629.10893246199976
 20
4680.72050115
 30
25.0
  0
VERTEX
  5
478
  8
CLUSTERS
 10
629.16558916099984
 20
4680.6491646799996
 30
25.0
  0
VERTEX
  5
479
  8
CLUSTERS
 10
629.13180829400005
 20
4680.5489260100012
 30
25.0
  0
VERTEX
  5
47A
  8
CLUSTERS
 10
629.20593565599995
 20
4680.44868735
 30
25.0
  0
VERTEX
  5
47B
  8
CLUSTERS
 10
629.20915032699986
 20
4680.4472852600002
 30
25.0
  0
VERTEX
  5
47C
  8
CLUSTERS
 10
629.30724217599993
 20
4680.3484486899997
 30
25.0
  0
VERTEX
  5
47D
  8
CLUSTERS
 10
629.30531438299988
 20
4680.2482100200023
 30
25.0
  0
VERTEX
  5
47E
  8
CLUSTERS
 10
629.20915032699986
 20
4680.1550837699988
 30
25.0
  0
VERTEX
  5
47F
  8
CLUSTERS
 10
629.10893246199976
 20
4680.1493314600002
 30
25.0
  0
VERTEX
  5
480
  8
CLUSTERS
 10
629.00871459699999
 20
4680.1602908300001
 30
25.0
  0
VERTEX
  5
481
  8
CLUSTERS
 10
628.92123787699984
 20
4680.2482100200023
 30
25.0
  0
SEQEND
  5
482
  8
CLUSTERS
  0
POLYLINE
  5
50
  8
CLUSTERS
 66
     1
 10
0.0
 20
0.0
 30
25.0
 70
   129
  0
VERTEX
  5
483
  8
CLUSTERS
 10
628.52211635599997
 20
4680.1479713600002
 30
25.0
  0
VERTEX
  5
484
  8
CLUSTERS
 10
628.50762527199993
 20
4680.2066239400001
 30
25.0
  0
VERTEX
  5
485
  8
CLUSTERS
 10
628.43795063100004
 20
4680.2482100200023
 30
25.0
  0
VERTEX
  5
486
  8
CLUSTERS
 10
628.50762527199993
 20
4680.29181083
 30
25.0
  0
VERTEX
  5
487
  8
CLUSTERS
 10
628.56793985599995
 20
4680.3484486899997
 30
25.0
  0
VERTEX
  5
488
  8
CLUSTERS
 10
628.50762527199993
 20
4680.37611285
 30
25.0
  0
VERTEX
  5
489
  8
CLUSTERS
 10
628.40740740699994
 20
4680.3778080399998
 30
25.0
  0
VERTEX
  5
48A
  8
CLUSTERS
 10
628.33833951700001
 20
4680.44868735
 30
25.0
  0
VERTEX
  5
48B
  8
CLUSTERS
 10
628.40740740699994
 20
4680.5192893699987
 30
25.0
  0
VERTEX
  5
48C
  8
CLUSTERS
 10
628.50762527199993
 20
4680.5207252299997
 30
25.0
  0
VERTEX
  5
48D
  8
CLUSTERS
 10
628.59545288699985
 20
4680.44868735
 30
25.0
  0
VERTEX
  5
48E
  8
CLUSTERS
 10
628.60784313699992
 20
4680.4127286000003
 30
25.0
  0
VERTEX
  5
48F
  8
CLUSTERS
 10
628.68237109899985
 20
4680.3484486899997
 30
25.0
  0
VERTEX
  5
490
  8
CLUSTERS
 10
628.70806100200002
 20
4680.3460953800004
 30
25.0
  0
VERTEX
  5
491
  8
CLUSTERS
 10
628.80827886700001
 20
4680.3090176499991
 30
25.0
  0
VERTEX
  5
492
  8
CLUSTERS
 10
628.86763744099994
 20
4680.2482100200023
 30
25.0
  0
VERTEX
  5
493
  8
CLUSTERS
 10
628.88702718800005
 20
4680.1479713600002
 30
25.0
  0
VERTEX
  5
494
  8
CLUSTERS
 10
628.80827886700001
 20
4680.0674549900004
 30
25.0
  0
VERTEX
  5
495
  8
CLUSTERS
 10
628.70806100200002
 20
4680.051537899998
 30
25.0
  0
VERTEX
  5
496
  8
CLUSTERS
 10
628.60784313699992
 20
4680.0612875899997
 30
25.0
  0
VERTEX
  5
497
  8
CLUSTERS
 10
628.52211635599997
 20
4680.1479713600002
 30
25.0
  0
SEQEND
  5
498
  8
CLUSTERS
  0
POLYLINE
  5
51
  8
CLUSTERS
 66
     1
 10
0.0
 20
0.0
 30
25.0
 70
   129
  0
VERTEX
  5
499
  8
CLUSTERS
 10
631.42351244799977
 20
4680.0477326999999
 30
25.0
  0
VERTEX
  5
49A
  8
CLUSTERS
 10
631.41394335500001
 20
4680.0507306899999
 30
25.0
  0
VERTEX
  5
49B
  8
CLUSTERS
 10
631.3137254899998
 20
4680.0532463999989
 30
25.0
  0
VERTEX
  5
49C
  8
CLUSTERS
 10
631.21350762500003
 20
4680.0537149900001
 30
25.0
  0
VERTEX
  5
49D
  8
CLUSTERS
 10
631.11921798399987
 20
4680.1479713600002
 30
25.0
  0
VERTEX
  5
49E
  8
CLUSTERS
 10
631.148358648
 20
4680.2482100200023
 30
25.0
  0
VERTEX
  5
49F
  8
CLUSTERS
 10
631.21350762500003
 20
4680.314969269999
 30
25.0
  0
VERTEX
  5
4A0
  8
CLUSTERS
 10
631.3137254899998
 20
4680.3421166999988
 30
25.0
  0
VERTEX
  5
4A1
  8
CLUSTERS
 10
631.31639822499983
 20
4680.3484486899997
 30
25.0
  0
VERTEX
  5
4A2
  8
CLUSTERS
 10
631.31542084199998
 20
4680.44868735
 30
25.0
  0
VERTEX
  5
4A3
  8
CLUSTERS
 10
631.41394335500001
 20
4680.5481386800002
 30
25.0
  0
VERTEX
  5
4A4
  8
CLUSTERS
 10
631.51416122000001
 20
4680.5486299599988
 30
25.0
  0
VERTEX
  5
4A5
  8
CLUSTERS
 10
631.51439937700002
 20
4680.5489260100012
 30
25.0
  0
VERTEX
  5
4A6
  8
CLUSTERS
 10
631.61437908499988
 20
4680.6485803799978
 30
25.0
  0
VERTEX
  5
4A7
  8
CLUSTERS
 10
631.61464824999985
 20
4680.6491646799996
 30
25.0
  0
VERTEX
  5
4A8
  8
CLUSTERS
 10
631.62071471599995
 20
4680.7494033399998
 30
25.0
  0
VERTEX
  5
4A9
  8
CLUSTERS
 10
631.71459694999999
 20
4680.8433752700003
 30
25.0
  0
VERTEX
  5
4AA
  8
CLUSTERS
 10
631.81481481499975
 20
4680.7991144300004
 30
25.0
  0
VERTEX
  5
4AB
  8
CLUSTERS
 10
631.86624784499998
 20
4680.7494033399998
 30
25.0
  0
VERTEX
  5
4AC
  8
CLUSTERS
 10
631.91503267999985
 20
4680.6921141100011
 30
25.0
  0
VERTEX
  5
4AD
  8
CLUSTERS
 10
631.94990215899975
 20
4680.7494033399998
 30
25.0
  0
VERTEX
  5
4AE
  8
CLUSTERS
 10
631.96860229100002
 20
4680.8496420000001
 30
25.0
  0
VERTEX
  5
4AF
  8
CLUSTERS
 10
631.91503267999985
 20
4680.8513327600003
 30
25.0
  0
VERTEX
  5
4B0
  8
CLUSTERS
 10
631.81707041199991
 20
4680.9498806700003
 30
25.0
  0
VERTEX
  5
4B1
  8
CLUSTERS
 10
631.81481481499975
 20
4680.9614191799992
 30
25.0
  0
VERTEX
  5
4B2
  8
CLUSTERS
 10
631.73086474499985
 20
4681.0501193299997
 30
25.0
  0
VERTEX
  5
4B3
  8
CLUSTERS
 10
631.72332823699992
 20
4681.1503579999999
 30
25.0
  0
VERTEX
  5
4B4
  8
CLUSTERS
 10
631.81481481499975
 20
4681.2431153699999
 30
25.0
  0
VERTEX
  5
4B5
  8
CLUSTERS
 10
631.91503267999985
 20
4681.2497200899998
 30
25.0
  0
VERTEX
  5
4B6
  8
CLUSTERS
 10
632.01525054499984
 20
4681.2505101899987
 30
25.0
  0
VERTEX
  5
4B7
  8
CLUSTERS
 10
632.01562896599978
 20
4681.2505966599992
 30
25.0
  0
VERTEX
  5
4B8
  8
CLUSTERS
 10
632.04897619999997
 20
4681.3508353200004
 30
25.0
  0
VERTEX
  5
4B9
  8
CLUSTERS
 10
632.11546840999983
 20
4681.4169252199999
 30
25.0
  0
VERTEX
  5
4BA
  8
CLUSTERS
 10
632.21568627500005
 20
4681.4495595300004
 30
25.0
  0
VERTEX
  5
4BB
  8
CLUSTERS
 10
632.31590413900005
 20
4681.4486759800002
 30
25.0
  0
VERTEX
  5
4BC
  8
CLUSTERS
 10
632.41612200400004
 20
4681.4069377300002
 30
25.0
  0
VERTEX
  5
4BD
  8
CLUSTERS
 10
632.47484486400003
 20
4681.3508353200004
 30
25.0
  0
VERTEX
  5
4BE
  8
CLUSTERS
 10
632.51633986900003
 20
4681.314145209999
 30
25.0
  0
VERTEX
  5
4BF
  8
CLUSTERS
 10
632.58030419500005
 20
4681.2505966599992
 30
25.0
  0
VERTEX
  5
4C0
  8
CLUSTERS
 10
632.61655773400003
 20
4681.2133416799998
 30
25.0
  0
VERTEX
  5
4C1
  8
CLUSTERS
 10
632.67453882799987
 20
4681.1503579999999
 30
25.0
  0
VERTEX
  5
4C2
  8
CLUSTERS
 10
632.70561714099995
 20
4681.0501193299997
 30
25.0
  0
VERTEX
  5
4C3
  8
CLUSTERS
 10
632.71655071999999
 20
4680.9498806700003
 30
25.0
  0
VERTEX
  5
4C4
  8
CLUSTERS
 10
632.69613778899998
 20
4680.8496420000001
 30
25.0
  0
VERTEX
  5
4C5
  8
CLUSTERS
 10
632.61655773400003
 20
4680.7565583799988
 30
25.0
  0
VERTEX
  5
4C6
  8
CLUSTERS
 10
632.59992537999983
 20
4680.7494033399998
 30
25.0
  0
VERTEX
  5
4C7
  8
CLUSTERS
 10
632.60593196399975
 20
4680.6491646799996
 30
25.0
  0
VERTEX
  5
4C8
  8
CLUSTERS
 10
632.57658027100001
 20
4680.5489260100012
 30
25.0
  0
VERTEX
  5
4C9
  8
CLUSTERS
 10
632.51633986900003
 20
4680.4813988799997
 30
25.0
  0
VERTEX
  5
4CA
  8
CLUSTERS
 10
632.48444058400003
 20
4680.44868735
 30
25.0
  0
VERTEX
  5
4CB
  8
CLUSTERS
 10
632.4928290119999
 20
4680.3484486899997
 30
25.0
  0
VERTEX
  5
4CC
  8
CLUSTERS
 10
632.41612200400004
 20
4680.2730502100003
 30
25.0
  0
VERTEX
  5
4CD
  8
CLUSTERS
 10
632.34241308799994
 20
4680.2482100200023
 30
25.0
  0
VERTEX
  5
4CE
  8
CLUSTERS
 10
632.31590413900005
 20
4680.2238335800002
 30
25.0
  0
VERTEX
  5
4CF
  8
CLUSTERS
 10
632.21568627500005
 20
4680.1577408200001
 30
25.0
  0
VERTEX
  5
4D0
  8
CLUSTERS
 10
632.11546840999983
 20
4680.156296109998
 30
25.0
  0
VERTEX
  5
4D1
  8
CLUSTERS
 10
632.02368777100003
 20
4680.2482100200023
 30
25.0
  0
VERTEX
  5
4D2
  8
CLUSTERS
 10
632.01992457599999
 20
4680.3484486899997
 30
25.0
  0
VERTEX
  5
4D3
  8
CLUSTERS
 10
632.01525054499984
 20
4680.382621339998
 30
25.0
  0
VERTEX
  5
4D4
  8
CLUSTERS
 10
631.93575503599993
 20
4680.44868735
 30
25.0
  0
VERTEX
  5
4D5
  8
CLUSTERS
 10
631.91503267999985
 20
4680.4508746000001
 30
25.0
  0
VERTEX
  5
4D6
  8
CLUSTERS
 10
631.87647785000001
 20
4680.44868735
 30
25.0
  0
VERTEX
  5
4D7
  8
CLUSTERS
 10
631.89756549000003
 20
4680.3484486899997
 30
25.0
  0
VERTEX
  5
4D8
  8
CLUSTERS
 10
631.90989970700002
 20
4680.2482100200023
 30
25.0
  0
VERTEX
  5
4D9
  8
CLUSTERS
 10
631.86915232800004
 20
4680.1479713600002
 30
25.0
  0
VERTEX
  5
4DA
  8
CLUSTERS
 10
631.81481481499975
 20
4680.0978128300003
 30
25.0
  0
VERTEX
  5
4DB
  8
CLUSTERS
 10
631.71459694999999
 20
4680.0760745199977
 30
25.0
  0
VERTEX
  5
4DC
  8
CLUSTERS
 10
631.68444108199992
 20
4680.0477326999999
 30
25.0
  0
VERTEX
  5
4DD
  8
CLUSTERS
 10
631.61437908499988
 20
4679.9837458000002
 30
25.0
  0
VERTEX
  5
4DE
  8
CLUSTERS
 10
631.51416122000001
 20
4679.9629684900001
 30
25.0
  0
VERTEX
  5
4DF
  8
CLUSTERS
 10
631.42351244799977
 20
4680.0477326999999
 30
25.0
  0
SEQEND
  5
4E0
  8
CLUSTERS
  0
POLYLINE
  5
52
  8
CLUSTERS
 66
     1
 10
0.0
 20
0.0
 30
25.0
 70
   129
  0
VERTEX
  5
4E1
  8
CLUSTERS
 10
630.454458456
 20
4680.0477326999999
 30
25.0
  0
VERTEX
  5
4E2
  8
CLUSTERS
 10
630.46241985300003
 20
4680.1479713600002
 30
25.0
  0
VERTEX
  5
4E3
  8
CLUSTERS
 10
630.51198257099998
 20
4680.1981351799977
 30
25.0
  0
VERTEX
  5
4E4
  8
CLUSTERS
 10
630.61220043599985
 20
4680.22440259
 30
25.0
  0
VERTEX
  5
4E5
  8
CLUSTERS
 10
630.69887427000003
 20
4680.1479713600002
 30
25.0
  0
VERTEX
  5
4E6
  8
CLUSTERS
 10
630.71241830099984
 20
4680.1216049100003
 30
25.0
  0
VERTEX
  5
4E7
  8
CLUSTERS
 10
630.77619113399999
 20
4680.0477326999999
 30
25.0
  0
VERTEX
  5
4E8
  8
CLUSTERS
 10
630.71241830099984
 20
4679.9890772500012
 30
25.0
  0
VERTEX
  5
4E9
  8
CLUSTERS
 10
630.61220043599985
 20
4679.9787486599989
 30
25.0
  0
VERTEX
  5
4EA
  8
CLUSTERS
 10
630.51198257099998
 20
4679.9724553499991
 30
25.0
  0
VERTEX
  5
4EB
  8
CLUSTERS
 10
630.454458456
 20
4680.0477326999999
 30
25.0
  0
SEQEND
  5
4EC
  8
CLUSTERS
  0
POLYLINE
  5
53
  8
CLUSTERS
 66
     1
 10
0.0
 20
0.0
 30
25.0
 70
   129
  0
VERTEX
  5
4ED
  8
CLUSTERS
 10
629.64122919699992
 20
4680.0477326999999
 30
25.0
  0
VERTEX
  5
4EE
  8
CLUSTERS
 10
629.62200008499985
 20
4680.1479713600002
 30
25.0
  0
VERTEX
  5
4EF
  8
CLUSTERS
 10
629.71023965099994
 20
4680.2325875500001
 30
25.0
  0
VERTEX
  5
4F0
  8
CLUSTERS
 10
629.81045751599993
 20
4680.2087687599997
 30
25.0
  0
VERTEX
  5
4F1
  8
CLUSTERS
 10
629.91067538100003
 20
4680.1819209599989
 30
25.0
  0
VERTEX
  5
4F2
  8
CLUSTERS
 10
630.01089324600002
 20
4680.2232925999997
 30
25.0
  0
VERTEX
  5
4F3
  8
CLUSTERS
 10
630.09833225699992
 20
4680.1479713600002
 30
25.0
  0
VERTEX
  5
4F4
  8
CLUSTERS
 10
630.01089324600002
 20
4680.0726424199993
 30
25.0
  0
VERTEX
  5
4F5
  8
CLUSTERS
 10
629.91067538100003
 20
4680.108366999998
 30
25.0
  0
VERTEX
  5
4F6
  8
CLUSTERS
 10
629.86171497299995
 20
4680.0477326999999
 30
25.0
  0
VERTEX
  5
4F7
  8
CLUSTERS
 10
629.81045751599993
 20
4680.0025121600002
 30
25.0
  0
VERTEX
  5
4F8
  8
CLUSTERS
 10
629.71023965099994
 20
4679.9785669000003
 30
25.0
  0
VERTEX
  5
4F9
  8
CLUSTERS
 10
629.64122919699992
 20
4680.0477326999999
 30
25.0
  0
SEQEND
  5
4FA
  8
CLUSTERS
  0
POLYLINE
  5
54
  8
CLUSTERS
 66
     1
 10
0.0
 20
0.0
 30
25.0
 70
   129
  0
VERTEX
  5
4FB
  8
CLUSTERS
 10
627.86819976300001
 20
4680.0477326999999
 30
25.0
  0
VERTEX
  5
4FC
  8
CLUSTERS
 10
627.8089659599998
 20
4680.1479713600002
 30
25.0
  0
VERTEX
  5
4FD
  8
CLUSTERS
 10
627.80610021799998
 20
4680.1588479100001
 30
25.0
  0
VERTEX
  5
4FE
  8
CLUSTERS
 10
627.78774939300001
 20
4680.2482100200023
 30
25.0
  0
VERTEX
  5
4FF
  8
CLUSTERS
 10
627.80610021799998
 20
4680.2667173899999
 30
25.0
  0
VERTEX
  5
500
  8
CLUSTERS
 10
627.84031538199997
 20
4680.2482100200023
 30
25.0
  0
VERTEX
  5
501
  8
CLUSTERS
 10
627.90631808299975
 20
4680.2163213900003
 30
25.0
  0
VERTEX
  5
502
  8
CLUSTERS
 10
628.00653594799996
 20
4680.1967062800022
 30
25.0
  0
VERTEX
  5
503
  8
CLUSTERS
 10
628.06713217299978
 20
4680.1479713600002
 30
25.0
  0
VERTEX
  5
504
  8
CLUSTERS
 10
628.00653594799996
 20
4680.0716450299988
 30
25.0
  0
VERTEX
  5
505
  8
CLUSTERS
 10
627.96764673899975
 20
4680.0477326999999
 30
25.0
  0
VERTEX
  5
506
  8
CLUSTERS
 10
627.90631808299975
 20
4680.0173652900012
 30
25.0
  0
VERTEX
  5
507
  8
CLUSTERS
 10
627.86819976300001
 20
4680.0477326999999
 30
25.0
  0
SEQEND
  5
508
  8
CLUSTERS
  0
POLYLINE
  5
55
  8
CLUSTERS
 66
     1
 10
0.0
 20
0.0
 30
25.0
 70
   129
  0
VERTEX
  5
509
  8
CLUSTERS
 10
639.95751129400003
 20
4678.4439140799977
 30
25.0
  0
VERTEX
  5
50A
  8
CLUSTERS
 10
639.933826727
 20
4678.544152739998
 30
25.0
  0
VERTEX
  5
50B
  8
CLUSTERS
 10
640.03267973899995
 20
4678.6364724100004
 30
25.0
  0
VERTEX
  5
50C
  8
CLUSTERS
 10
640.04935791299988
 20
4678.6443914099991
 30
25.0
  0
VERTEX
  5
50D
  8
CLUSTERS
 10
640.13289760300006
 20
4678.7277979199989
 30
25.0
  0
VERTEX
  5
50E
  8
CLUSTERS
 10
640.17815215099995
 20
4678.7446300700003
 30
25.0
  0
VERTEX
  5
50F
  8
CLUSTERS
 10
640.23311546800005
 20
4678.7994138200011
 30
25.0
  0
VERTEX
  5
510
  8
CLUSTERS
 10
640.32486777400004
 20
4678.7446300700003
 30
25.0
  0
VERTEX
  5
511
  8
CLUSTERS
 10
640.33333333300004
 20
4678.7424499999979
 30
25.0
  0
VERTEX
  5
512
  8
CLUSTERS
 10
640.41697189000001
 20
4678.6443914099991
 30
25.0
  0
VERTEX
  5
513
  8
CLUSTERS
 10
640.33333333300004
 20
4678.5607702500001
 30
25.0
  0
VERTEX
  5
514
  8
CLUSTERS
 10
640.23311546800005
 20
4678.54637095
 30
25.0
  0
VERTEX
  5
515
  8
CLUSTERS
 10
640.22989820500004
 20
4678.544152739998
 30
25.0
  0
VERTEX
  5
516
  8
CLUSTERS
 10
640.14761547399996
 20
4678.4439140799977
 30
25.0
  0
VERTEX
  5
517
  8
CLUSTERS
 10
640.13289760300006
 20
4678.4292391600002
 30
25.0
  0
VERTEX
  5
518
  8
CLUSTERS
 10
640.03267973899995
 20
4678.3687521600004
 30
25.0
  0
VERTEX
  5
519
  8
CLUSTERS
 10
639.95751129400003
 20
4678.4439140799977
 30
25.0
  0
SEQEND
  5
51A
  8
CLUSTERS
  0
POLYLINE
  5
56
  8
CLUSTERS
 66
     1
 10
0.0
 20
0.0
 30
25.0
 70
   129
  0
VERTEX
  5
51B
  8
CLUSTERS
 10
637.24491481199993
 20
4678.24343675
 30
25.0
  0
VERTEX
  5
51C
  8
CLUSTERS
 10
637.23660777199984
 20
4678.3436754200002
 30
25.0
  0
VERTEX
  5
51D
  8
CLUSTERS
 10
637.22657952099985
 20
4678.3524931600014
 30
25.0
  0
VERTEX
  5
51E
  8
CLUSTERS
 10
637.12636165599997
 20
4678.3533934799998
 30
25.0
  0
VERTEX
  5
51F
  8
CLUSTERS
 10
637.02614379099987
 20
4678.3539231499999
 30
25.0
  0
VERTEX
  5
520
  8
CLUSTERS
 10
636.92592592599976
 20
4678.4264034999978
 30
25.0
  0
VERTEX
  5
521
  8
CLUSTERS
 10
636.90846950399975
 20
4678.4439140799977
 30
25.0
  0
VERTEX
  5
522
  8
CLUSTERS
 10
636.85402703300008
 20
4678.544152739998
 30
25.0
  0
VERTEX
  5
523
  8
CLUSTERS
 10
636.84628338499977
 20
4678.6443914099991
 30
25.0
  0
VERTEX
  5
524
  8
CLUSTERS
 10
636.92592592599976
 20
4678.7157679299989
 30
25.0
  0
VERTEX
  5
525
  8
CLUSTERS
 10
637.02614379099987
 20
4678.715484469999
 30
25.0
  0
VERTEX
  5
526
  8
CLUSTERS
 10
637.12636165599997
 20
4678.7374568200003
 30
25.0
  0
VERTEX
  5
527
  8
CLUSTERS
 10
637.22657952099985
 20
4678.7420111600004
 30
25.0
  0
VERTEX
  5
528
  8
CLUSTERS
 10
637.32679738599995
 20
4678.739705259999
 30
25.0
  0
VERTEX
  5
529
  8
CLUSTERS
 10
637.42701525099994
 20
4678.6661919600001
 30
25.0
  0
VERTEX
  5
52A
  8
CLUSTERS
 10
637.44902008300005
 20
4678.6443914099991
 30
25.0
  0
VERTEX
  5
52B
  8
CLUSTERS
 10
637.52415556699975
 20
4678.544152739998
 30
25.0
  0
VERTEX
  5
52C
  8
CLUSTERS
 10
637.42701525099994
 20
4678.447099009999
 30
25.0
  0
VERTEX
  5
52D
  8
CLUSTERS
 10
637.41194099899985
 20
4678.4439140799977
 30
25.0
  0
VERTEX
  5
52E
  8
CLUSTERS
 10
637.42701525099994
 20
4678.4327238599999
 30
25.0
  0
VERTEX
  5
52F
  8
CLUSTERS
 10
637.52723311499983
 20
4678.3857529599991
 30
25.0
  0
VERTEX
  5
530
  8
CLUSTERS
 10
637.55513672899986
 20
4678.4439140799977
 30
25.0
  0
VERTEX
  5
531
  8
CLUSTERS
 10
637.62745098000005
 20
4678.51561459
 30
25.0
  0
VERTEX
  5
532
  8
CLUSTERS
 10
637.72766884500004
 20
4678.5391983899999
 30
25.0
  0
VERTEX
  5
533
  8
CLUSTERS
 10
637.82788671000003
 20
4678.54157442
 30
25.0
  0
VERTEX
  5
534
  8
CLUSTERS
 10
637.92810457499979
 20
4678.5417122199988
 30
25.0
  0
VERTEX
  5
535
  8
CLUSTERS
 10
638.02832244000001
 20
4678.53429383
 30
25.0
  0
VERTEX
  5
536
  8
CLUSTERS
 10
638.11790267499987
 20
4678.4439140799977
 30
25.0
  0
VERTEX
  5
537
  8
CLUSTERS
 10
638.128540305
 20
4678.39272824
 30
25.0
  0
VERTEX
  5
538
  8
CLUSTERS
 10
638.17162261199996
 20
4678.3436754200002
 30
25.0
  0
VERTEX
  5
539
  8
CLUSTERS
 10
638.128540305
 20
4678.3006140500001
 30
25.0
  0
VERTEX
  5
53A
  8
CLUSTERS
 10
638.02832244000001
 20
4678.2599205400002
 30
25.0
  0
VERTEX
  5
53B
  8
CLUSTERS
 10
637.92810457499979
 20
4678.2508794100013
 30
25.0
  0
VERTEX
  5
53C
  8
CLUSTERS
 10
637.82788671000003
 20
4678.24510388
 30
25.0
  0
VERTEX
  5
53D
  8
CLUSTERS
 10
637.72766884500004
 20
4678.2456842800002
 30
25.0
  0
VERTEX
  5
53E
  8
CLUSTERS
 10
637.62745098000005
 20
4678.2804897799988
 30
25.0
  0
VERTEX
  5
53F
  8
CLUSTERS
 10
637.58691378000003
 20
4678.24343675
 30
25.0
  0
VERTEX
  5
540
  8
CLUSTERS
 10
637.52723311499983
 20
4678.1845820099998
 30
25.0
  0
VERTEX
  5
541
  8
CLUSTERS
 10
637.42701525099994
 20
4678.1589124900001
 30
25.0
  0
VERTEX
  5
542
  8
CLUSTERS
 10
637.32679738599995
 20
4678.1615758300004
 30
25.0
  0
VERTEX
  5
543
  8
CLUSTERS
 10
637.24491481199993
 20
4678.24343675
 30
25.0
  0
SEQEND
  5
544
  8
CLUSTERS
  0
POLYLINE
  5
57
  8
CLUSTERS
 66
     1
 10
0.0
 20
0.0
 30
25.0
 70
   129
  0
VERTEX
  5
545
  8
CLUSTERS
 10
636.02515350600004
 20
4678.1431980899988
 30
25.0
  0
VERTEX
  5
546
  8
CLUSTERS
 10
636.02396514199984
 20
4678.1476664600013
 30
25.0
  0
VERTEX
  5
547
  8
CLUSTERS
 10
635.92374727699985
 20
4678.187682589999
 30
25.0
  0
VERTEX
  5
548
  8
CLUSTERS
 10
635.86848377800004
 20
4678.24343675
 30
25.0
  0
VERTEX
  5
549
  8
CLUSTERS
 10
635.83611202099985
 20
4678.3436754200002
 30
25.0
  0
VERTEX
  5
54A
  8
CLUSTERS
 10
635.843387409
 20
4678.4439140799977
 30
25.0
  0
VERTEX
  5
54B
  8
CLUSTERS
 10
635.92374727699985
 20
4678.52517025
 30
25.0
  0
VERTEX
  5
54C
  8
CLUSTERS
 10
635.94891980900002
 20
4678.544152739998
 30
25.0
  0
VERTEX
  5
54D
  8
CLUSTERS
 10
635.92856523800003
 20
4678.6443914099991
 30
25.0
  0
VERTEX
  5
54E
  8
CLUSTERS
 10
635.92374727699985
 20
4678.6451401000013
 30
25.0
  0
VERTEX
  5
54F
  8
CLUSTERS
 10
635.92165332399975
 20
4678.6443914099991
 30
25.0
  0
VERTEX
  5
550
  8
CLUSTERS
 10
635.82352941199986
 20
4678.5665796000003
 30
25.0
  0
VERTEX
  5
551
  8
CLUSTERS
 10
635.74526443299999
 20
4678.6443914099991
 30
25.0
  0
VERTEX
  5
552
  8
CLUSTERS
 10
635.76508434499999
 20
4678.7446300700003
 30
25.0
  0
VERTEX
  5
553
  8
CLUSTERS
 10
635.75291434699977
 20
4678.8448687399978
 30
25.0
  0
VERTEX
  5
554
  8
CLUSTERS
 10
635.82352941199986
 20
4678.9203171400013
 30
25.0
  0
VERTEX
  5
555
  8
CLUSTERS
 10
635.83993078499998
 20
4678.945107399999
 30
25.0
  0
VERTEX
  5
556
  8
CLUSTERS
 10
635.92374727699985
 20
4679.0262138600001
 30
25.0
  0
VERTEX
  5
557
  8
CLUSTERS
 10
635.98980514699997
 20
4679.0453460600002
 30
25.0
  0
VERTEX
  5
558
  8
CLUSTERS
 10
636.02396514199984
 20
4679.0780119399979
 30
25.0
  0
VERTEX
  5
559
  8
CLUSTERS
 10
636.12418300699994
 20
4679.109904779998
 30
25.0
  0
VERTEX
  5
55A
  8
CLUSTERS
 10
636.22440087099994
 20
4679.06228749
 30
25.0
  0
VERTEX
  5
55B
  8
CLUSTERS
 10
636.32461873599993
 20
4679.0618423799997
 30
25.0
  0
VERTEX
  5
55C
  8
CLUSTERS
 10
636.34009639300007
 20
4679.1455847300003
 30
25.0
  0
VERTEX
  5
55D
  8
CLUSTERS
 10
636.42483660100004
 20
4679.2207943599988
 30
25.0
  0
VERTEX
  5
55E
  8
CLUSTERS
 10
636.52505446600003
 20
4679.2216623299992
 30
25.0
  0
VERTEX
  5
55F
  8
CLUSTERS
 10
636.62527233100002
 20
4679.2184706400003
 30
25.0
  0
VERTEX
  5
560
  8
CLUSTERS
 10
636.7254901959999
 20
4679.1999327299991
 30
25.0
  0
VERTEX
  5
561
  8
CLUSTERS
 10
636.825708061
 20
4679.1501732300003
 30
25.0
  0
VERTEX
  5
562
  8
CLUSTERS
 10
636.83032913599993
 20
4679.1455847300003
 30
25.0
  0
VERTEX
  5
563
  8
CLUSTERS
 10
636.86441356399985
 20
4679.0453460600002
 30
25.0
  0
VERTEX
  5
564
  8
CLUSTERS
 10
636.92592592599976
 20
4678.9789831600001
 30
25.0
  0
VERTEX
  5
565
  8
CLUSTERS
 10
636.94626618099994
 20
4678.945107399999
 30
25.0
  0
VERTEX
  5
566
  8
CLUSTERS
 10
636.92592592599976
 20
4678.9136747700004
 30
25.0
  0
VERTEX
  5
567
  8
CLUSTERS
 10
636.90228295300005
 20
4678.945107399999
 30
25.0
  0
VERTEX
  5
568
  8
CLUSTERS
 10
636.825708061
 20
4679.0177128400001
 30
25.0
  0
VERTEX
  5
569
  8
CLUSTERS
 10
636.7254901959999
 20
4679.03692787
 30
25.0
  0
VERTEX
  5
56A
  8
CLUSTERS
 10
636.69983123500003
 20
4678.945107399999
 30
25.0
  0
VERTEX
  5
56B
  8
CLUSTERS
 10
636.62527233100002
 20
4678.8600144599977
 30
25.0
  0
VERTEX
  5
56C
  8
CLUSTERS
 10
636.52505446600003
 20
4678.8534148500003
 30
25.0
  0
VERTEX
  5
56D
  8
CLUSTERS
 10
636.42483660100004
 20
4678.8674166199999
 30
25.0
  0
VERTEX
  5
56E
  8
CLUSTERS
 10
636.35685926999997
 20
4678.8448687399978
 30
25.0
  0
VERTEX
  5
56F
  8
CLUSTERS
 10
636.34349680900004
 20
4678.7446300700003
 30
25.0
  0
VERTEX
  5
570
  8
CLUSTERS
 10
636.42483660100004
 20
4678.704848909998
 30
25.0
  0
VERTEX
  5
571
  8
CLUSTERS
 10
636.47813951499984
 20
4678.6443914099991
 30
25.0
  0
VERTEX
  5
572
  8
CLUSTERS
 10
636.42483660100004
 20
4678.5786995300004
 30
25.0
  0
VERTEX
  5
573
  8
CLUSTERS
 10
636.41052791899995
 20
4678.544152739998
 30
25.0
  0
VERTEX
  5
574
  8
CLUSTERS
 10
636.32461873599993
 20
4678.4541668900001
 30
25.0
  0
VERTEX
  5
575
  8
CLUSTERS
 10
636.31992852099995
 20
4678.4439140799977
 30
25.0
  0
VERTEX
  5
576
  8
CLUSTERS
 10
636.32461873599993
 20
4678.4429961599999
 30
25.0
  0
VERTEX
  5
577
  8
CLUSTERS
 10
636.42468051100002
 20
4678.3436754200002
 30
25.0
  0
VERTEX
  5
578
  8
CLUSTERS
 10
636.42483660100004
 20
4678.33714814
 30
25.0
  0
VERTEX
  5
579
  8
CLUSTERS
 10
636.47610870499977
 20
4678.24343675
 30
25.0
  0
VERTEX
  5
57A
  8
CLUSTERS
 10
636.42839883900001
 20
4678.1431980899988
 30
25.0
  0
VERTEX
  5
57B
  8
CLUSTERS
 10
636.42483660100004
 20
4678.1393494100002
 30
25.0
  0
VERTEX
  5
57C
  8
CLUSTERS
 10
636.32461873599993
 20
4678.0441096499999
 30
25.0
  0
VERTEX
  5
57D
  8
CLUSTERS
 10
636.22440087099994
 20
4678.0436346099978
 30
25.0
  0
VERTEX
  5
57E
  8
CLUSTERS
 10
636.12418300699994
 20
4678.04543672
 30
25.0
  0
VERTEX
  5
57F
  8
CLUSTERS
 10
636.02515350600004
 20
4678.1431980899988
 30
25.0
  0
SEQEND
  5
580
  8
CLUSTERS
  0
POLYLINE
  5
58
  8
CLUSTERS
 66
     1
 10
0.0
 20
0.0
 30
25.0
 70
   129
  0
VERTEX
  5
581
  8
CLUSTERS
 10
643.86675774100001
 20
4676.3389021499988
 30
25.0
  0
VERTEX
  5
582
  8
CLUSTERS
 10
643.88228068599994
 20
4676.43914081
 30
25.0
  0
VERTEX
  5
583
  8
CLUSTERS
 10
643.84412228099995
 20
4676.5393794700003
 30
25.0
  0
VERTEX
  5
584
  8
CLUSTERS
 10
643.84479151800008
 20
4676.6396181399996
 30
25.0
  0
VERTEX
  5
585
  8
CLUSTERS
 10
643.94117647099995
 20
4676.7388597299996
 30
25.0
  0
VERTEX
  5
586
  8
CLUSTERS
 10
643.94657802099994
 20
4676.7398568000008
 30
25.0
  0
VERTEX
  5
587
  8
CLUSTERS
 10
644.04139433599994
 20
4676.8296308600002
 30
25.0
  0
VERTEX
  5
588
  8
CLUSTERS
 10
644.14161220000005
 20
4676.8367917300002
 30
25.0
  0
VERTEX
  5
589
  8
CLUSTERS
 10
644.23590998500003
 20
4676.7398568000008
 30
25.0
  0
VERTEX
  5
58A
  8
CLUSTERS
 10
644.24098342399998
 20
4676.6396181399996
 30
25.0
  0
VERTEX
  5
58B
  8
CLUSTERS
 10
644.24065715899985
 20
4676.5393794700003
 30
25.0
  0
VERTEX
  5
58C
  8
CLUSTERS
 10
644.14161220000005
 20
4676.4403317000024
 30
25.0
  0
VERTEX
  5
58D
  8
CLUSTERS
 10
644.11134589000005
 20
4676.43914081
 30
25.0
  0
VERTEX
  5
58E
  8
CLUSTERS
 10
644.10743549099993
 20
4676.3389021499988
 30
25.0
  0
VERTEX
  5
58F
  8
CLUSTERS
 10
644.04139433599994
 20
4676.2729237399999
 30
25.0
  0
VERTEX
  5
590
  8
CLUSTERS
 10
643.94117647099995
 20
4676.2644777799997
 30
25.0
  0
VERTEX
  5
591
  8
CLUSTERS
 10
643.86675774100001
 20
4676.3389021499988
 30
25.0
  0
SEQEND
  5
592
  8
CLUSTERS
  0
POLYLINE
  5
59
  8
CLUSTERS
 66
     1
 10
0.0
 20
0.0
 30
25.0
 70
   129
  0
VERTEX
  5
593
  8
CLUSTERS
 10
634.89362734300005
 20
4676.0381861599999
 30
25.0
  0
VERTEX
  5
594
  8
CLUSTERS
 10
634.82135076300005
 20
4676.0409806499993
 30
25.0
  0
VERTEX
  5
595
  8
CLUSTERS
 10
634.72113289800006
 20
4676.0418289400004
 30
25.0
  0
VERTEX
  5
596
  8
CLUSTERS
 10
634.62463558199988
 20
4676.1384248200002
 30
25.0
  0
VERTEX
  5
597
  8
CLUSTERS
 10
634.62212452799997
 20
4676.2386634799977
 30
25.0
  0
VERTEX
  5
598
  8
CLUSTERS
 10
634.62233079099985
 20
4676.3389021499988
 30
25.0
  0
VERTEX
  5
599
  8
CLUSTERS
 10
634.62765627999988
 20
4676.43914081
 30
25.0
  0
VERTEX
  5
59A
  8
CLUSTERS
 10
634.72113289800006
 20
4676.5330308800003
 30
25.0
  0
VERTEX
  5
59B
  8
CLUSTERS
 10
634.82135076300005
 20
4676.5316560800002
 30
25.0
  0
VERTEX
  5
59C
  8
CLUSTERS
 10
634.91739211699985
 20
4676.43914081
 30
25.0
  0
VERTEX
  5
59D
  8
CLUSTERS
 10
634.92156862699994
 20
4676.4078625700004
 30
25.0
  0
VERTEX
  5
59E
  8
CLUSTERS
 10
634.97193122500005
 20
4676.3389021499988
 30
25.0
  0
VERTEX
  5
59F
  8
CLUSTERS
 10
635.02178649199993
 20
4676.2550551599998
 30
25.0
  0
VERTEX
  5
5A0
  8
CLUSTERS
 10
635.03741445599985
 20
4676.2386634799977
 30
25.0
  0
VERTEX
  5
5A1
  8
CLUSTERS
 10
635.10214413300002
 20
4676.1384248200002
 30
25.0
  0
VERTEX
  5
5A2
  8
CLUSTERS
 10
635.02178649199993
 20
4676.0470196799997
 30
25.0
  0
VERTEX
  5
5A3
  8
CLUSTERS
 10
634.96778568299976
 20
4676.0381861599999
 30
25.0
  0
VERTEX
  5
5A4
  8
CLUSTERS
 10
634.92156862699994
 20
4676.0153798000001
 30
25.0
  0
VERTEX
  5
5A5
  8
CLUSTERS
 10
634.89362734300005
 20
4676.0381861599999
 30
25.0
  0
SEQEND
  5
5A6
  8
CLUSTERS
  0
POLYLINE
  5
5A
  8
CLUSTERS
 66
     1
 10
0.0
 20
0.0
 30
25.0
 70
   129
  0
VERTEX
  5
5A7
  8
CLUSTERS
 10
633.92548311300004
 20
4675.2362768499988
 30
25.0
  0
VERTEX
  5
5A8
  8
CLUSTERS
 10
633.91938997800003
 20
4675.2413639499991
 30
25.0
  0
VERTEX
  5
5A9
  8
CLUSTERS
 10
633.82322161399975
 20
4675.3365155099991
 30
25.0
  0
VERTEX
  5
5AA
  8
CLUSTERS
 10
633.81917211300004
 20
4675.3385625299998
 30
25.0
  0
VERTEX
  5
5AB
  8
CLUSTERS
 10
633.71895424800005
 20
4675.3473702399988
 30
25.0
  0
VERTEX
  5
5AC
  8
CLUSTERS
 10
633.62683616200002
 20
4675.4367541800002
 30
25.0
  0
VERTEX
  5
5AD
  8
CLUSTERS
 10
633.61873638300005
 20
4675.4387444599997
 30
25.0
  0
VERTEX
  5
5AE
  8
CLUSTERS
 10
633.52102369599993
 20
4675.5369928399978
 30
25.0
  0
VERTEX
  5
5AF
  8
CLUSTERS
 10
633.51851851900005
 20
4675.5793225400002
 30
25.0
  0
VERTEX
  5
5B0
  8
CLUSTERS
 10
633.46594921600001
 20
4675.6372314999999
 30
25.0
  0
VERTEX
  5
5B1
  8
CLUSTERS
 10
633.41830065399995
 20
4675.6721150599997
 30
25.0
  0
VERTEX
  5
5B2
  8
CLUSTERS
 10
633.35398649900003
 20
4675.7374701700001
 30
25.0
  0
VERTEX
  5
5B3
  8
CLUSTERS
 10
633.33619997300002
 20
4675.8377088300003
 30
25.0
  0
VERTEX
  5
5B4
  8
CLUSTERS
 10
633.31808278899985
 20
4675.8523398799998
 30
25.0
  0
VERTEX
  5
5B5
  8
CLUSTERS
 10
633.23318338800004
 20
4675.9379474899997
 30
25.0
  0
VERTEX
  5
5B6
  8
CLUSTERS
 10
633.21786492399985
 20
4675.9775471200001
 30
25.0
  0
VERTEX
  5
5B7
  8
CLUSTERS
 10
633.15951748700002
 20
4676.0381861599999
 30
25.0
  0
VERTEX
  5
5B8
  8
CLUSTERS
 10
633.13880524299998
 20
4676.1384248200002
 30
25.0
  0
VERTEX
  5
5B9
  8
CLUSTERS
 10
633.18292116099985
 20
4676.2386634799977
 30
25.0
  0
VERTEX
  5
5BA
  8
CLUSTERS
 10
633.21786492399985
 20
4676.2740437599987
 30
25.0
  0
VERTEX
  5
5BB
  8
CLUSTERS
 10
633.31808278899985
 20
4676.28102373
 30
25.0
  0
VERTEX
  5
5BC
  8
CLUSTERS
 10
633.37739270899999
 20
4676.2386634799977
 30
25.0
  0
VERTEX
  5
5BD
  8
CLUSTERS
 10
633.41830065399995
 20
4676.2348536000009
 30
25.0
  0
VERTEX
  5
5BE
  8
CLUSTERS
 10
633.51851851900005
 20
4676.1916131799999
 30
25.0
  0
VERTEX
  5
5BF
  8
CLUSTERS
 10
633.51935180700002
 20
4676.2386634799977
 30
25.0
  0
VERTEX
  5
5C0
  8
CLUSTERS
 10
633.52156880799987
 20
4676.3389021499988
 30
25.0
  0
VERTEX
  5
5C1
  8
CLUSTERS
 10
633.61873638300005
 20
4676.4371580500001
 30
25.0
  0
VERTEX
  5
5C2
  8
CLUSTERS
 10
633.68470440899978
 20
4676.43914081
 30
25.0
  0
VERTEX
  5
5C3
  8
CLUSTERS
 10
633.71895424800005
 20
4676.4597892399988
 30
25.0
  0
VERTEX
  5
5C4
  8
CLUSTERS
 10
633.76359526399995
 20
4676.43914081
 30
25.0
  0
VERTEX
  5
5C5
  8
CLUSTERS
 10
633.81917211300004
 20
4676.4371119799989
 30
25.0
  0
VERTEX
  5
5C6
  8
CLUSTERS
 10
633.91742174499996
 20
4676.3389021499988
 30
25.0
  0
VERTEX
  5
5C7
  8
CLUSTERS
 10
633.90598739099994
 20
4676.2386634799977
 30
25.0
  0
VERTEX
  5
5C8
  8
CLUSTERS
 10
633.90560657799995
 20
4676.1384248200002
 30
25.0
  0
VERTEX
  5
5C9
  8
CLUSTERS
 10
633.90373804199976
 20
4676.0381861599999
 30
25.0
  0
VERTEX
  5
5CA
  8
CLUSTERS
 10
633.81917211300004
 20
4675.9499902899988
 30
25.0
  0
VERTEX
  5
5CB
  8
CLUSTERS
 10
633.80602510599988
 20
4675.9379474899997
 30
25.0
  0
VERTEX
  5
5CC
  8
CLUSTERS
 10
633.81917211300004
 20
4675.8389971500001
 30
25.0
  0
VERTEX
  5
5CD
  8
CLUSTERS
 10
633.82008195799995
 20
4675.8377088300003
 30
25.0
  0
VERTEX
  5
5CE
  8
CLUSTERS
 10
633.91938997800003
 20
4675.7804956600003
 30
25.0
  0
VERTEX
  5
5CF
  8
CLUSTERS
 10
633.96819570699995
 20
4675.7374701700001
 30
25.0
  0
VERTEX
  5
5D0
  8
CLUSTERS
 10
634.0196078429999
 20
4675.7155175300004
 30
25.0
  0
VERTEX
  5
5D1
  8
CLUSTERS
 10
634.099174941
 20
4675.6372314999999
 30
25.0
  0
VERTEX
  5
5D2
  8
CLUSTERS
 10
634.11982570800001
 20
4675.6042753499987
 30
25.0
  0
VERTEX
  5
5D3
  8
CLUSTERS
 10
634.22004357299977
 20
4675.5740580299998
 30
25.0
  0
VERTEX
  5
5D4
  8
CLUSTERS
 10
634.29083599499995
 20
4675.5369928399978
 30
25.0
  0
VERTEX
  5
5D5
  8
CLUSTERS
 10
634.32026143799987
 20
4675.5358120600004
 30
25.0
  0
VERTEX
  5
5D6
  8
CLUSTERS
 10
634.41943216799996
 20
4675.4367541800002
 30
25.0
  0
VERTEX
  5
5D7
  8
CLUSTERS
 10
634.41759352199995
 20
4675.3365155099991
 30
25.0
  0
VERTEX
  5
5D8
  8
CLUSTERS
 10
634.32026143799987
 20
4675.24161757
 30
25.0
  0
VERTEX
  5
5D9
  8
CLUSTERS
 10
634.22004357299977
 20
4675.2371040600001
 30
25.0
  0
VERTEX
  5
5DA
  8
CLUSTERS
 10
634.19402816499985
 20
4675.2362768499988
 30
25.0
  0
VERTEX
  5
5DB
  8
CLUSTERS
 10
634.11982570800001
 20
4675.18187098
 30
25.0
  0
VERTEX
  5
5DC
  8
CLUSTERS
 10
634.0196078429999
 20
4675.1434166400004
 30
25.0
  0
VERTEX
  5
5DD
  8
CLUSTERS
 10
633.92548311300004
 20
4675.2362768499988
 30
25.0
  0
SEQEND
  5
5DE
  8
CLUSTERS
  0
POLYLINE
  5
5B
  8
CLUSTERS
 66
     1
 10
0.0
 20
0.0
 30
25.0
 70
   129
  0
VERTEX
  5
5DF
  8
CLUSTERS
 10
630.755659358
 20
4674.8353221999978
 30
25.0
  0
VERTEX
  5
5E0
  8
CLUSTERS
 10
630.71727195099993
 20
4674.9355608599981
 30
25.0
  0
VERTEX
  5
5E1
  8
CLUSTERS
 10
630.71822841000005
 20
4675.0357995200002
 30
25.0
  0
VERTEX
  5
5E2
  8
CLUSTERS
 10
630.81263616599995
 20
4675.1331625599987
 30
25.0
  0
VERTEX
  5
5E3
  8
CLUSTERS
 10
630.83931547999998
 20
4675.1360381900004
 30
25.0
  0
VERTEX
  5
5E4
  8
CLUSTERS
 10
630.91285403099994
 20
4675.1928680899991
 30
25.0
  0
VERTEX
  5
5E5
  8
CLUSTERS
 10
631.01307189500005
 20
4675.1965799099989
 30
25.0
  0
VERTEX
  5
5E6
  8
CLUSTERS
 10
631.0795689229999
 20
4675.1360381900004
 30
25.0
  0
VERTEX
  5
5E7
  8
CLUSTERS
 10
631.11328976000004
 20
4675.10444465
 30
25.0
  0
VERTEX
  5
5E8
  8
CLUSTERS
 10
631.17257836600004
 20
4675.0357995200002
 30
25.0
  0
VERTEX
  5
5E9
  8
CLUSTERS
 10
631.11328976000004
 20
4674.9726332700002
 30
25.0
  0
VERTEX
  5
5EA
  8
CLUSTERS
 10
631.09706776999985
 20
4674.9355608599981
 30
25.0
  0
VERTEX
  5
5EB
  8
CLUSTERS
 10
631.07892032400002
 20
4674.8353221999978
 30
25.0
  0
VERTEX
  5
5EC
  8
CLUSTERS
 10
631.01307189500005
 20
4674.7664220500001
 30
25.0
  0
VERTEX
  5
5ED
  8
CLUSTERS
 10
630.91285403099994
 20
4674.7371778999977
 30
25.0
  0
VERTEX
  5
5EE
  8
CLUSTERS
 10
630.81263616599995
 20
4674.7778816399978
 30
25.0
  0
VERTEX
  5
5EF
  8
CLUSTERS
 10
630.755659358
 20
4674.8353221999978
 30
25.0
  0
SEQEND
  5
5F0
  8
CLUSTERS
  0
POLYLINE
  5
5C
  8
CLUSTERS
 66
     1
 10
0.0
 20
0.0
 30
25.0
 70
   129
  0
VERTEX
  5
5F1
  8
CLUSTERS
 10
639.45037562699974
 20
4674.4343675399987
 30
25.0
  0
VERTEX
  5
5F2
  8
CLUSTERS
 10
639.43137254899989
 20
4674.4481974199998
 30
25.0
  0
VERTEX
  5
5F3
  8
CLUSTERS
 10
639.33115468400001
 20
4674.4920580099997
 30
25.0
  0
VERTEX
  5
5F4
  8
CLUSTERS
 10
639.28854457400007
 20
4674.5346062099989
 30
25.0
  0
VERTEX
  5
5F5
  8
CLUSTERS
 10
639.23093681900002
 20
4674.5905858399992
 30
25.0
  0
VERTEX
  5
5F6
  8
CLUSTERS
 10
639.18660084800001
 20
4674.6348448700001
 30
25.0
  0
VERTEX
  5
5F7
  8
CLUSTERS
 10
639.13712028099985
 20
4674.7350835300003
 30
25.0
  0
VERTEX
  5
5F8
  8
CLUSTERS
 10
639.18865105199995
 20
4674.8353221999978
 30
25.0
  0
VERTEX
  5
5F9
  8
CLUSTERS
 10
639.23093681900002
 20
4674.87710591
 30
25.0
  0
VERTEX
  5
5FA
  8
CLUSTERS
 10
639.27321353499997
 20
4674.8353221999978
 30
25.0
  0
VERTEX
  5
5FB
  8
CLUSTERS
 10
639.33115468400001
 20
4674.7562180799978
 30
25.0
  0
VERTEX
  5
5FC
  8
CLUSTERS
 10
639.35198225299996
 20
4674.7350835300003
 30
25.0
  0
VERTEX
  5
5FD
  8
CLUSTERS
 10
639.38753222499975
 20
4674.6348448700001
 30
25.0
  0
VERTEX
  5
5FE
  8
CLUSTERS
 10
639.43137254899989
 20
4674.6186249099992
 30
25.0
  0
VERTEX
  5
5FF
  8
CLUSTERS
 10
639.53159041399999
 20
4674.5718474900013
 30
25.0
  0
VERTEX
  5
600
  8
CLUSTERS
 10
639.63180827899976
 20
4674.5941911000009
 30
25.0
  0
VERTEX
  5
601
  8
CLUSTERS
 10
639.73202614399986
 20
4674.6002790700004
 30
25.0
  0
VERTEX
  5
602
  8
CLUSTERS
 10
639.79775083899995
 20
4674.5346062099989
 30
25.0
  0
VERTEX
  5
603
  8
CLUSTERS
 10
639.80111739999984
 20
4674.4343675399987
 30
25.0
  0
VERTEX
  5
604
  8
CLUSTERS
 10
639.73202614399986
 20
4674.3655586699988
 30
25.0
  0
VERTEX
  5
605
  8
CLUSTERS
 10
639.63180827899976
 20
4674.3562369900001
 30
25.0
  0
VERTEX
  5
606
  8
CLUSTERS
 10
639.53159041399999
 20
4674.3688301800003
 30
25.0
  0
VERTEX
  5
607
  8
CLUSTERS
 10
639.45037562699974
 20
4674.4343675399987
 30
25.0
  0
SEQEND
  5
608
  8
CLUSTERS
  0
POLYLINE
  5
5D
  8
CLUSTERS
 66
     1
 10
0.0
 20
0.0
 30
25.0
 70
   129
  0
VERTEX
  5
609
  8
CLUSTERS
 10
632.72516226000005
 20
4674.23389021
 30
25.0
  0
VERTEX
  5
60A
  8
CLUSTERS
 10
632.72542582499989
 20
4674.3341288800002
 30
25.0
  0
VERTEX
  5
60B
  8
CLUSTERS
 10
632.75013625500003
 20
4674.4343675399987
 30
25.0
  0
VERTEX
  5
60C
  8
CLUSTERS
 10
632.81699346399989
 20
4674.5022205900004
 30
25.0
  0
VERTEX
  5
60D
  8
CLUSTERS
 10
632.917211329
 20
4674.4611080699997
 30
25.0
  0
VERTEX
  5
60E
  8
CLUSTERS
 10
632.99843338799997
 20
4674.5346062099989
 30
25.0
  0
VERTEX
  5
60F
  8
CLUSTERS
 10
632.917211329
 20
4674.5772052900002
 30
25.0
  0
VERTEX
  5
610
  8
CLUSTERS
 10
632.86191771899985
 20
4674.6348448700001
 30
25.0
  0
VERTEX
  5
611
  8
CLUSTERS
 10
632.917211329
 20
4674.6934093099999
 30
25.0
  0
VERTEX
  5
612
  8
CLUSTERS
 10
633.01742919399976
 20
4674.7293213499997
 30
25.0
  0
VERTEX
  5
613
  8
CLUSTERS
 10
633.11047499599977
 20
4674.6348448700001
 30
25.0
  0
VERTEX
  5
614
  8
CLUSTERS
 10
633.03663992799989
 20
4674.5346062099989
 30
25.0
  0
VERTEX
  5
615
  8
CLUSTERS
 10
633.01742919399976
 20
4674.5147178699999
 30
25.0
  0
VERTEX
  5
616
  8
CLUSTERS
 10
632.94507249900005
 20
4674.4343675399987
 30
25.0
  0
VERTEX
  5
617
  8
CLUSTERS
 10
633.00471351099998
 20
4674.3341288800002
 30
25.0
  0
VERTEX
  5
618
  8
CLUSTERS
 10
633.01357493800003
 20
4674.23389021
 30
25.0
  0
VERTEX
  5
619
  8
CLUSTERS
 10
632.917211329
 20
4674.1432123100003
 30
25.0
  0
VERTEX
  5
61A
  8
CLUSTERS
 10
632.81699346399989
 20
4674.1417598300004
 30
25.0
  0
VERTEX
  5
61B
  8
CLUSTERS
 10
632.72516226000005
 20
4674.23389021
 30
25.0
  0
SEQEND
  5
61C
  8
CLUSTERS
  0
POLYLINE
  5
5E
  8
CLUSTERS
 66
     1
 10
0.0
 20
0.0
 30
25.0
 70
   129
  0
VERTEX
  5
61D
  8
CLUSTERS
 10
630.78571654699977
 20
4673.9331742200002
 30
25.0
  0
VERTEX
  5
61E
  8
CLUSTERS
 10
630.78084666999996
 20
4674.0334128900004
 30
25.0
  0
VERTEX
  5
61F
  8
CLUSTERS
 10
630.81263616599995
 20
4674.0708748299994
 30
25.0
  0
VERTEX
  5
620
  8
CLUSTERS
 10
630.82745978499975
 20
4674.1336515499997
 30
25.0
  0
VERTEX
  5
621
  8
CLUSTERS
 10
630.846187052
 20
4674.23389021
 30
25.0
  0
VERTEX
  5
622
  8
CLUSTERS
 10
630.91285403099994
 20
4674.3025313999997
 30
25.0
  0
VERTEX
  5
623
  8
CLUSTERS
 10
631.01307189500005
 20
4674.3226236999999
 30
25.0
  0
VERTEX
  5
624
  8
CLUSTERS
 10
631.11328976000004
 20
4674.2897633399998
 30
25.0
  0
VERTEX
  5
625
  8
CLUSTERS
 10
631.21350762500003
 20
4674.2930684499988
 30
25.0
  0
VERTEX
  5
626
  8
CLUSTERS
 10
631.31149907899987
 20
4674.23389021
 30
25.0
  0
VERTEX
  5
627
  8
CLUSTERS
 10
631.25142539699993
 20
4674.1336515499997
 30
25.0
  0
VERTEX
  5
628
  8
CLUSTERS
 10
631.3137254899998
 20
4674.1031123100001
 30
25.0
  0
VERTEX
  5
629
  8
CLUSTERS
 10
631.37444938600004
 20
4674.0334128900004
 30
25.0
  0
VERTEX
  5
62A
  8
CLUSTERS
 10
631.3137254899998
 20
4673.9768377500004
 30
25.0
  0
VERTEX
  5
62B
  8
CLUSTERS
 10
631.21350762500003
 20
4673.9492538699997
 30
25.0
  0
VERTEX
  5
62C
  8
CLUSTERS
 10
631.12418102399999
 20
4674.0334128900004
 30
25.0
  0
VERTEX
  5
62D
  8
CLUSTERS
 10
631.11328976000004
 20
4674.0513861500003
 30
25.0
  0
VERTEX
  5
62E
  8
CLUSTERS
 10
631.08454286599999
 20
4674.0334128900004
 30
25.0
  0
VERTEX
  5
62F
  8
CLUSTERS
 10
631.01307189500005
 20
4673.9653210200004
 30
25.0
  0
VERTEX
  5
630
  8
CLUSTERS
 10
630.961440025
 20
4673.9331742200002
 30
25.0
  0
VERTEX
  5
631
  8
CLUSTERS
 10
630.91285403099994
 20
4673.8928858799991
 30
25.0
  0
VERTEX
  5
632
  8
CLUSTERS
 10
630.81263616599995
 20
4673.9061049600004
 30
25.0
  0
VERTEX
  5
633
  8
CLUSTERS
 10
630.78571654699977
 20
4673.9331742200002
 30
25.0
  0
SEQEND
  5
634
  8
CLUSTERS
  0
POLYLINE
  5
5F
  8
CLUSTERS
 66
     1
 10
0.0
 20
0.0
 30
25.0
 70
   129
  0
VERTEX
  5
635
  8
CLUSTERS
 10
630.975583175
 20
4673.0310262499997
 30
25.0
  0
VERTEX
  5
636
  8
CLUSTERS
 10
630.91285403099994
 20
4673.07626858
 30
25.0
  0
VERTEX
  5
637
  8
CLUSTERS
 10
630.86002612200002
 20
4673.1312649199999
 30
25.0
  0
VERTEX
  5
638
  8
CLUSTERS
 10
630.90769230499996
 20
4673.2315035800011
 30
25.0
  0
VERTEX
  5
639
  8
CLUSTERS
 10
630.91285403099994
 20
4673.2368778699993
 30
25.0
  0
VERTEX
  5
63A
  8
CLUSTERS
 10
631.01307189500005
 20
4673.2900800500011
 30
25.0
  0
VERTEX
  5
63B
  8
CLUSTERS
 10
631.11121379799999
 20
4673.2315035800011
 30
25.0
  0
VERTEX
  5
63C
  8
CLUSTERS
 10
631.11328976000004
 20
4673.2311082899987
 30
25.0
  0
VERTEX
  5
63D
  8
CLUSTERS
 10
631.21278671899995
 20
4673.1312649199999
 30
25.0
  0
VERTEX
  5
63E
  8
CLUSTERS
 10
631.21350762500003
 20
4673.1290893599989
 30
25.0
  0
VERTEX
  5
63F
  8
CLUSTERS
 10
631.28472263499975
 20
4673.0310262499997
 30
25.0
  0
VERTEX
  5
640
  8
CLUSTERS
 10
631.21350762500003
 20
4672.9586081400003
 30
25.0
  0
VERTEX
  5
641
  8
CLUSTERS
 10
631.11328976000004
 20
4672.9347922200004
 30
25.0
  0
VERTEX
  5
642
  8
CLUSTERS
 10
631.01307189500005
 20
4672.9941162900004
 30
25.0
  0
VERTEX
  5
643
  8
CLUSTERS
 10
630.975583175
 20
4673.0310262499997
 30
25.0
  0
SEQEND
  5
644
  8
CLUSTERS
  0
POLYLINE
  5
60
  8
CLUSTERS
 66
     1
 10
0.0
 20
0.0
 30
25.0
 70
   129
  0
VERTEX
  5
645
  8
CLUSTERS
 10
635.28898923199995
 20
4672.730310259999
 30
25.0
  0
VERTEX
  5
646
  8
CLUSTERS
 10
635.26081305299999
 20
4672.8305489300001
 30
25.0
  0
VERTEX
  5
647
  8
CLUSTERS
 10
635.32244008700002
 20
4672.9003628700002
 30
25.0
  0
VERTEX
  5
648
  8
CLUSTERS
 10
635.33922530399991
 20
4672.9307875900004
 30
25.0
  0
VERTEX
  5
649
  8
CLUSTERS
 10
635.36504817299988
 20
4673.0310262499997
 30
25.0
  0
VERTEX
  5
64A
  8
CLUSTERS
 10
635.42265795200001
 20
4673.0891704299993
 30
25.0
  0
VERTEX
  5
64B
  8
CLUSTERS
 10
635.49505144399996
 20
4673.0310262499997
 30
25.0
  0
VERTEX
  5
64C
  8
CLUSTERS
 10
635.51232070399999
 20
4672.9307875900004
 30
25.0
  0
VERTEX
  5
64D
  8
CLUSTERS
 10
635.52287581699989
 20
4672.9186026699999
 30
25.0
  0
VERTEX
  5
64E
  8
CLUSTERS
 10
635.61131633399975
 20
4672.8305489300001
 30
25.0
  0
VERTEX
  5
64F
  8
CLUSTERS
 10
635.60830454199993
 20
4672.730310259999
 30
25.0
  0
VERTEX
  5
650
  8
CLUSTERS
 10
635.52287581699989
 20
4672.6639290900002
 30
25.0
  0
VERTEX
  5
651
  8
CLUSTERS
 10
635.42265795200001
 20
4672.6599423999996
 30
25.0
  0
VERTEX
  5
652
  8
CLUSTERS
 10
635.32244008700002
 20
4672.6968733399999
 30
25.0
  0
VERTEX
  5
653
  8
CLUSTERS
 10
635.28898923199995
 20
4672.730310259999
 30
25.0
  0
SEQEND
  5
654
  8
CLUSTERS
  0
POLYLINE
  5
61
  8
CLUSTERS
 66
     1
 10
0.0
 20
0.0
 30
25.0
 70
   129
  0
VERTEX
  5
655
  8
CLUSTERS
 10
634.46852045200001
 20
4672.3293556099989
 30
25.0
  0
VERTEX
  5
656
  8
CLUSTERS
 10
634.42047930299998
 20
4672.3562684299977
 30
25.0
  0
VERTEX
  5
657
  8
CLUSTERS
 10
634.34687721900002
 20
4672.4295942700001
 30
25.0
  0
VERTEX
  5
658
  8
CLUSTERS
 10
634.32137925099994
 20
4672.5298329400002
 30
25.0
  0
VERTEX
  5
659
  8
CLUSTERS
 10
634.32026143799987
 20
4672.53647869
 30
25.0
  0
VERTEX
  5
65A
  8
CLUSTERS
 10
634.31863734699994
 20
4672.5298329400002
 30
25.0
  0
VERTEX
  5
65B
  8
CLUSTERS
 10
634.22004357299977
 20
4672.4355627799978
 30
25.0
  0
VERTEX
  5
65C
  8
CLUSTERS
 10
634.11982570800001
 20
4672.4301814299997
 30
25.0
  0
VERTEX
  5
65D
  8
CLUSTERS
 10
634.09419318000005
 20
4672.4295942700001
 30
25.0
  0
VERTEX
  5
65E
  8
CLUSTERS
 10
634.0196078429999
 20
4672.3822362299979
 30
25.0
  0
VERTEX
  5
65F
  8
CLUSTERS
 10
633.97068545800005
 20
4672.4295942700001
 30
25.0
  0
VERTEX
  5
660
  8
CLUSTERS
 10
633.92055420700001
 20
4672.5298329400002
 30
25.0
  0
VERTEX
  5
661
  8
CLUSTERS
 10
633.93574523500001
 20
4672.6300715999996
 30
25.0
  0
VERTEX
  5
662
  8
CLUSTERS
 10
633.93204340400007
 20
4672.730310259999
 30
25.0
  0
VERTEX
  5
663
  8
CLUSTERS
 10
633.94182889399997
 20
4672.8305489300001
 30
25.0
  0
VERTEX
  5
664
  8
CLUSTERS
 10
634.0196078429999
 20
4672.9177718099991
 30
25.0
  0
VERTEX
  5
665
  8
CLUSTERS
 10
634.04188556600002
 20
4672.9307875900004
 30
25.0
  0
VERTEX
  5
666
  8
CLUSTERS
 10
634.11982570800001
 20
4673.0275334300004
 30
25.0
  0
VERTEX
  5
667
  8
CLUSTERS
 10
634.20048550199976
 20
4673.0310262499997
 30
25.0
  0
VERTEX
  5
668
  8
CLUSTERS
 10
634.12116508899999
 20
4673.1312649199999
 30
25.0
  0
VERTEX
  5
669
  8
CLUSTERS
 10
634.11982570800001
 20
4673.1371896600003
 30
25.0
  0
VERTEX
  5
66A
  8
CLUSTERS
 10
634.09714735699993
 20
4673.1312649199999
 30
25.0
  0
VERTEX
  5
66B
  8
CLUSTERS
 10
634.0196078429999
 20
4673.0696513399989
 30
25.0
  0
VERTEX
  5
66C
  8
CLUSTERS
 10
633.91938997800003
 20
4673.0507013699998
 30
25.0
  0
VERTEX
  5
66D
  8
CLUSTERS
 10
633.83601152899985
 20
4673.1312649199999
 30
25.0
  0
VERTEX
  5
66E
  8
CLUSTERS
 10
633.82551623699999
 20
4673.2315035800011
 30
25.0
  0
VERTEX
  5
66F
  8
CLUSTERS
 10
633.91938997800003
 20
4673.326617419998
 30
25.0
  0
VERTEX
  5
670
  8
CLUSTERS
 10
633.92235239299998
 20
4673.3317422399996
 30
25.0
  0
VERTEX
  5
671
  8
CLUSTERS
 10
633.92101421599978
 20
4673.4319809099998
 30
25.0
  0
VERTEX
  5
672
  8
CLUSTERS
 10
633.92324196899995
 20
4673.5322195700001
 30
25.0
  0
VERTEX
  5
673
  8
CLUSTERS
 10
633.91938997800003
 20
4673.5574401599979
 30
25.0
  0
VERTEX
  5
674
  8
CLUSTERS
 10
633.85545014900003
 20
4673.6324582300012
 30
25.0
  0
VERTEX
  5
675
  8
CLUSTERS
 10
633.91938997800003
 20
4673.7067577099979
 30
25.0
  0
VERTEX
  5
676
  8
CLUSTERS
 10
634.01759295199986
 20
4673.6324582300012
 30
25.0
  0
VERTEX
  5
677
  8
CLUSTERS
 10
634.0196078429999
 20
4673.6322142999989
 30
25.0
  0
VERTEX
  5
678
  8
CLUSTERS
 10
634.03146746899995
 20
4673.6324582300012
 30
25.0
  0
VERTEX
  5
679
  8
CLUSTERS
 10
634.11982570800001
 20
4673.6544029999995
 30
25.0
  0
VERTEX
  5
67A
  8
CLUSTERS
 10
634.14700460099994
 20
4673.6324582300012
 30
25.0
  0
VERTEX
  5
67B
  8
CLUSTERS
 10
634.22004357299977
 20
4673.5793827899979
 30
25.0
  0
VERTEX
  5
67C
  8
CLUSTERS
 10
634.26453663699999
 20
4673.5322195700001
 30
25.0
  0
VERTEX
  5
67D
  8
CLUSTERS
 10
634.32026143799987
 20
4673.43652595
 30
25.0
  0
VERTEX
  5
67E
  8
CLUSTERS
 10
634.33112116199993
 20
4673.4319809099998
 30
25.0
  0
VERTEX
  5
67F
  8
CLUSTERS
 10
634.42047930299998
 20
4673.4291929499977
 30
25.0
  0
VERTEX
  5
680
  8
CLUSTERS
 10
634.50813228699985
 20
4673.4319809099998
 30
25.0
  0
VERTEX
  5
681
  8
CLUSTERS
 10
634.52069716799997
 20
4673.4367725100001
 30
25.0
  0
VERTEX
  5
682
  8
CLUSTERS
 10
634.62091503299996
 20
4673.4766096699977
 30
25.0
  0
VERTEX
  5
683
  8
CLUSTERS
 10
634.72113289800006
 20
4673.4697883700001
 30
25.0
  0
VERTEX
  5
684
  8
CLUSTERS
 10
634.78845295300005
 20
4673.4319809099998
 30
25.0
  0
VERTEX
  5
685
  8
CLUSTERS
 10
634.82135076300005
 20
4673.4297850399989
 30
25.0
  0
VERTEX
  5
686
  8
CLUSTERS
 10
634.92156862699994
 20
4673.3586868299999
 30
25.0
  0
VERTEX
  5
687
  8
CLUSTERS
 10
634.94905758100003
 20
4673.3317422399996
 30
25.0
  0
VERTEX
  5
688
  8
CLUSTERS
 10
635.02178649199993
 20
4673.3037935499979
 30
25.0
  0
VERTEX
  5
689
  8
CLUSTERS
 10
635.09258085800002
 20
4673.2315035800011
 30
25.0
  0
VERTEX
  5
68A
  8
CLUSTERS
 10
635.10797072499997
 20
4673.1312649199999
 30
25.0
  0
VERTEX
  5
68B
  8
CLUSTERS
 10
635.08514823600001
 20
4673.0310262499997
 30
25.0
  0
VERTEX
  5
68C
  8
CLUSTERS
 10
635.02178649199993
 20
4672.9694614500013
 30
25.0
  0
VERTEX
  5
68D
  8
CLUSTERS
 10
634.92156862699994
 20
4672.943941749998
 30
25.0
  0
VERTEX
  5
68E
  8
CLUSTERS
 10
634.82135076300005
 20
4672.9500181800004
 30
25.0
  0
VERTEX
  5
68F
  8
CLUSTERS
 10
634.72113289800006
 20
4672.9419293299998
 30
25.0
  0
VERTEX
  5
690
  8
CLUSTERS
 10
634.62091503299996
 20
4672.9346877099988
 30
25.0
  0
VERTEX
  5
691
  8
CLUSTERS
 10
634.52069716799997
 20
4672.9316994199999
 30
25.0
  0
VERTEX
  5
692
  8
CLUSTERS
 10
634.51246727099988
 20
4672.9307875900004
 30
25.0
  0
VERTEX
  5
693
  8
CLUSTERS
 10
634.52069716799997
 20
4672.9279583999978
 30
25.0
  0
VERTEX
  5
694
  8
CLUSTERS
 10
634.62091503299996
 20
4672.9193776700013
 30
25.0
  0
VERTEX
  5
695
  8
CLUSTERS
 10
634.72113289800006
 20
4672.8784906299998
 30
25.0
  0
VERTEX
  5
696
  8
CLUSTERS
 10
634.76357887199993
 20
4672.8305489300001
 30
25.0
  0
VERTEX
  5
697
  8
CLUSTERS
 10
634.79289270699985
 20
4672.730310259999
 30
25.0
  0
VERTEX
  5
698
  8
CLUSTERS
 10
634.82135076300005
 20
4672.7061016999996
 30
25.0
  0
VERTEX
  5
699
  8
CLUSTERS
 10
634.92156862699994
 20
4672.6890348200022
 30
25.0
  0
VERTEX
  5
69A
  8
CLUSTERS
 10
634.98076308899988
 20
4672.6300715999996
 30
25.0
  0
VERTEX
  5
69B
  8
CLUSTERS
 10
634.97769384799994
 20
4672.5298329400002
 30
25.0
  0
VERTEX
  5
69C
  8
CLUSTERS
 10
634.92156862699994
 20
4672.4740096599999
 30
25.0
  0
VERTEX
  5
69D
  8
CLUSTERS
 10
634.82943843400005
 20
4672.4295942700001
 30
25.0
  0
VERTEX
  5
69E
  8
CLUSTERS
 10
634.82135076300005
 20
4672.4218896000002
 30
25.0
  0
VERTEX
  5
69F
  8
CLUSTERS
 10
634.72113289800006
 20
4672.3649442899987
 30
25.0
  0
VERTEX
  5
6A0
  8
CLUSTERS
 10
634.64676867499975
 20
4672.3293556099989
 30
25.0
  0
VERTEX
  5
6A1
  8
CLUSTERS
 10
634.62091503299996
 20
4672.2910811499996
 30
25.0
  0
VERTEX
  5
6A2
  8
CLUSTERS
 10
634.52069716799997
 20
4672.2491553600003
 30
25.0
  0
VERTEX
  5
6A3
  8
CLUSTERS
 10
634.46852045200001
 20
4672.3293556099989
 30
25.0
  0
SEQEND
  5
6A4
  8
CLUSTERS
  0
POLYLINE
  5
62
  8
CLUSTERS
 66
     1
 10
0.0
 20
0.0
 30
25.0
 70
   129
  0
VERTEX
  5
6A5
  8
CLUSTERS
 10
630.92233935800004
 20
4672.1288782800002
 30
25.0
  0
VERTEX
  5
6A6
  8
CLUSTERS
 10
630.91285403099994
 20
4672.1295469499992
 30
25.0
  0
VERTEX
  5
6A7
  8
CLUSTERS
 10
630.81949196000005
 20
4672.2291169500004
 30
25.0
  0
VERTEX
  5
6A8
  8
CLUSTERS
 10
630.81552884099995
 20
4672.3293556099989
 30
25.0
  0
VERTEX
  5
6A9
  8
CLUSTERS
 10
630.83948285199995
 20
4672.4295942700001
 30
25.0
  0
VERTEX
  5
6AA
  8
CLUSTERS
 10
630.91285403099994
 20
4672.5063326600002
 30
25.0
  0
VERTEX
  5
6AB
  8
CLUSTERS
 10
630.920002598
 20
4672.5298329400002
 30
25.0
  0
VERTEX
  5
6AC
  8
CLUSTERS
 10
630.93742209200002
 20
4672.6300715999996
 30
25.0
  0
VERTEX
  5
6AD
  8
CLUSTERS
 10
631.01307189500005
 20
4672.6945793699979
 30
25.0
  0
VERTEX
  5
6AE
  8
CLUSTERS
 10
631.11328976000004
 20
4672.6878757900004
 30
25.0
  0
VERTEX
  5
6AF
  8
CLUSTERS
 10
631.186703986
 20
4672.6300715999996
 30
25.0
  0
VERTEX
  5
6B0
  8
CLUSTERS
 10
631.21350762500003
 20
4672.6151747000004
 30
25.0
  0
VERTEX
  5
6B1
  8
CLUSTERS
 10
631.29088501900003
 20
4672.5298329400002
 30
25.0
  0
VERTEX
  5
6B2
  8
CLUSTERS
 10
631.21350762500003
 20
4672.4472608699998
 30
25.0
  0
VERTEX
  5
6B3
  8
CLUSTERS
 10
631.17140894599993
 20
4672.4295942700001
 30
25.0
  0
VERTEX
  5
6B4
  8
CLUSTERS
 10
631.21350762500003
 20
4672.383791809998
 30
25.0
  0
VERTEX
  5
6B5
  8
CLUSTERS
 10
631.25355987900002
 20
4672.3293556099989
 30
25.0
  0
VERTEX
  5
6B6
  8
CLUSTERS
 10
631.21350762500003
 20
4672.2395867200003
 30
25.0
  0
VERTEX
  5
6B7
  8
CLUSTERS
 10
631.21243129199991
 20
4672.2291169500004
 30
25.0
  0
VERTEX
  5
6B8
  8
CLUSTERS
 10
631.11328976000004
 20
4672.1358986399991
 30
25.0
  0
VERTEX
  5
6B9
  8
CLUSTERS
 10
631.07171512499986
 20
4672.1288782800002
 30
25.0
  0
VERTEX
  5
6BA
  8
CLUSTERS
 10
631.01307189500005
 20
4672.0859601900002
 30
25.0
  0
VERTEX
  5
6BB
  8
CLUSTERS
 10
630.92233935800004
 20
4672.1288782800002
 30
25.0
  0
SEQEND
  5
6BC
  8
CLUSTERS
  0
POLYLINE
  5
63
  8
CLUSTERS
 66
     1
 10
0.0
 20
0.0
 30
25.0
 70
   129
  0
VERTEX
  5
6BD
  8
CLUSTERS
 10
633.22931162799978
 20
4671.2267303099989
 30
25.0
  0
VERTEX
  5
6BE
  8
CLUSTERS
 10
633.21786492399985
 20
4671.2914651600004
 30
25.0
  0
VERTEX
  5
6BF
  8
CLUSTERS
 10
633.18568097399975
 20
4671.3269689699991
 30
25.0
  0
VERTEX
  5
6C0
  8
CLUSTERS
 10
633.17668100799995
 20
4671.4272076399993
 30
25.0
  0
VERTEX
  5
6C1
  8
CLUSTERS
 10
633.21786492399985
 20
4671.4701467799987
 30
25.0
  0
VERTEX
  5
6C2
  8
CLUSTERS
 10
633.31808278899985
 20
4671.4779554500001
 30
25.0
  0
VERTEX
  5
6C3
  8
CLUSTERS
 10
633.37283552799988
 20
4671.4272076399993
 30
25.0
  0
VERTEX
  5
6C4
  8
CLUSTERS
 10
633.41830065399995
 20
4671.3655692199991
 30
25.0
  0
VERTEX
  5
6C5
  8
CLUSTERS
 10
633.467823576
 20
4671.3269689699991
 30
25.0
  0
VERTEX
  5
6C6
  8
CLUSTERS
 10
633.51851851900005
 20
4671.303211469999
 30
25.0
  0
VERTEX
  5
6C7
  8
CLUSTERS
 10
633.61873638300005
 20
4671.2823429399978
 30
25.0
  0
VERTEX
  5
6C8
  8
CLUSTERS
 10
633.674994814
 20
4671.2267303099989
 30
25.0
  0
VERTEX
  5
6C9
  8
CLUSTERS
 10
633.61873638300005
 20
4671.16493601
 30
25.0
  0
VERTEX
  5
6CA
  8
CLUSTERS
 10
633.51851851900005
 20
4671.1516174199978
 30
25.0
  0
VERTEX
  5
6CB
  8
CLUSTERS
 10
633.41830065399995
 20
4671.1297651100003
 30
25.0
  0
VERTEX
  5
6CC
  8
CLUSTERS
 10
633.31808278899985
 20
4671.1383683599997
 30
25.0
  0
VERTEX
  5
6CD
  8
CLUSTERS
 10
633.22931162799978
 20
4671.2267303099989
 30
25.0
  0
SEQEND
  5
6CE
  8
CLUSTERS
  0
POLYLINE
  5
64
  8
CLUSTERS
 66
     1
 10
0.0
 20
0.0
 30
25.0
 70
   129
  0
VERTEX
  5
6CF
  8
CLUSTERS
 10
649.28467737300002
 20
4670.8257756599996
 30
25.0
  0
VERTEX
  5
6D0
  8
CLUSTERS
 10
649.266471411
 20
4670.926014319999
 30
25.0
  0
VERTEX
  5
6D1
  8
CLUSTERS
 10
649.35294117599994
 20
4671.0018546499996
 30
25.0
  0
VERTEX
  5
6D2
  8
CLUSTERS
 10
649.44877849
 20
4670.926014319999
 30
25.0
  0
VERTEX
  5
6D3
  8
CLUSTERS
 10
649.45315904099994
 20
4670.9184522200003
 30
25.0
  0
VERTEX
  5
6D4
  8
CLUSTERS
 10
649.55337690600004
 20
4670.8688505800001
 30
25.0
  0
VERTEX
  5
6D5
  8
CLUSTERS
 10
649.65359477100003
 20
4670.8416341800003
 30
25.0
  0
VERTEX
  5
6D6
  8
CLUSTERS
 10
649.66877413999975
 20
4670.8257756599996
 30
25.0
  0
VERTEX
  5
6D7
  8
CLUSTERS
 10
649.65359477100003
 20
4670.8068121699998
 30
25.0
  0
VERTEX
  5
6D8
  8
CLUSTERS
 10
649.55337690600004
 20
4670.7655713999984
 30
25.0
  0
VERTEX
  5
6D9
  8
CLUSTERS
 10
649.45315904099994
 20
4670.7628769599978
 30
25.0
  0
VERTEX
  5
6DA
  8
CLUSTERS
 10
649.35294117599994
 20
4670.7594720099996
 30
25.0
  0
VERTEX
  5
6DB
  8
CLUSTERS
 10
649.28467737300002
 20
4670.8257756599996
 30
25.0
  0
SEQEND
  5
6DC
  8
CLUSTERS
  0
POLYLINE
  5
65
  8
CLUSTERS
 66
     1
 10
0.0
 20
0.0
 30
25.0
 70
   129
  0
VERTEX
  5
6DD
  8
CLUSTERS
 10
653.06338051699993
 20
4670.6252983300001
 30
25.0
  0
VERTEX
  5
6DE
  8
CLUSTERS
 10
653.06100217900007
 20
4670.6278196800004
 30
25.0
  0
VERTEX
  5
6DF
  8
CLUSTERS
 10
652.98140913700001
 20
4670.7255369900004
 30
25.0
  0
VERTEX
  5
6E0
  8
CLUSTERS
 10
653.04475448900007
 20
4670.8257756599996
 30
25.0
  0
VERTEX
  5
6E1
  8
CLUSTERS
 10
653.06100217900007
 20
4670.8426297400001
 30
25.0
  0
VERTEX
  5
6E2
  8
CLUSTERS
 10
653.08359496699984
 20
4670.926014319999
 30
25.0
  0
VERTEX
  5
6E3
  8
CLUSTERS
 10
653.09363177199998
 20
4671.0262529800002
 30
25.0
  0
VERTEX
  5
6E4
  8
CLUSTERS
 10
653.16122004399995
 20
4671.0940610599991
 30
25.0
  0
VERTEX
  5
6E5
  8
CLUSTERS
 10
653.24762633199975
 20
4671.0262529800002
 30
25.0
  0
VERTEX
  5
6E6
  8
CLUSTERS
 10
653.24709862899988
 20
4670.926014319999
 30
25.0
  0
VERTEX
  5
6E7
  8
CLUSTERS
 10
653.25725583400003
 20
4670.8257756599996
 30
25.0
  0
VERTEX
  5
6E8
  8
CLUSTERS
 10
653.26143790799995
 20
4670.82140196
 30
25.0
  0
VERTEX
  5
6E9
  8
CLUSTERS
 10
653.36165577300005
 20
4670.7819023399989
 30
25.0
  0
VERTEX
  5
6EA
  8
CLUSTERS
 10
653.41896921099999
 20
4670.7255369900004
 30
25.0
  0
VERTEX
  5
6EB
  8
CLUSTERS
 10
653.36165577300005
 20
4670.66703487
 30
25.0
  0
VERTEX
  5
6EC
  8
CLUSTERS
 10
653.26143790799995
 20
4670.6326573699989
 30
25.0
  0
VERTEX
  5
6ED
  8
CLUSTERS
 10
653.25173728599998
 20
4670.6252983300001
 30
25.0
  0
VERTEX
  5
6EE
  8
CLUSTERS
 10
653.16122004399995
 20
4670.54515842
 30
25.0
  0
VERTEX
  5
6EF
  8
CLUSTERS
 10
653.06338051699993
 20
4670.6252983300001
 30
25.0
  0
SEQEND
  5
6F0
  8
CLUSTERS
  0
POLYLINE
  5
66
  8
CLUSTERS
 66
     1
 10
0.0
 20
0.0
 30
25.0
 70
   129
  0
VERTEX
  5
6F1
  8
CLUSTERS
 10
649.05524537600002
 20
4669.1217183799999
 30
25.0
  0
VERTEX
  5
6F2
  8
CLUSTERS
 10
649.05384232400002
 20
4669.2219570400002
 30
25.0
  0
VERTEX
  5
6F3
  8
CLUSTERS
 10
649.06356862500002
 20
4669.3221956999996
 30
25.0
  0
VERTEX
  5
6F4
  8
CLUSTERS
 10
649.15250544699984
 20
4669.4124129399979
 30
25.0
  0
VERTEX
  5
6F5
  8
CLUSTERS
 10
649.25272331199994
 20
4669.4166425200001
 30
25.0
  0
VERTEX
  5
6F6
  8
CLUSTERS
 10
649.34288225699993
 20
4669.3221956999996
 30
25.0
  0
VERTEX
  5
6F7
  8
CLUSTERS
 10
649.34361966699998
 20
4669.2219570400002
 30
25.0
  0
VERTEX
  5
6F8
  8
CLUSTERS
 10
649.31840072299997
 20
4669.1217183799999
 30
25.0
  0
VERTEX
  5
6F9
  8
CLUSTERS
 10
649.25272331199994
 20
4669.0560363900004
 30
25.0
  0
VERTEX
  5
6FA
  8
CLUSTERS
 10
649.15250544699984
 20
4669.0248951699978
 30
25.0
  0
VERTEX
  5
6FB
  8
CLUSTERS
 10
649.05524537600002
 20
4669.1217183799999
 30
25.0
  0
SEQEND
  5
6FC
  8
CLUSTERS
  0
POLYLINE
  5
67
  8
CLUSTERS
 66
     1
 10
0.0
 20
0.0
 30
25.0
 70
   129
  0
VERTEX
  5
6FD
  8
CLUSTERS
 10
646.21657367399985
 20
4668.9212410500004
 30
25.0
  0
VERTEX
  5
6FE
  8
CLUSTERS
 10
646.19665201400005
 20
4669.0214797099989
 30
25.0
  0
VERTEX
  5
6FF
  8
CLUSTERS
 10
646.18605302399999
 20
4669.1217183799999
 30
25.0
  0
VERTEX
  5
700
  8
CLUSTERS
 10
646.24618736399975
 20
4669.1831231200003
 30
25.0
  0
VERTEX
  5
701
  8
CLUSTERS
 10
646.34640522899986
 20
4669.2031085600001
 30
25.0
  0
VERTEX
  5
702
  8
CLUSTERS
 10
646.42630766399986
 20
4669.1217183799999
 30
25.0
  0
VERTEX
  5
703
  8
CLUSTERS
 10
646.34640522899986
 20
4669.02569546
 30
25.0
  0
VERTEX
  5
704
  8
CLUSTERS
 10
646.33151539100004
 20
4669.0214797099989
 30
25.0
  0
VERTEX
  5
705
  8
CLUSTERS
 10
646.34640522899986
 20
4668.9991473099999
 30
25.0
  0
VERTEX
  5
706
  8
CLUSTERS
 10
646.38381455299975
 20
4668.9212410500004
 30
25.0
  0
VERTEX
  5
707
  8
CLUSTERS
 10
646.34640522899986
 20
4668.8786063500002
 30
25.0
  0
VERTEX
  5
708
  8
CLUSTERS
 10
646.24618736399975
 20
4668.8862044999996
 30
25.0
  0
VERTEX
  5
709
  8
CLUSTERS
 10
646.21657367399985
 20
4668.9212410500004
 30
25.0
  0
SEQEND
  5
70A
  8
CLUSTERS
  0
POLYLINE
  5
68
  8
CLUSTERS
 66
     1
 10
0.0
 20
0.0
 30
25.0
 70
   129
  0
VERTEX
  5
70B
  8
CLUSTERS
 10
639.30793593700002
 20
4668.9212410500004
 30
25.0
  0
VERTEX
  5
70C
  8
CLUSTERS
 10
639.23812983199991
 20
4669.0214797099989
 30
25.0
  0
VERTEX
  5
70D
  8
CLUSTERS
 10
639.23093681900002
 20
4669.0398998800001
 30
25.0
  0
VERTEX
  5
70E
  8
CLUSTERS
 10
639.15106612800002
 20
4669.1217183799999
 30
25.0
  0
VERTEX
  5
70F
  8
CLUSTERS
 10
639.23093681900002
 20
4669.2055816199991
 30
25.0
  0
VERTEX
  5
710
  8
CLUSTERS
 10
639.33115468400001
 20
4669.2174430900004
 30
25.0
  0
VERTEX
  5
711
  8
CLUSTERS
 10
639.34728294199999
 20
4669.2219570400002
 30
25.0
  0
VERTEX
  5
712
  8
CLUSTERS
 10
639.43137254899989
 20
4669.2903485099978
 30
25.0
  0
VERTEX
  5
713
  8
CLUSTERS
 10
639.53159041399999
 20
4669.2256043199995
 30
25.0
  0
VERTEX
  5
714
  8
CLUSTERS
 10
639.53556951799999
 20
4669.2219570400002
 30
25.0
  0
VERTEX
  5
715
  8
CLUSTERS
 10
639.62686220299997
 20
4669.1217183799999
 30
25.0
  0
VERTEX
  5
716
  8
CLUSTERS
 10
639.62606198100002
 20
4669.0214797099989
 30
25.0
  0
VERTEX
  5
717
  8
CLUSTERS
 10
639.53159041399999
 20
4668.926643419999
 30
25.0
  0
VERTEX
  5
718
  8
CLUSTERS
 10
639.52348838
 20
4668.9212410500004
 30
25.0
  0
VERTEX
  5
719
  8
CLUSTERS
 10
639.43137254899989
 20
4668.8328846900004
 30
25.0
  0
VERTEX
  5
71A
  8
CLUSTERS
 10
639.33115468400001
 20
4668.8982489600003
 30
25.0
  0
VERTEX
  5
71B
  8
CLUSTERS
 10
639.30793593700002
 20
4668.9212410500004
 30
25.0
  0
SEQEND
  5
71C
  8
CLUSTERS
  0
POLYLINE
  5
69
  8
CLUSTERS
 66
     1
 10
0.0
 20
0.0
 30
25.0
 70
   129
  0
VERTEX
  5
71D
  8
CLUSTERS
 10
647.97466834099998
 20
4666.8162291199997
 30
25.0
  0
VERTEX
  5
71E
  8
CLUSTERS
 10
647.97519304900004
 20
4666.9164677799999
 30
25.0
  0
VERTEX
  5
71F
  8
CLUSTERS
 10
648.03168741900004
 20
4667.0167064400002
 30
25.0
  0
VERTEX
  5
720
  8
CLUSTERS
 10
648.05010893199994
 20
4667.03737026
 30
25.0
  0
VERTEX
  5
721
  8
CLUSTERS
 10
648.06635765199985
 20
4667.1169451100004
 30
25.0
  0
VERTEX
  5
722
  8
CLUSTERS
 10
648.05010893199994
 20
4667.1743466099988
 30
25.0
  0
VERTEX
  5
723
  8
CLUSTERS
 10
648.01208228799999
 20
4667.2171837699998
 30
25.0
  0
VERTEX
  5
724
  8
CLUSTERS
 10
647.98670730399999
 20
4667.3174224300001
 30
25.0
  0
VERTEX
  5
725
  8
CLUSTERS
 10
648.05010893199994
 20
4667.3839584400012
 30
25.0
  0
VERTEX
  5
726
  8
CLUSTERS
 10
648.15032679699993
 20
4667.3961625600023
 30
25.0
  0
VERTEX
  5
727
  8
CLUSTERS
 10
648.25054466199992
 20
4667.4056042800003
 30
25.0
  0
VERTEX
  5
728
  8
CLUSTERS
 10
648.26907188899975
 20
4667.4176611000003
 30
25.0
  0
VERTEX
  5
729
  8
CLUSTERS
 10
648.35076252699992
 20
4667.495287669999
 30
25.0
  0
VERTEX
  5
72A
  8
CLUSTERS
 10
648.45098039199991
 20
4667.5092557500002
 30
25.0
  0
VERTEX
  5
72B
  8
CLUSTERS
 10
648.55119825700001
 20
4667.4752440700013
 30
25.0
  0
VERTEX
  5
72C
  8
CLUSTERS
 10
648.60563133599976
 20
4667.4176611000003
 30
25.0
  0
VERTEX
  5
72D
  8
CLUSTERS
 10
648.55119825700001
 20
4667.3528576799999
 30
25.0
  0
VERTEX
  5
72E
  8
CLUSTERS
 10
648.54691982099985
 20
4667.3174224300001
 30
25.0
  0
VERTEX
  5
72F
  8
CLUSTERS
 10
648.54671726399988
 20
4667.2171837699998
 30
25.0
  0
VERTEX
  5
730
  8
CLUSTERS
 10
648.45098039199991
 20
4667.1204845800003
 30
25.0
  0
VERTEX
  5
731
  8
CLUSTERS
 10
648.44834616499998
 20
4667.1169451100004
 30
25.0
  0
VERTEX
  5
732
  8
CLUSTERS
 10
648.38437540300004
 20
4667.0167064400002
 30
25.0
  0
VERTEX
  5
733
  8
CLUSTERS
 10
648.35076252699992
 20
4666.9526144900001
 30
25.0
  0
VERTEX
  5
734
  8
CLUSTERS
 10
648.35006350399999
 20
4666.9164677799999
 30
25.0
  0
VERTEX
  5
735
  8
CLUSTERS
 10
648.343716331
 20
4666.8162291199997
 30
25.0
  0
VERTEX
  5
736
  8
CLUSTERS
 10
648.25054466199992
 20
4666.7235271999998
 30
25.0
  0
VERTEX
  5
737
  8
CLUSTERS
 10
648.15032679699993
 20
4666.717049519998
 30
25.0
  0
VERTEX
  5
738
  8
CLUSTERS
 10
648.05010893199994
 20
4666.7375194200004
 30
25.0
  0
VERTEX
  5
739
  8
CLUSTERS
 10
647.97466834099998
 20
4666.8162291199997
 30
25.0
  0
SEQEND
  5
73A
  8
CLUSTERS
  0
POLYLINE
  5
6A
  8
CLUSTERS
 66
     1
 10
0.0
 20
0.0
 30
25.0
 70
   129
  0
VERTEX
  5
73B
  8
CLUSTERS
 10
647.41046895599993
 20
4665.4128878299998
 30
25.0
  0
VERTEX
  5
73C
  8
CLUSTERS
 10
647.366673773
 20
4665.5131264900001
 30
25.0
  0
VERTEX
  5
73D
  8
CLUSTERS
 10
647.37436878099993
 20
4665.6133651600003
 30
25.0
  0
VERTEX
  5
73E
  8
CLUSTERS
 10
647.35820689399975
 20
4665.7136038199997
 30
25.0
  0
VERTEX
  5
73F
  8
CLUSTERS
 10
647.40811330600002
 20
4665.8138424799999
 30
25.0
  0
VERTEX
  5
740
  8
CLUSTERS
 10
647.44880174299976
 20
4665.8565542699989
 30
25.0
  0
VERTEX
  5
741
  8
CLUSTERS
 10
647.47941756099999
 20
4665.9140811500001
 30
25.0
  0
VERTEX
  5
742
  8
CLUSTERS
 10
647.54901960799987
 20
4665.98386553
 30
25.0
  0
VERTEX
  5
743
  8
CLUSTERS
 10
647.62604318199999
 20
4665.9140811500001
 30
25.0
  0
VERTEX
  5
744
  8
CLUSTERS
 10
647.64923747300008
 20
4665.9081629399998
 30
25.0
  0
VERTEX
  5
745
  8
CLUSTERS
 10
647.74657719200002
 20
4665.8138424799999
 30
25.0
  0
VERTEX
  5
746
  8
CLUSTERS
 10
647.74945533799996
 20
4665.7581583900001
 30
25.0
  0
VERTEX
  5
747
  8
CLUSTERS
 10
647.76768906500001
 20
4665.7136038199997
 30
25.0
  0
VERTEX
  5
748
  8
CLUSTERS
 10
647.74945533799996
 20
4665.6898176900004
 30
25.0
  0
VERTEX
  5
749
  8
CLUSTERS
 10
647.74210978899976
 20
4665.6133651600003
 30
25.0
  0
VERTEX
  5
74A
  8
CLUSTERS
 10
647.64923747300008
 20
4665.5210929900004
 30
25.0
  0
VERTEX
  5
74B
  8
CLUSTERS
 10
647.63714961799997
 20
4665.5131264900001
 30
25.0
  0
VERTEX
  5
74C
  8
CLUSTERS
 10
647.56250871700001
 20
4665.4128878299998
 30
25.0
  0
VERTEX
  5
74D
  8
CLUSTERS
 10
647.54901960799987
 20
4665.3999513099989
 30
25.0
  0
VERTEX
  5
74E
  8
CLUSTERS
 10
647.44880174299976
 20
4665.3752082800002
 30
25.0
  0
VERTEX
  5
74F
  8
CLUSTERS
 10
647.41046895599993
 20
4665.4128878299998
 30
25.0
  0
SEQEND
  5
750
  8
CLUSTERS
  0
POLYLINE
  5
6B
  8
CLUSTERS
 66
     1
 10
0.0
 20
0.0
 30
25.0
 70
   129
  0
VERTEX
  5
751
  8
CLUSTERS
 10
637.82906539600003
 20
4665.4128878299998
 30
25.0
  0
VERTEX
  5
752
  8
CLUSTERS
 10
637.82788671000003
 20
4665.417977359999
 30
25.0
  0
VERTEX
  5
753
  8
CLUSTERS
 10
637.75168516799999
 20
4665.5131264900001
 30
25.0
  0
VERTEX
  5
754
  8
CLUSTERS
 10
637.75858031300004
 20
4665.6133651600003
 30
25.0
  0
VERTEX
  5
755
  8
CLUSTERS
 10
637.82788671000003
 20
4665.6981504900004
 30
25.0
  0
VERTEX
  5
756
  8
CLUSTERS
 10
637.83335415999989
 20
4665.7136038199997
 30
25.0
  0
VERTEX
  5
757
  8
CLUSTERS
 10
637.92810457499979
 20
4665.8011677900004
 30
25.0
  0
VERTEX
  5
758
  8
CLUSTERS
 10
638.02832244000001
 20
4665.7843957900013
 30
25.0
  0
VERTEX
  5
759
  8
CLUSTERS
 10
638.128540305
 20
4665.7797502399999
 30
25.0
  0
VERTEX
  5
75A
  8
CLUSTERS
 10
638.18119214299975
 20
4665.7136038199997
 30
25.0
  0
VERTEX
  5
75B
  8
CLUSTERS
 10
638.22802737099994
 20
4665.6133651600003
 30
25.0
  0
VERTEX
  5
75C
  8
CLUSTERS
 10
638.22706024699994
 20
4665.5131264900001
 30
25.0
  0
VERTEX
  5
75D
  8
CLUSTERS
 10
638.128540305
 20
4665.4176810199997
 30
25.0
  0
VERTEX
  5
75E
  8
CLUSTERS
 10
638.08873503699999
 20
4665.4128878299998
 30
25.0
  0
VERTEX
  5
75F
  8
CLUSTERS
 10
638.02832244000001
 20
4665.3595114500013
 30
25.0
  0
VERTEX
  5
760
  8
CLUSTERS
 10
637.92810457499979
 20
4665.3178411999988
 30
25.0
  0
VERTEX
  5
761
  8
CLUSTERS
 10
637.82906539600003
 20
4665.4128878299998
 30
25.0
  0
SEQEND
  5
762
  8
CLUSTERS
  0
ENDSEC
  0
EOF
