  0
SECTION
  2
HEADER
  9
$ACADVER
  1
AC1009
  9
$INSBASE
 10
0.0
 20
0.0
 30
0.0
  9
$EXTMIN
 10
627.64902148999988
 20
4665.3155501799984
 30
1.0
  9
$EXTMAX
 10
652.50314244399976
 20
4698.80924349
 30
13.0
  9
$LIMMIN
 10
0.0
 20
0.0
  9
$LIMMAX
 10
12.0
 20
9.0
  9
$ORTHOMODE
 70
     0
  9
$REGENMODE
 70
     1
  9
$FILLMODE
 70
     1
  9
$QTEXTMODE
 70
     0
  9
$MIRRTEXT
 70
     1
  9
$DRAGMODE
 70
     2
  9
$LTSCALE
 40
1.0
  9
$OSMODE
 70
   613
  9
$ATTMODE
 70
     1
  9
$TEXTSIZE
 40
0.5
  9
$TRACEWID
 40
0.05
  9
$TEXTSTYLE
  7
STANDARD
  9
$CLAYER
  8
DISTRICTS
  9
$CELTYPE
  6
BYLAYER
  9
$CECOLOR
 62
   256
  9
$DIMSCALE
 40
1.0
  9
$DIMASZ
 40
0.18
  9
$DIMEXO
 40
0.0625
  9
$DIMDLI
 40
0.38
  9
$DIMRND
 40
0.0
  9
$DIMDLE
 40
0.0
  9
$DIMEXE
 40
0.18
  9
$DIMTP
 40
0.0
  9
$DIMTM
 40
0.0
  9
$DIMTXT
 40
0.18
  9
$DIMCEN
 40
0.09
  9
$DIMTSZ
 40
0.0
  9
$DIMTOL
 70
     0
  9
$DIMLIM
 70
     0
  9
$DIMTIH
 70
     1
  9
$DIMTOH
 70
     1
  9
$DIMSE1
 70
     0
  9
$DIMSE2
 70
     0
  9
$DIMTAD
 70
     0
  9
$DIMZIN
 70
     0
  9
$DIMBLK
  1

  9
$DIMASO
 70
     1
  9
$DIMSHO
 70
     1
  9
$DIMPOST
  1

  9
$DIMAPOST
  1

  9
$DIMALT
 70
     0
  9
$DIMALTD
 70
     2
  9
$DIMALTF
 40
25.399999999999999
  9
$DIMLFAC
 40
1.0
  9
$DIMTOFL
 70
     0
  9
$DIMTVP
 40
0.0
  9
$DIMTIX
 70
     0
  9
$DIMSOXD
 70
     0
  9
$DIMSAH
 70
     0
  9
$DIMBLK1
  1

  9
$DIMBLK2
  1

  9
$DIMSTYLE
  2
STANDARD
  9
$DIMCLRD
 70
     0
  9
$DIMCLRE
 70
     0
  9
$DIMCLRT
 70
     0
  9
$DIMTFAC
 40
1.0
  9
$DIMGAP
 40
0.09
  9
$LUNITS
 70
     2
  9
$LUPREC
 70
     4
  9
$SKETCHINC
 40
0.1
  9
$FILLETRAD
 40
0.5
  9
$AUNITS
 70
     0
  9
$AUPREC
 70
     0
  9
$MENU
  1
.
  9
$ELEVATION
 40
0.0
  9
$PELEVATION
 40
0.0
  9
$THICKNESS
 40
0.0
  9
$LIMCHECK
 70
     0
  9
$BLIPMODE
 70
     0
  9
$CHAMFERA
 40
0.5
  9
$CHAMFERB
 40
0.5
  9
$SKPOLY
 70
     0
  9
$TDCREATE
 40
2454381.8473497801
  9
$TDUPDATE
 40
2455808.6600491898
  9
$TDINDWG
 40
0.0807474653
  9
$TDUSRTIMER
 40
0.0807474653
  9
$USRTIMER
 70
     1
  9
$ANGBASE
 50
0.0
  9
$ANGDIR
 70
     1
  9
$PDMODE
 70
    66
  9
$PDSIZE
 40
0.0
  9
$PLINEWID
 40
0.0
  9
$COORDS
 70
     1
  9
$SPLFRAME
 70
     0
  9
$SPLINETYPE
 70
     6
  9
$SPLINESEGS
 70
     8
  9
$ATTDIA
 70
     0
  9
$ATTREQ
 70
     1
  9
$HANDLING
 70
     1
  9
$HANDSEED
  5
D7B
  9
$SURFTAB1
 70
     6
  9
$SURFTAB2
 70
     6
  9
$SURFTYPE
 70
     6
  9
$SURFU
 70
     6
  9
$SURFV
 70
     6
  9
$UCSNAME
  2

  9
$UCSORG
 10
0.0
 20
0.0
 30
0.0
  9
$UCSXDIR
 10
1.0
 20
0.0
 30
0.0
  9
$UCSYDIR
 10
0.0
 20
1.0
 30
0.0
  9
$PUCSNAME
  2

  9
$PUCSORG
 10
0.0
 20
0.0
 30
0.0
  9
$PUCSXDIR
 10
1.0
 20
0.0
 30
0.0
  9
$PUCSYDIR
 10
0.0
 20
1.0
 30
0.0
  9
$USERI1
 70
     0
  9
$USERI2
 70
     0
  9
$USERI3
 70
     0
  9
$USERI4
 70
     0
  9
$USERI5
 70
     0
  9
$USERR1
 40
0.0
  9
$USERR2
 40
0.0
  9
$USERR3
 40
0.0
  9
$USERR4
 40
0.0
  9
$USERR5
 40
0.0
  9
$WORLDVIEW
 70
     1
  9
$SHADEDGE
 70
     3
  9
$SHADEDIF
 70
    70
  9
$TILEMODE
 70
     1
  9
$MAXACTVP
 70
    64
  9
$PLIMCHECK
 70
     0
  9
$PEXTMIN
 10
0.0
 20
0.0
 30
0.0
  9
$PEXTMAX
 10
0.0
 20
0.0
 30
0.0
  9
$PLIMMIN
 10
0.0
 20
0.0
  9
$PLIMMAX
 10
12.0
 20
9.0
  9
$UNITMODE
 70
     0
  9
$VISRETAIN
 70
     1
  9
$PLINEGEN
 70
     0
  9
$PSLTSCALE
 70
     1
  0
ENDSEC
  0
SECTION
  2
TABLES
  0
TABLE
  2
VPORT
 70
     1
  0
VPORT
  2
*ACTIVE
 70
     0
 10
0.0
 20
0.0
 11
1.0
 21
1.0
 12
662.57483379032408
 22
4689.4204571861164
 13
0.0
 23
0.0
 14
0.5
 24
0.5
 15
0.5
 25
0.5
 16
0.0
 26
0.0
 36
1.0
 17
0.0
 27
0.0
 37
0.0
 40
64.192818321333846
 41
1.336206896551724
 42
50.0
 43
0.0
 44
0.0
 50
0.0
 51
0.0
 71
     0
 72
   100
 73
     1
 74
     2
 75
     0
 76
     0
 77
     0
 78
     0
  0
ENDTAB
  0
TABLE
  2
LTYPE
 70
     1
  0
LTYPE
  2
CONTINUOUS
 70
     0
  3
Solid line
 72
    65
 73
     0
 40
0.0
  0
ENDTAB
  0
TABLE
  2
LAYER
 70
     2
  0
LAYER
  2
0
 70
     0
 62
    -7
  6
CONTINUOUS
  0
LAYER
  2
DISTRICTS
 70
     0
 62
     3
  6
CONTINUOUS
  0
ENDTAB
  0
TABLE
  2
STYLE
 70
     3
  0
STYLE
  2
STANDARD
 70
     0
 40
0.0
 41
1.0
 50
0.0
 71
     0
 42
0.5
  3
txt
  4

  0
STYLE
  2
ANNOTATIVE
 70
     0
 40
0.0
 41
1.0
 50
0.0
 71
     0
 42
0.2
  3
txt
  4

  0
STYLE
  2
LEGEND
 70
     0
 40
0.0
 41
1.0
 50
0.0
 71
     0
 42
0.5
  3
txt
  4

  0
ENDTAB
  0
TABLE
  2
VIEW
 70
     0
  0
ENDTAB
  0
TABLE
  2
UCS
 70
     0
  0
ENDTAB
  0
TABLE
  2
APPID
 70
     7
  0
APPID
  2
ACAD
 70
     0
  0
APPID
  2
ACADANNOTATIVE
 70
     0
  0
APPID
  2
ADE
 70
     0
  0
APPID
  2
ACMAPDMDISPLAYSTYLEREGAPP
 70
     0
  0
APPID
  2
MAPGWS
 70
     0
  0
APPID
  2
DCO15
 70
     0
  0
APPID
  2
ACAD_MLEADERVER
 70
     0
  0
ENDTAB
  0
TABLE
  2
DIMSTYLE
 70
     2
  0
DIMSTYLE
  2
STANDARD
 70
     0
  3

  4

  5

  6

  7

 40
1.0
 41
0.18
 42
0.0625
 43
0.38
 44
0.18
 45
0.0
 46
0.0
 47
0.0
 48
0.0
140
0.18
141
0.09
142
0.0
143
25.399999999999999
144
1.0
145
0.0
146
1.0
147
0.09
 71
     0
 72
     0
 73
     1
 74
     1
 75
     0
 76
     0
 77
     0
 78
     0
170
     0
171
     2
172
     0
173
     0
174
     0
175
     0
176
     0
177
     0
178
     0
  0
DIMSTYLE
  2
ANNOTATIVE
 70
     0
  3

  4

  5

  6

  7

 40
1.0
 41
0.18
 42
0.0625
 43
0.38
 44
0.18
 45
0.0
 46
0.0
 47
0.0
 48
0.0
140
0.18
141
0.09
142
0.0
143
25.399999999999999
144
1.0
145
0.0
146
1.0
147
0.09
 71
     0
 72
     0
 73
     1
 74
     1
 75
     0
 76
     0
 77
     0
 78
     0
170
     0
171
     2
172
     0
173
     0
174
     0
175
     0
176
     0
177
     0
178
     0
  0
ENDTAB
  0
ENDSEC
  0
SECTION
  2
BLOCKS
  0
BLOCK
  8
0
  2
$MODEL_SPACE
 70
     0
 10
0.0
 20
0.0
 30
0.0
  3
$MODEL_SPACE
  1

  0
ENDBLK
  5
6E1
  8
0
  0
BLOCK
 67
     1
  8
0
  2
$PAPER_SPACE
 70
     0
 10
0.0
 20
0.0
 30
0.0
  3
$PAPER_SPACE
  1

  0
ENDBLK
  5
6DD
 67
     1
  8
0
  0
ENDSEC
  0
SECTION
  2
ENTITIES
  0
POLYLINE
  5
28
  8
DISTRICTS
 66
     1
 10
0.0
 20
0.0
 30
10.0
 70
     1
  0
VERTEX
  5
719
  8
DISTRICTS
 10
636.97506881672382
 20
4674.1001809238942
 30
10.0
  0
VERTEX
  5
71A
  8
DISTRICTS
 10
636.98311325099985
 20
4674.1336515499997
 30
10.0
  0
VERTEX
  5
71B
  8
DISTRICTS
 10
637.00878232900004
 20
4674.23389021
 30
10.0
  0
VERTEX
  5
71C
  8
DISTRICTS
 10
637.02614379099987
 20
4674.2985036700011
 30
10.0
  0
VERTEX
  5
71D
  8
DISTRICTS
 10
637.036466163
 20
4674.3341288800002
 30
10.0
  0
VERTEX
  5
71E
  8
DISTRICTS
 10
637.06658968500017
 20
4674.4343675399987
 30
10.0
  0
VERTEX
  5
71F
  8
DISTRICTS
 10
637.09782285199992
 20
4674.5346062099989
 30
10.0
  0
VERTEX
  5
720
  8
DISTRICTS
 10
637.12636165599997
 20
4674.6238279299969
 30
10.0
  0
VERTEX
  5
721
  8
DISTRICTS
 10
637.13017173399965
 20
4674.6348448700001
 30
10.0
  0
VERTEX
  5
722
  8
DISTRICTS
 10
637.16526536900005
 20
4674.7350835300003
 30
10.0
  0
VERTEX
  5
723
  8
DISTRICTS
 10
637.20073242199999
 20
4674.8353221999978
 30
10.0
  0
VERTEX
  5
724
  8
DISTRICTS
 10
637.22657952099985
 20
4674.9082612499978
 30
10.0
  0
VERTEX
  5
725
  8
DISTRICTS
 10
637.23704730600002
 20
4674.9355608599981
 30
10.0
  0
VERTEX
  5
726
  8
DISTRICTS
 10
637.27521487399997
 20
4675.0357995200002
 30
10.0
  0
VERTEX
  5
727
  8
DISTRICTS
 10
637.31284107299996
 20
4675.1360381900004
 30
10.0
  0
VERTEX
  5
728
  8
DISTRICTS
 10
637.32679738599995
 20
4675.1737033199997
 30
10.0
  0
VERTEX
  5
729
  8
DISTRICTS
 10
637.35173168400001
 20
4675.236276849997
 30
10.0
  0
VERTEX
  5
72A
  8
DISTRICTS
 10
637.3908308419999
 20
4675.3365155099991
 30
10.0
  0
VERTEX
  5
72B
  8
DISTRICTS
 10
637.42919148800001
 20
4675.4367541800002
 30
10.0
  0
VERTEX
  5
72C
  8
DISTRICTS
 10
637.46963307600004
 20
4675.5369928399969
 30
10.0
  0
VERTEX
  5
72D
  8
DISTRICTS
 10
637.50937445900001
 20
4675.6372314999999
 30
10.0
  0
VERTEX
  5
72E
  8
DISTRICTS
 10
637.52723311499994
 20
4675.6818898700003
 30
10.0
  0
VERTEX
  5
72F
  8
DISTRICTS
 10
637.55040353599975
 20
4675.7374701700001
 30
10.0
  0
VERTEX
  5
730
  8
DISTRICTS
 10
637.59263222799996
 20
4675.8377088300003
 30
10.0
  0
VERTEX
  5
731
  8
DISTRICTS
 10
637.62745098000005
 20
4675.9188774300001
 30
10.0
  0
VERTEX
  5
732
  8
DISTRICTS
 10
637.63583510399985
 20
4675.9379474899997
 30
10.0
  0
VERTEX
  5
733
  8
DISTRICTS
 10
637.68175359999987
 20
4676.0381861599999
 30
10.0
  0
VERTEX
  5
734
  8
DISTRICTS
 10
637.72896854600003
 20
4676.1384248200002
 30
10.0
  0
VERTEX
  5
735
  8
DISTRICTS
 10
637.77956303500002
 20
4676.2386634799977
 30
10.0
  0
VERTEX
  5
736
  8
DISTRICTS
 10
637.83198559000004
 20
4676.3389021499988
 30
10.0
  0
VERTEX
  5
737
  8
DISTRICTS
 10
637.88766482800008
 20
4676.43914081
 30
10.0
  0
VERTEX
  5
738
  8
DISTRICTS
 10
637.92810457499979
 20
4676.5089195800001
 30
10.0
  0
VERTEX
  5
739
  8
DISTRICTS
 10
637.94549807400006
 20
4676.5393794700003
 30
10.0
  0
VERTEX
  5
73A
  8
DISTRICTS
 10
637.97625201693052
 20
4676.590483683648
 30
10.0
  0
VERTEX
  5
73B
  8
DISTRICTS
 10
636.07909641672575
 20
4677.3641498344296
 30
10.0
  0
VERTEX
  5
73C
  8
DISTRICTS
 10
635.25180830954685
 20
4677.7225609040343
 30
10.0
  0
VERTEX
  5
73D
  8
DISTRICTS
 10
633.943176793254
 20
4679.082193853902
 30
10.0
  0
VERTEX
  5
73E
  8
DISTRICTS
 10
632.96297777224015
 20
4678.301532608466
 30
10.0
  0
VERTEX
  5
73F
  8
DISTRICTS
 10
631.39113034963941
 20
4677.7225609040343
 30
10.0
  0
VERTEX
  5
740
  8
DISTRICTS
 10
630.66527975149506
 20
4677.5449989989384
 30
10.0
  0
VERTEX
  5
741
  8
DISTRICTS
 10
630.70089940100002
 20
4677.4415274499997
 30
10.0
  0
VERTEX
  5
742
  8
DISTRICTS
 10
630.71241830099984
 20
4677.4020321099979
 30
10.0
  0
VERTEX
  5
743
  8
DISTRICTS
 10
630.72972822099985
 20
4677.3412887799996
 30
10.0
  0
VERTEX
  5
744
  8
DISTRICTS
 10
630.75335080900004
 20
4677.2410501200002
 30
10.0
  0
VERTEX
  5
745
  8
DISTRICTS
 10
630.772186164
 20
4677.1408114599999
 30
10.0
  0
VERTEX
  5
746
  8
DISTRICTS
 10
630.78653453399966
 20
4677.0405727899997
 30
10.0
  0
VERTEX
  5
747
  8
DISTRICTS
 10
630.79668113900004
 20
4676.9403341300012
 30
10.0
  0
VERTEX
  5
748
  8
DISTRICTS
 10
630.80287674399995
 20
4676.8400954700001
 30
10.0
  0
VERTEX
  5
749
  8
DISTRICTS
 10
630.80532001799975
 20
4676.7398568000008
 30
10.0
  0
VERTEX
  5
74A
  8
DISTRICTS
 10
630.80414096000004
 20
4676.6396181399996
 30
10.0
  0
VERTEX
  5
74B
  8
DISTRICTS
 10
630.79938458499964
 20
4676.5393794700003
 30
10.0
  0
VERTEX
  5
74C
  8
DISTRICTS
 10
630.790994243
 20
4676.43914081
 30
10.0
  0
VERTEX
  5
74D
  8
DISTRICTS
 10
630.77879431500003
 20
4676.3389021499988
 30
10.0
  0
VERTEX
  5
74E
  8
DISTRICTS
 10
630.76247323799976
 20
4676.2386634799977
 30
10.0
  0
VERTEX
  5
74F
  8
DISTRICTS
 10
630.74157066700002
 20
4676.1384248200002
 30
10.0
  0
VERTEX
  5
750
  8
DISTRICTS
 10
630.71241830099984
 20
4676.0288645000001
 30
10.0
  0
VERTEX
  5
751
  8
DISTRICTS
 10
630.68365938099987
 20
4675.9379474899997
 30
10.0
  0
VERTEX
  5
752
  8
DISTRICTS
 10
630.64605374899975
 20
4675.8377088300003
 30
10.0
  0
VERTEX
  5
753
  8
DISTRICTS
 10
630.61220043599985
 20
4675.7600836900001
 30
10.0
  0
VERTEX
  5
754
  8
DISTRICTS
 10
630.60307950900005
 20
4675.7374701700001
 30
10.0
  0
VERTEX
  5
755
  8
DISTRICTS
 10
630.55681258899995
 20
4675.6372314999999
 30
10.0
  0
VERTEX
  5
756
  8
DISTRICTS
 10
630.51025106700001
 20
4675.5369928399969
 30
10.0
  0
VERTEX
  5
757
  8
DISTRICTS
 10
630.46589988000005
 20
4675.4367541800002
 30
10.0
  0
VERTEX
  5
758
  8
DISTRICTS
 10
630.42850776399985
 20
4675.3365155099991
 30
10.0
  0
VERTEX
  5
759
  8
DISTRICTS
 10
630.41176470599987
 20
4675.27930431
 30
10.0
  0
VERTEX
  5
75A
  8
DISTRICTS
 10
630.39918968400002
 20
4675.236276849997
 30
10.0
  0
VERTEX
  5
75B
  8
DISTRICTS
 10
630.37774876799995
 20
4675.1360381900004
 30
10.0
  0
VERTEX
  5
75C
  8
DISTRICTS
 10
630.36671999199984
 20
4675.0357995200002
 30
10.0
  0
VERTEX
  5
75D
  8
DISTRICTS
 10
630.36573447299975
 20
4674.9355608599981
 30
10.0
  0
VERTEX
  5
75E
  8
DISTRICTS
 10
630.37418062500001
 20
4674.8353221999978
 30
10.0
  0
VERTEX
  5
75F
  8
DISTRICTS
 10
630.39111821699998
 20
4674.7350835300003
 30
10.0
  0
VERTEX
  5
760
  8
DISTRICTS
 10
630.41176470599987
 20
4674.6472246399999
 30
10.0
  0
VERTEX
  5
761
  8
DISTRICTS
 10
630.41445510000017
 20
4674.6348448700001
 30
10.0
  0
VERTEX
  5
762
  8
DISTRICTS
 10
630.43961012399996
 20
4674.5346062099989
 30
10.0
  0
VERTEX
  5
763
  8
DISTRICTS
 10
630.46765888899995
 20
4674.4343675399987
 30
10.0
  0
VERTEX
  5
764
  8
DISTRICTS
 10
630.49606752300008
 20
4674.3341288800002
 30
10.0
  0
VERTEX
  5
765
  8
DISTRICTS
 10
630.51198257099998
 20
4674.2755485500002
 30
10.0
  0
VERTEX
  5
766
  8
DISTRICTS
 10
630.52201834800007
 20
4674.23389021
 30
10.0
  0
VERTEX
  5
767
  8
DISTRICTS
 10
630.54586598000003
 20
4674.1336515499997
 30
10.0
  0
VERTEX
  5
768
  8
DISTRICTS
 10
630.57356865400004
 20
4674.0334128900004
 30
10.0
  0
VERTEX
  5
769
  8
DISTRICTS
 10
630.61220043599985
 20
4673.9266364100004
 30
10.0
  0
VERTEX
  5
76A
  8
DISTRICTS
 10
630.65002646400001
 20
4673.8329355599999
 30
10.0
  0
VERTEX
  5
76B
  8
DISTRICTS
 10
630.69736518199988
 20
4673.7326968999987
 30
10.0
  0
VERTEX
  5
76C
  8
DISTRICTS
 10
630.70681181716316
 20
4673.7082230601054
 30
10.0
  0
VERTEX
  5
76D
  8
DISTRICTS
 10
631.50143534211225
 20
4673.6697588209681
 30
10.0
  0
VERTEX
  5
76E
  8
DISTRICTS
 10
632.57691001417118
 20
4673.9730298078812
 30
10.0
  0
VERTEX
  5
76F
  8
DISTRICTS
 10
633.54207950414786
 20
4674.2487305254008
 30
10.0
  0
VERTEX
  5
770
  8
DISTRICTS
 10
634.47967279340924
 20
4674.3590108428152
 30
10.0
  0
VERTEX
  5
771
  8
DISTRICTS
 10
635.77575745041395
 20
4674.3314408774859
 30
10.0
  0
SEQEND
  5
772
  8
DISTRICTS
  0
POLYLINE
  5
29
  8
DISTRICTS
 66
     1
 10
0.0
 20
0.0
 30
9.0
 70
     1
  0
VERTEX
  5
773
  8
DISTRICTS
 10
633.943176793254
 20
4679.082193853902
 30
9.0
  0
VERTEX
  5
774
  8
DISTRICTS
 10
634.58997778588207
 20
4679.5973264521099
 30
9.0
  0
VERTEX
  5
775
  8
DISTRICTS
 10
635.63787606761593
 20
4680.4244289087319
 30
9.0
  0
VERTEX
  5
776
  8
DISTRICTS
 10
636.58844997473511
 20
4681.327271400196
 30
9.0
  0
VERTEX
  5
777
  8
DISTRICTS
 10
636.62081944300007
 20
4681.2505966599992
 30
9.0
  0
VERTEX
  5
778
  8
DISTRICTS
 10
636.62527233100002
 20
4681.24131906
 30
9.0
  0
VERTEX
  5
779
  8
DISTRICTS
 10
636.67341415199985
 20
4681.1503579999999
 30
9.0
  0
VERTEX
  5
77A
  8
DISTRICTS
 10
636.7254901959999
 20
4681.0652486400004
 30
9.0
  0
VERTEX
  5
77B
  8
DISTRICTS
 10
636.73538922099965
 20
4681.0501193299997
 30
9.0
  0
VERTEX
  5
77C
  8
DISTRICTS
 10
636.80906517199992
 20
4680.9498806700003
 30
9.0
  0
VERTEX
  5
77D
  8
DISTRICTS
 10
636.825708061
 20
4680.9296755200003
 30
9.0
  0
VERTEX
  5
77E
  8
DISTRICTS
 10
636.89367199399965
 20
4680.8496420000001
 30
9.0
  0
VERTEX
  5
77F
  8
DISTRICTS
 10
636.92592592599965
 20
4680.8151287299988
 30
9.0
  0
VERTEX
  5
780
  8
DISTRICTS
 10
636.98813881199965
 20
4680.7494033399998
 30
9.0
  0
VERTEX
  5
781
  8
DISTRICTS
 10
637.02614379099987
 20
4680.7124572800012
 30
9.0
  0
VERTEX
  5
782
  8
DISTRICTS
 10
637.09104914599993
 20
4680.6491646799996
 30
9.0
  0
VERTEX
  5
783
  8
DISTRICTS
 10
637.12636165599997
 20
4680.6172162700004
 30
9.0
  0
VERTEX
  5
784
  8
DISTRICTS
 10
637.20043781599975
 20
4680.5489260100012
 30
9.0
  0
VERTEX
  5
785
  8
DISTRICTS
 10
637.22657952099985
 20
4680.5264244500004
 30
9.0
  0
VERTEX
  5
786
  8
DISTRICTS
 10
637.31392932699998
 20
4680.44868735
 30
9.0
  0
VERTEX
  5
787
  8
DISTRICTS
 10
637.32679738599995
 20
4680.4379334300002
 30
9.0
  0
VERTEX
  5
788
  8
DISTRICTS
 10
637.42701525099994
 20
4680.3503753900004
 30
9.0
  0
VERTEX
  5
789
  8
DISTRICTS
 10
637.52723311499994
 20
4680.26349931
 30
9.0
  0
VERTEX
  5
78A
  8
DISTRICTS
 10
637.54396425599987
 20
4680.2482100200023
 30
9.0
  0
VERTEX
  5
78B
  8
DISTRICTS
 10
637.62745098000005
 20
4680.1752921699999
 30
9.0
  0
VERTEX
  5
78C
  8
DISTRICTS
 10
637.65696993300003
 20
4680.1479713600002
 30
9.0
  0
VERTEX
  5
78D
  8
DISTRICTS
 10
637.72766884500004
 20
4680.084965
 30
9.0
  0
VERTEX
  5
78E
  8
DISTRICTS
 10
637.76698980799995
 20
4680.0477326999999
 30
9.0
  0
VERTEX
  5
78F
  8
DISTRICTS
 10
637.82788671000003
 20
4679.99174391
 30
9.0
  0
VERTEX
  5
790
  8
DISTRICTS
 10
637.87311674299997
 20
4679.9474940299979
 30
9.0
  0
VERTEX
  5
791
  8
DISTRICTS
 10
637.92810457499979
 20
4679.8947630900002
 30
9.0
  0
VERTEX
  5
792
  8
DISTRICTS
 10
637.97464594199994
 20
4679.8472553700003
 30
9.0
  0
VERTEX
  5
793
  8
DISTRICTS
 10
638.02832244000001
 20
4679.7929597900002
 30
9.0
  0
VERTEX
  5
794
  8
DISTRICTS
 10
638.07103773199992
 20
4679.74701671
 30
9.0
  0
VERTEX
  5
795
  8
DISTRICTS
 10
638.128540305
 20
4679.6849318399991
 30
9.0
  0
VERTEX
  5
796
  8
DISTRICTS
 10
638.16186894099985
 20
4679.6467780399998
 30
9.0
  0
VERTEX
  5
797
  8
DISTRICTS
 10
638.22875816999988
 20
4679.5687076100003
 30
9.0
  0
VERTEX
  5
798
  8
DISTRICTS
 10
638.24676128099998
 20
4679.5465393799968
 30
9.0
  0
VERTEX
  5
799
  8
DISTRICTS
 10
638.32543558500004
 20
4679.4463007200002
 30
9.0
  0
VERTEX
  5
79A
  8
DISTRICTS
 10
638.39853895199985
 20
4679.34606205
 30
9.0
  0
VERTEX
  5
79B
  8
DISTRICTS
 10
638.42919389999975
 20
4679.3006237099999
 30
9.0
  0
VERTEX
  5
79C
  8
DISTRICTS
 10
638.46492347100002
 20
4679.2458233899997
 30
9.0
  0
VERTEX
  5
79D
  8
DISTRICTS
 10
638.5239886899999
 20
4679.1455847300003
 30
9.0
  0
VERTEX
  5
79E
  8
DISTRICTS
 10
638.52941176499985
 20
4679.1355779699998
 30
9.0
  0
VERTEX
  5
79F
  8
DISTRICTS
 10
638.57782936399985
 20
4679.0453460600002
 30
9.0
  0
VERTEX
  5
7A0
  8
DISTRICTS
 10
638.62300848999985
 20
4678.945107399999
 30
9.0
  0
VERTEX
  5
7A1
  8
DISTRICTS
 10
638.62962962999995
 20
4678.9280575700013
 30
9.0
  0
VERTEX
  5
7A2
  8
DISTRICTS
 10
638.66299817300001
 20
4678.8448687399969
 30
9.0
  0
VERTEX
  5
7A3
  8
DISTRICTS
 10
638.695110236
 20
4678.7446300700003
 30
9.0
  0
VERTEX
  5
7A4
  8
DISTRICTS
 10
638.71901039399995
 20
4678.6443914099982
 30
9.0
  0
VERTEX
  5
7A5
  8
DISTRICTS
 10
638.72984749499994
 20
4678.5787781999998
 30
9.0
  0
VERTEX
  5
7A6
  8
DISTRICTS
 10
638.73623160999989
 20
4678.544152739998
 30
9.0
  0
VERTEX
  5
7A7
  8
DISTRICTS
 10
638.747280015
 20
4678.4439140799977
 30
9.0
  0
VERTEX
  5
7A8
  8
DISTRICTS
 10
638.75079490199994
 20
4678.3436754200002
 30
9.0
  0
VERTEX
  5
7A9
  8
DISTRICTS
 10
638.74703242600003
 20
4678.24343675
 30
9.0
  0
VERTEX
  5
7AA
  8
DISTRICTS
 10
638.73613808599976
 20
4678.1431980899988
 30
9.0
  0
VERTEX
  5
7AB
  8
DISTRICTS
 10
638.72984749499994
 20
4678.107170799999
 30
9.0
  0
VERTEX
  5
7AC
  8
DISTRICTS
 10
638.71964586800004
 20
4678.0429594300003
 30
9.0
  0
VERTEX
  5
7AD
  8
DISTRICTS
 10
638.69740346900005
 20
4677.9427207599992
 30
9.0
  0
VERTEX
  5
7AE
  8
DISTRICTS
 10
638.66839450299994
 20
4677.842482099999
 30
9.0
  0
VERTEX
  5
7AF
  8
DISTRICTS
 10
638.63258237800005
 20
4677.7422434399996
 30
9.0
  0
VERTEX
  5
7B0
  8
DISTRICTS
 10
638.59335212400003
 20
4677.6420047700003
 30
9.0
  0
VERTEX
  5
7B1
  8
DISTRICTS
 10
638.54764807699985
 20
4677.54176611
 30
9.0
  0
VERTEX
  5
7B2
  8
DISTRICTS
 10
638.52941176499985
 20
4677.5047875500013
 30
9.0
  0
VERTEX
  5
7B3
  8
DISTRICTS
 10
638.49770376399965
 20
4677.4415274499997
 30
9.0
  0
VERTEX
  5
7B4
  8
DISTRICTS
 10
638.44293190899975
 20
4677.3412887799996
 30
9.0
  0
VERTEX
  5
7B5
  8
DISTRICTS
 10
638.42919389999975
 20
4677.3169102299998
 30
9.0
  0
VERTEX
  5
7B6
  8
DISTRICTS
 10
638.38496426199993
 20
4677.2410501200002
 30
9.0
  0
VERTEX
  5
7B7
  8
DISTRICTS
 10
638.32897603499998
 20
4677.1494746500002
 30
9.0
  0
VERTEX
  5
7B8
  8
DISTRICTS
 10
638.32344650499999
 20
4677.1408114599999
 30
9.0
  0
VERTEX
  5
7B9
  8
DISTRICTS
 10
638.26048159200002
 20
4677.0405727899997
 30
9.0
  0
VERTEX
  5
7BA
  8
DISTRICTS
 10
638.22875816999988
 20
4676.9901293100002
 30
9.0
  0
VERTEX
  5
7BB
  8
DISTRICTS
 10
638.19618490899995
 20
4676.9403341300012
 30
9.0
  0
VERTEX
  5
7BC
  8
DISTRICTS
 10
638.13160529499987
 20
4676.8400954700001
 30
9.0
  0
VERTEX
  5
7BD
  8
DISTRICTS
 10
638.06813628899977
 20
4676.7398568000008
 30
9.0
  0
VERTEX
  5
7BE
  8
DISTRICTS
 10
638.02832244000001
 20
4676.6752237199998
 30
9.0
  0
VERTEX
  5
7BF
  8
DISTRICTS
 10
638.00582058199996
 20
4676.6396181399996
 30
9.0
  0
VERTEX
  5
7C0
  8
DISTRICTS
 10
637.97625201693052
 20
4676.590483683648
 30
9.0
  0
VERTEX
  5
7C1
  8
DISTRICTS
 10
636.07909641672575
 20
4677.3641498344296
 30
9.0
  0
VERTEX
  5
7C2
  8
DISTRICTS
 10
635.25180830954685
 20
4677.7225609040343
 30
9.0
  0
SEQEND
  5
7C3
  8
DISTRICTS
  0
POLYLINE
  5
2A
  8
DISTRICTS
 66
     1
 10
0.0
 20
0.0
 30
11.0
 70
     1
  0
VERTEX
  5
7C4
  8
DISTRICTS
 10
636.97506881672382
 20
4674.1001809238942
 30
11.0
  0
VERTEX
  5
7C5
  8
DISTRICTS
 10
636.95902158000001
 20
4674.0334128900004
 30
11.0
  0
VERTEX
  5
7C6
  8
DISTRICTS
 10
636.93671759099993
 20
4673.9331742200002
 30
11.0
  0
VERTEX
  5
7C7
  8
DISTRICTS
 10
636.92592592599965
 20
4673.8801959800003
 30
11.0
  0
VERTEX
  5
7C8
  8
DISTRICTS
 10
636.91697134599985
 20
4673.8329355599999
 30
11.0
  0
VERTEX
  5
7C9
  8
DISTRICTS
 10
636.90003624500002
 20
4673.7326968999987
 30
11.0
  0
VERTEX
  5
7CA
  8
DISTRICTS
 10
636.88582148699993
 20
4673.6324582300012
 30
11.0
  0
VERTEX
  5
7CB
  8
DISTRICTS
 10
636.87509672199985
 20
4673.5322195700001
 30
11.0
  0
VERTEX
  5
7CC
  8
DISTRICTS
 10
636.86903443599999
 20
4673.4319809099998
 30
11.0
  0
VERTEX
  5
7CD
  8
DISTRICTS
 10
636.86935628000003
 20
4673.3317422399996
 30
11.0
  0
VERTEX
  5
7CE
  8
DISTRICTS
 10
636.87837429499984
 20
4673.2315035800011
 30
11.0
  0
VERTEX
  5
7CF
  8
DISTRICTS
 10
636.89854259599997
 20
4673.1312649199999
 30
11.0
  0
VERTEX
  5
7D0
  8
DISTRICTS
 10
636.92592592599965
 20
4673.0476942699997
 30
11.0
  0
VERTEX
  5
7D1
  8
DISTRICTS
 10
636.93069537400004
 20
4673.0310262499997
 30
11.0
  0
VERTEX
  5
7D2
  8
DISTRICTS
 10
636.97121261799975
 20
4672.9307875900004
 30
11.0
  0
VERTEX
  5
7D3
  8
DISTRICTS
 10
637.01129700800004
 20
4672.8305489300001
 30
11.0
  0
VERTEX
  5
7D4
  8
DISTRICTS
 10
637.02614379099987
 20
4672.78497806
 30
11.0
  0
VERTEX
  5
7D5
  8
DISTRICTS
 10
637.04223901599994
 20
4672.730310259999
 30
11.0
  0
VERTEX
  5
7D6
  8
DISTRICTS
 10
637.05623273000003
 20
4672.6300715999987
 30
11.0
  0
VERTEX
  5
7D7
  8
DISTRICTS
 10
637.03943199599985
 20
4672.5298329400002
 30
11.0
  0
VERTEX
  5
7D8
  8
DISTRICTS
 10
637.02614379099987
 20
4672.5056098799987
 30
11.0
  0
VERTEX
  5
7D9
  8
DISTRICTS
 10
636.98720519499977
 20
4672.4295942700001
 30
11.0
  0
VERTEX
  5
7DA
  8
DISTRICTS
 10
636.92592592599965
 20
4672.3689239799969
 30
11.0
  0
VERTEX
  5
7DB
  8
DISTRICTS
 10
636.836236493
 20
4672.3293556099979
 30
11.0
  0
VERTEX
  5
7DC
  8
DISTRICTS
 10
636.825708061
 20
4672.3231134199996
 30
11.0
  0
VERTEX
  5
7DD
  8
DISTRICTS
 10
636.7254901959999
 20
4672.2931781899979
 30
11.0
  0
VERTEX
  5
7DE
  8
DISTRICTS
 10
636.62527233100002
 20
4672.2782013699998
 30
11.0
  0
VERTEX
  5
7DF
  8
DISTRICTS
 10
636.52505446600003
 20
4672.2625300500022
 30
11.0
  0
VERTEX
  5
7E0
  8
DISTRICTS
 10
636.42483660100004
 20
4672.2354378600003
 30
11.0
  0
VERTEX
  5
7E1
  8
DISTRICTS
 10
636.40906369899994
 20
4672.2291169500004
 30
11.0
  0
VERTEX
  5
7E2
  8
DISTRICTS
 10
636.32461873599993
 20
4672.1890044899992
 30
11.0
  0
VERTEX
  5
7E3
  8
DISTRICTS
 10
636.22440087099994
 20
4672.1269454900003
 30
11.0
  0
VERTEX
  5
7E4
  8
DISTRICTS
 10
636.12418300699994
 20
4672.0528890599999
 30
11.0
  0
VERTEX
  5
7E5
  8
DISTRICTS
 10
636.09375694199946
 20
4672.0286396199999
 30
11.0
  0
VERTEX
  5
7E6
  8
DISTRICTS
 10
636.02396514199995
 20
4671.9740436700004
 30
11.0
  0
VERTEX
  5
7E7
  8
DISTRICTS
 10
635.96701613300002
 20
4671.9284009499979
 30
11.0
  0
VERTEX
  5
7E8
  8
DISTRICTS
 10
635.92374727699985
 20
4671.8949159900012
 30
11.0
  0
VERTEX
  5
7E9
  8
DISTRICTS
 10
635.83739547300002
 20
4671.8281622900004
 30
11.0
  0
VERTEX
  5
7EA
  8
DISTRICTS
 10
635.82352941199986
 20
4671.8178311700003
 30
11.0
  0
VERTEX
  5
7EB
  8
DISTRICTS
 10
635.72331154699975
 20
4671.7430974600002
 30
11.0
  0
VERTEX
  5
7EC
  8
DISTRICTS
 10
635.70262854600003
 20
4671.7279236300001
 30
11.0
  0
VERTEX
  5
7ED
  8
DISTRICTS
 10
635.62309368199999
 20
4671.6705983000002
 30
11.0
  0
VERTEX
  5
7EE
  8
DISTRICTS
 10
635.56216870599997
 20
4671.6276849599981
 30
11.0
  0
VERTEX
  5
7EF
  8
DISTRICTS
 10
635.52287581699989
 20
4671.5995668799997
 30
11.0
  0
VERTEX
  5
7F0
  8
DISTRICTS
 10
635.42265795200001
 20
4671.5237502099999
 30
11.0
  0
VERTEX
  5
7F1
  8
DISTRICTS
 10
635.34369572100002
 20
4671.4272076399984
 30
11.0
  0
VERTEX
  5
7F2
  8
DISTRICTS
 10
635.32244008700002
 20
4671.3932819499978
 30
11.0
  0
VERTEX
  5
7F3
  8
DISTRICTS
 10
635.27627366900003
 20
4671.3269689699982
 30
11.0
  0
VERTEX
  5
7F4
  8
DISTRICTS
 10
635.22222222199991
 20
4671.2977680000004
 30
11.0
  0
VERTEX
  5
7F5
  8
DISTRICTS
 10
635.12200435699992
 20
4671.32159615
 30
11.0
  0
VERTEX
  5
7F6
  8
DISTRICTS
 10
635.08139489099995
 20
4671.3269689699982
 30
11.0
  0
VERTEX
  5
7F7
  8
DISTRICTS
 10
635.02178649199993
 20
4671.3352325899968
 30
11.0
  0
VERTEX
  5
7F8
  8
DISTRICTS
 10
634.98279527599993
 20
4671.3269689699982
 30
11.0
  0
VERTEX
  5
7F9
  8
DISTRICTS
 10
634.92156862699994
 20
4671.3144571399998
 30
11.0
  0
VERTEX
  5
7FA
  8
DISTRICTS
 10
634.82135076300005
 20
4671.2868880599999
 30
11.0
  0
VERTEX
  5
7FB
  8
DISTRICTS
 10
634.72113289800006
 20
4671.2566693600002
 30
11.0
  0
VERTEX
  5
7FC
  8
DISTRICTS
 10
634.63294969100002
 20
4671.2267303099989
 30
11.0
  0
VERTEX
  5
7FD
  8
DISTRICTS
 10
634.62091503299996
 20
4671.2226991400003
 30
11.0
  0
VERTEX
  5
7FE
  8
DISTRICTS
 10
634.52069716799997
 20
4671.1821217200013
 30
11.0
  0
VERTEX
  5
7FF
  8
DISTRICTS
 10
634.42047930299998
 20
4671.1395546099984
 30
11.0
  0
VERTEX
  5
800
  8
DISTRICTS
 10
634.36535578799965
 20
4671.1264916500004
 30
11.0
  0
VERTEX
  5
801
  8
DISTRICTS
 10
634.32026143799987
 20
4671.1148511700003
 30
11.0
  0
VERTEX
  5
802
  8
DISTRICTS
 10
634.22004357299966
 20
4671.1128213900001
 30
11.0
  0
VERTEX
  5
803
  8
DISTRICTS
 10
634.15151655599993
 20
4671.1264916500004
 30
11.0
  0
VERTEX
  5
804
  8
DISTRICTS
 10
634.11982570800001
 20
4671.1323574199978
 30
11.0
  0
VERTEX
  5
805
  8
DISTRICTS
 10
634.0196078429999
 20
4671.1591545000001
 30
11.0
  0
VERTEX
  5
806
  8
DISTRICTS
 10
633.91938997800003
 20
4671.1820526999991
 30
11.0
  0
VERTEX
  5
807
  8
DISTRICTS
 10
633.81917211300004
 20
4671.1885015400003
 30
11.0
  0
VERTEX
  5
808
  8
DISTRICTS
 10
633.71895424800005
 20
4671.1641601900001
 30
11.0
  0
VERTEX
  5
809
  8
DISTRICTS
 10
633.61873638300005
 20
4671.1258547300004
 30
11.0
  0
VERTEX
  5
80A
  8
DISTRICTS
 10
633.51851851900005
 20
4671.0947009299998
 30
11.0
  0
VERTEX
  5
80B
  8
DISTRICTS
 10
633.41830065399995
 20
4671.0927725899992
 30
11.0
  0
VERTEX
  5
80C
  8
DISTRICTS
 10
633.34144163600001
 20
4671.1264916500004
 30
11.0
  0
VERTEX
  5
80D
  8
DISTRICTS
 10
633.31808278899985
 20
4671.13312133
 30
11.0
  0
VERTEX
  5
80E
  8
DISTRICTS
 10
633.22276134900005
 20
4671.2267303099989
 30
11.0
  0
VERTEX
  5
80F
  8
DISTRICTS
 10
633.21786492399985
 20
4671.2430758800001
 30
11.0
  0
VERTEX
  5
810
  8
DISTRICTS
 10
633.16312496900002
 20
4671.3269689699982
 30
11.0
  0
VERTEX
  5
811
  8
DISTRICTS
 10
633.13143830800004
 20
4671.4272076399984
 30
11.0
  0
VERTEX
  5
812
  8
DISTRICTS
 10
633.11764705899986
 20
4671.47754085
 30
11.0
  0
VERTEX
  5
813
  8
DISTRICTS
 10
633.08892934000016
 20
4671.5274462999978
 30
11.0
  0
VERTEX
  5
814
  8
DISTRICTS
 10
633.01340432500001
 20
4671.6276849599981
 30
11.0
  0
VERTEX
  5
815
  8
DISTRICTS
 10
632.91033798499996
 20
4671.7279236300001
 30
11.0
  0
VERTEX
  5
816
  8
DISTRICTS
 10
632.81699346399989
 20
4671.8091192999991
 30
11.0
  0
VERTEX
  5
817
  8
DISTRICTS
 10
632.79374946500002
 20
4671.8281622900004
 30
11.0
  0
VERTEX
  5
818
  8
DISTRICTS
 10
632.71677559900002
 20
4671.8918554900001
 30
11.0
  0
VERTEX
  5
819
  8
DISTRICTS
 10
632.67024812099987
 20
4671.9284009499979
 30
11.0
  0
VERTEX
  5
81A
  8
DISTRICTS
 10
632.61655773400003
 20
4671.9716339200013
 30
11.0
  0
VERTEX
  5
81B
  8
DISTRICTS
 10
632.54146005699999
 20
4672.0286396199999
 30
11.0
  0
VERTEX
  5
81C
  8
DISTRICTS
 10
632.51633986900003
 20
4672.0483774599998
 30
11.0
  0
VERTEX
  5
81D
  8
DISTRICTS
 10
632.41612200400004
 20
4672.1212149900002
 30
11.0
  0
VERTEX
  5
81E
  8
DISTRICTS
 10
632.40436651000005
 20
4672.1288782800002
 30
11.0
  0
VERTEX
  5
81F
  8
DISTRICTS
 10
632.31590413900005
 20
4672.1890407700002
 30
11.0
  0
VERTEX
  5
820
  8
DISTRICTS
 10
632.24847015499995
 20
4672.2291169500004
 30
11.0
  0
VERTEX
  5
821
  8
DISTRICTS
 10
632.21568627500005
 20
4672.2496662900003
 30
11.0
  0
VERTEX
  5
822
  8
DISTRICTS
 10
632.11546840999995
 20
4672.3009653500003
 30
11.0
  0
VERTEX
  5
823
  8
DISTRICTS
 10
632.03939182699992
 20
4672.3293556099979
 30
11.0
  0
VERTEX
  5
824
  8
DISTRICTS
 10
632.01525054499984
 20
4672.3391170300001
 30
11.0
  0
VERTEX
  5
825
  8
DISTRICTS
 10
631.91503267999985
 20
4672.3602069099979
 30
11.0
  0
VERTEX
  5
826
  8
DISTRICTS
 10
631.81481481499975
 20
4672.3554748099978
 30
11.0
  0
VERTEX
  5
827
  8
DISTRICTS
 10
631.75497036399997
 20
4672.3293556099979
 30
11.0
  0
VERTEX
  5
828
  8
DISTRICTS
 10
631.71459694999999
 20
4672.3120535500002
 30
11.0
  0
VERTEX
  5
829
  8
DISTRICTS
 10
631.63614553699995
 20
4672.2291169500004
 30
11.0
  0
VERTEX
  5
82A
  8
DISTRICTS
 10
631.61437908499988
 20
4672.2063187800004
 30
11.0
  0
VERTEX
  5
82B
  8
DISTRICTS
 10
631.58214966299988
 20
4672.1288782800002
 30
11.0
  0
VERTEX
  5
82C
  8
DISTRICTS
 10
631.53719025400005
 20
4672.0286396199999
 30
11.0
  0
VERTEX
  5
82D
  8
DISTRICTS
 10
631.51416122000001
 20
4672.0052228300001
 30
11.0
  0
VERTEX
  5
82E
  8
DISTRICTS
 10
631.46227988300006
 20
4671.9284009499979
 30
11.0
  0
VERTEX
  5
82F
  8
DISTRICTS
 10
631.41394335500001
 20
4671.8967863400003
 30
11.0
  0
VERTEX
  5
830
  8
DISTRICTS
 10
631.3137254899998
 20
4671.87478672
 30
11.0
  0
VERTEX
  5
831
  8
DISTRICTS
 10
631.20618655500004
 20
4671.9284009499979
 30
11.0
  0
VERTEX
  5
832
  8
DISTRICTS
 10
631.11328976000004
 20
4671.9639236999992
 30
11.0
  0
VERTEX
  5
833
  8
DISTRICTS
 10
631.01307189500005
 20
4671.9953692400013
 30
11.0
  0
VERTEX
  5
834
  8
DISTRICTS
 10
630.94530342799965
 20
4672.0286396199999
 30
11.0
  0
VERTEX
  5
835
  8
DISTRICTS
 10
630.91285403099994
 20
4672.0397499500004
 30
11.0
  0
VERTEX
  5
836
  8
DISTRICTS
 10
630.81263616599995
 20
4672.120365689997
 30
11.0
  0
VERTEX
  5
837
  8
DISTRICTS
 10
630.80471067199994
 20
4672.1288782800002
 30
11.0
  0
VERTEX
  5
838
  8
DISTRICTS
 10
630.73760948899985
 20
4672.2291169500004
 30
11.0
  0
VERTEX
  5
839
  8
DISTRICTS
 10
630.71365222300005
 20
4672.3293556099979
 30
11.0
  0
VERTEX
  5
83A
  8
DISTRICTS
 10
630.71241830099984
 20
4672.35796166
 30
11.0
  0
VERTEX
  5
83B
  8
DISTRICTS
 10
630.70657873499999
 20
4672.4295942700001
 30
11.0
  0
VERTEX
  5
83C
  8
DISTRICTS
 10
630.71241830099984
 20
4672.4914373099991
 30
11.0
  0
VERTEX
  5
83D
  8
DISTRICTS
 10
630.71556527699965
 20
4672.5298329400002
 30
11.0
  0
VERTEX
  5
83E
  8
DISTRICTS
 10
630.72712608899985
 20
4672.6300715999987
 30
11.0
  0
VERTEX
  5
83F
  8
DISTRICTS
 10
630.74846487599996
 20
4672.730310259999
 30
11.0
  0
VERTEX
  5
840
  8
DISTRICTS
 10
630.76372974799995
 20
4672.8305489300001
 30
11.0
  0
VERTEX
  5
841
  8
DISTRICTS
 10
630.75853615800008
 20
4672.9307875900004
 30
11.0
  0
VERTEX
  5
842
  8
DISTRICTS
 10
630.74379714500003
 20
4673.0310262499997
 30
11.0
  0
VERTEX
  5
843
  8
DISTRICTS
 10
630.73414679999985
 20
4673.1312649199999
 30
11.0
  0
VERTEX
  5
844
  8
DISTRICTS
 10
630.73587799500001
 20
4673.2315035800011
 30
11.0
  0
VERTEX
  5
845
  8
DISTRICTS
 10
630.74763236499984
 20
4673.3317422399996
 30
11.0
  0
VERTEX
  5
846
  8
DISTRICTS
 10
630.76032931199995
 20
4673.4319809099998
 30
11.0
  0
VERTEX
  5
847
  8
DISTRICTS
 10
630.75981139099997
 20
4673.5322195700001
 30
11.0
  0
VERTEX
  5
848
  8
DISTRICTS
 10
630.73783739299995
 20
4673.6324582300012
 30
11.0
  0
VERTEX
  5
849
  8
DISTRICTS
 10
630.71241830099984
 20
4673.6936980800001
 30
11.0
  0
VERTEX
  5
84A
  8
DISTRICTS
 10
630.70681181716316
 20
4673.7082230601054
 30
11.0
  0
VERTEX
  5
84B
  8
DISTRICTS
 10
631.50143534211225
 20
4673.6697588209681
 30
11.0
  0
VERTEX
  5
84C
  8
DISTRICTS
 10
632.57691001417118
 20
4673.9730298078812
 30
11.0
  0
VERTEX
  5
84D
  8
DISTRICTS
 10
633.54207950414786
 20
4674.2487305254008
 30
11.0
  0
VERTEX
  5
84E
  8
DISTRICTS
 10
634.47967279340924
 20
4674.3590108428152
 30
11.0
  0
VERTEX
  5
84F
  8
DISTRICTS
 10
635.77575745041395
 20
4674.3314408774859
 30
11.0
  0
SEQEND
  5
850
  8
DISTRICTS
  0
POLYLINE
  5
2B
  8
DISTRICTS
 66
     1
 10
0.0
 20
0.0
 30
12.0
 70
     1
  0
VERTEX
  5
851
  8
DISTRICTS
 10
647.30667688399978
 20
4665.4128878299998
 30
12.0
  0
VERTEX
  5
852
  8
DISTRICTS
 10
647.2483660129999
 20
4665.4796744699997
 30
12.0
  0
VERTEX
  5
853
  8
DISTRICTS
 10
647.22205913800008
 20
4665.5131264900001
 30
12.0
  0
VERTEX
  5
854
  8
DISTRICTS
 10
647.17369106499984
 20
4665.6133651600003
 30
12.0
  0
VERTEX
  5
855
  8
DISTRICTS
 10
647.15426054900001
 20
4665.7136038199997
 30
12.0
  0
VERTEX
  5
856
  8
DISTRICTS
 10
647.15294713800006
 20
4665.8138424799999
 30
12.0
  0
VERTEX
  5
857
  8
DISTRICTS
 10
647.16881980799997
 20
4665.9140811500001
 30
12.0
  0
VERTEX
  5
858
  8
DISTRICTS
 10
647.20654345100002
 20
4666.0143198100004
 30
12.0
  0
VERTEX
  5
859
  8
DISTRICTS
 10
647.2483660129999
 20
4666.0883020900001
 30
12.0
  0
VERTEX
  5
85A
  8
DISTRICTS
 10
647.26668905300005
 20
4666.1145584699998
 30
12.0
  0
VERTEX
  5
85B
  8
DISTRICTS
 10
647.34450344499999
 20
4666.21479714
 30
12.0
  0
VERTEX
  5
85C
  8
DISTRICTS
 10
647.42893219400003
 20
4666.3150358000003
 30
12.0
  0
VERTEX
  5
85D
  8
DISTRICTS
 10
647.44880174299965
 20
4666.3511251399987
 30
12.0
  0
VERTEX
  5
85E
  8
DISTRICTS
 10
647.48750333099997
 20
4666.4152744599987
 30
12.0
  0
VERTEX
  5
85F
  8
DISTRICTS
 10
647.50771874999998
 20
4666.5155131299998
 30
12.0
  0
VERTEX
  5
860
  8
DISTRICTS
 10
647.50553792000005
 20
4666.6157517900001
 30
12.0
  0
VERTEX
  5
861
  8
DISTRICTS
 10
647.49565133099975
 20
4666.7159904500013
 30
12.0
  0
VERTEX
  5
862
  8
DISTRICTS
 10
647.48629313900005
 20
4666.8162291199997
 30
12.0
  0
VERTEX
  5
863
  8
DISTRICTS
 10
647.48122006099993
 20
4666.9164677799999
 30
12.0
  0
VERTEX
  5
864
  8
DISTRICTS
 10
647.48197087000005
 20
4667.0167064400002
 30
12.0
  0
VERTEX
  5
865
  8
DISTRICTS
 10
647.48929566499964
 20
4667.1169451100004
 30
12.0
  0
VERTEX
  5
866
  8
DISTRICTS
 10
647.50376700899994
 20
4667.2171837699998
 30
12.0
  0
VERTEX
  5
867
  8
DISTRICTS
 10
647.52587872499976
 20
4667.3174224300001
 30
12.0
  0
VERTEX
  5
868
  8
DISTRICTS
 10
647.54901960799987
 20
4667.3963486499979
 30
12.0
  0
VERTEX
  5
869
  8
DISTRICTS
 10
647.55472357799965
 20
4667.4176611000003
 30
12.0
  0
VERTEX
  5
86A
  8
DISTRICTS
 10
647.58626102300002
 20
4667.5178997599987
 30
12.0
  0
VERTEX
  5
86B
  8
DISTRICTS
 10
647.61977291199992
 20
4667.618138419999
 30
12.0
  0
VERTEX
  5
86C
  8
DISTRICTS
 10
647.64923747300008
 20
4667.7100141299979
 30
12.0
  0
VERTEX
  5
86D
  8
DISTRICTS
 10
647.70258685099998
 20
4667.8186157500004
 30
12.0
  0
VERTEX
  5
86E
  8
DISTRICTS
 10
647.74945533799996
 20
4667.8714659500001
 30
12.0
  0
VERTEX
  5
86F
  8
DISTRICTS
 10
647.81428666099976
 20
4667.9188544199978
 30
12.0
  0
VERTEX
  5
870
  8
DISTRICTS
 10
647.84967320299995
 20
4667.9573160899981
 30
12.0
  0
VERTEX
  5
871
  8
DISTRICTS
 10
647.90630527099995
 20
4668.0190930799999
 30
12.0
  0
VERTEX
  5
872
  8
DISTRICTS
 10
647.94989106800006
 20
4668.0682461099977
 30
12.0
  0
VERTEX
  5
873
  8
DISTRICTS
 10
647.99447847699957
 20
4668.1193317400002
 30
12.0
  0
VERTEX
  5
874
  8
DISTRICTS
 10
648.05010893199994
 20
4668.1808081899981
 30
12.0
  0
VERTEX
  5
875
  8
DISTRICTS
 10
648.08469446200002
 20
4668.2195704100004
 30
12.0
  0
VERTEX
  5
876
  8
DISTRICTS
 10
648.15032679699993
 20
4668.2879742599998
 30
12.0
  0
VERTEX
  5
877
  8
DISTRICTS
 10
648.18122593600003
 20
4668.3198090699971
 30
12.0
  0
VERTEX
  5
878
  8
DISTRICTS
 10
648.25054466199992
 20
4668.3853954300002
 30
12.0
  0
VERTEX
  5
879
  8
DISTRICTS
 10
648.289673365
 20
4668.4200477300001
 30
12.0
  0
VERTEX
  5
87A
  8
DISTRICTS
 10
648.35076252699992
 20
4668.470973309998
 30
12.0
  0
VERTEX
  5
87B
  8
DISTRICTS
 10
648.41848351099975
 20
4668.5202863999984
 30
12.0
  0
VERTEX
  5
87C
  8
DISTRICTS
 10
648.45098039199991
 20
4668.5439492699998
 30
12.0
  0
VERTEX
  5
87D
  8
DISTRICTS
 10
648.55119825700001
 20
4668.6064926700001
 30
12.0
  0
VERTEX
  5
87E
  8
DISTRICTS
 10
648.57901957800004
 20
4668.6205250599969
 30
12.0
  0
VERTEX
  5
87F
  8
DISTRICTS
 10
648.651416122
 20
4668.6629636500002
 30
12.0
  0
VERTEX
  5
880
  8
DISTRICTS
 10
648.75163398699988
 20
4668.7116291000002
 30
12.0
  0
VERTEX
  5
881
  8
DISTRICTS
 10
648.77468067500001
 20
4668.7207637199981
 30
12.0
  0
VERTEX
  5
882
  8
DISTRICTS
 10
648.85185185199998
 20
4668.7703161899981
 30
12.0
  0
VERTEX
  5
883
  8
DISTRICTS
 10
648.92226045199993
 20
4668.8210023900001
 30
12.0
  0
VERTEX
  5
884
  8
DISTRICTS
 10
648.93662847899986
 20
4668.9212410500004
 30
12.0
  0
VERTEX
  5
885
  8
DISTRICTS
 10
648.909494032
 20
4669.0214797099989
 30
12.0
  0
VERTEX
  5
886
  8
DISTRICTS
 10
648.89242603699995
 20
4669.1217183799999
 30
12.0
  0
VERTEX
  5
887
  8
DISTRICTS
 10
648.89837952100004
 20
4669.2219570400002
 30
12.0
  0
VERTEX
  5
888
  8
DISTRICTS
 10
648.94010784400007
 20
4669.3221956999996
 30
12.0
  0
VERTEX
  5
889
  8
DISTRICTS
 10
648.95206971699963
 20
4669.336882589997
 30
12.0
  0
VERTEX
  5
88A
  8
DISTRICTS
 10
649.02417512400007
 20
4669.4224343699998
 30
12.0
  0
VERTEX
  5
88B
  8
DISTRICTS
 10
649.05228758199985
 20
4669.4431702399997
 30
12.0
  0
VERTEX
  5
88C
  8
DISTRICTS
 10
649.15250544699995
 20
4669.4863054500001
 30
12.0
  0
VERTEX
  5
88D
  8
DISTRICTS
 10
649.25272331199994
 20
4669.48157997
 30
12.0
  0
VERTEX
  5
88E
  8
DISTRICTS
 10
649.34020375300008
 20
4669.4224343699998
 30
12.0
  0
VERTEX
  5
88F
  8
DISTRICTS
 10
649.35294117599994
 20
4669.4072427700003
 30
12.0
  0
VERTEX
  5
890
  8
DISTRICTS
 10
649.41735296699994
 20
4669.3221956999996
 30
12.0
  0
VERTEX
  5
891
  8
DISTRICTS
 10
649.43879501000004
 20
4669.2219570400002
 30
12.0
  0
VERTEX
  5
892
  8
DISTRICTS
 10
649.43547088399976
 20
4669.1217183799999
 30
12.0
  0
VERTEX
  5
893
  8
DISTRICTS
 10
649.407096486
 20
4669.0214797099989
 30
12.0
  0
VERTEX
  5
894
  8
DISTRICTS
 10
649.35364689400001
 20
4668.9212410500004
 30
12.0
  0
VERTEX
  5
895
  8
DISTRICTS
 10
649.30245793999995
 20
4668.8210023900001
 30
12.0
  0
VERTEX
  5
896
  8
DISTRICTS
 10
649.32782546799967
 20
4668.7207637199981
 30
12.0
  0
VERTEX
  5
897
  8
DISTRICTS
 10
649.35294117599994
 20
4668.6960429500004
 30
12.0
  0
VERTEX
  5
898
  8
DISTRICTS
 10
649.41394659900004
 20
4668.6205250599969
 30
12.0
  0
VERTEX
  5
899
  8
DISTRICTS
 10
649.45315904099994
 20
4668.5832444799989
 30
12.0
  0
VERTEX
  5
89A
  8
DISTRICTS
 10
649.51037993399996
 20
4668.5202863999984
 30
12.0
  0
VERTEX
  5
89B
  8
DISTRICTS
 10
649.55337690600004
 20
4668.4718003399994
 30
12.0
  0
VERTEX
  5
89C
  8
DISTRICTS
 10
649.59669223000003
 20
4668.4200477300001
 30
12.0
  0
VERTEX
  5
89D
  8
DISTRICTS
 10
649.65359477100003
 20
4668.3365225699999
 30
12.0
  0
VERTEX
  5
89E
  8
DISTRICTS
 10
649.66550079999945
 20
4668.3198090699971
 30
12.0
  0
VERTEX
  5
89F
  8
DISTRICTS
 10
649.720788922
 20
4668.2195704100004
 30
12.0
  0
VERTEX
  5
8A0
  8
DISTRICTS
 10
649.75354211000001
 20
4668.1193317400002
 30
12.0
  0
VERTEX
  5
8A1
  8
DISTRICTS
 10
649.775740799
 20
4668.0190930799999
 30
12.0
  0
VERTEX
  5
8A2
  8
DISTRICTS
 10
649.77960918099996
 20
4667.9188544199978
 30
12.0
  0
VERTEX
  5
8A3
  8
DISTRICTS
 10
649.76728670599994
 20
4667.8186157500004
 30
12.0
  0
VERTEX
  5
8A4
  8
DISTRICTS
 10
649.75381263600002
 20
4667.7706281399996
 30
12.0
  0
VERTEX
  5
8A5
  8
DISTRICTS
 10
649.74288504900005
 20
4667.7183770899992
 30
12.0
  0
VERTEX
  5
8A6
  8
DISTRICTS
 10
649.70828267199977
 20
4667.618138419999
 30
12.0
  0
VERTEX
  5
8A7
  8
DISTRICTS
 10
649.65715066199994
 20
4667.5178997599987
 30
12.0
  0
VERTEX
  5
8A8
  8
DISTRICTS
 10
649.599499885
 20
4667.4176611000003
 30
12.0
  0
VERTEX
  5
8A9
  8
DISTRICTS
 10
649.55337690600004
 20
4667.3541781699996
 30
12.0
  0
VERTEX
  5
8AA
  8
DISTRICTS
 10
649.52748739699985
 20
4667.3174224300001
 30
12.0
  0
VERTEX
  5
8AB
  8
DISTRICTS
 10
649.45315904099994
 20
4667.2271683400013
 30
12.0
  0
VERTEX
  5
8AC
  8
DISTRICTS
 10
649.44480153999984
 20
4667.2171837699998
 30
12.0
  0
VERTEX
  5
8AD
  8
DISTRICTS
 10
649.35447452599999
 20
4667.1169451100004
 30
12.0
  0
VERTEX
  5
8AE
  8
DISTRICTS
 10
649.260485926
 20
4667.0167064400002
 30
12.0
  0
VERTEX
  5
8AF
  8
DISTRICTS
 10
649.25272331199994
 20
4667.0086266099997
 30
12.0
  0
VERTEX
  5
8B0
  8
DISTRICTS
 10
649.166172448
 20
4666.9164677799999
 30
12.0
  0
VERTEX
  5
8B1
  8
DISTRICTS
 10
649.15250544699995
 20
4666.9022772400012
 30
12.0
  0
VERTEX
  5
8B2
  8
DISTRICTS
 10
649.07290614299995
 20
4666.8162291199997
 30
12.0
  0
VERTEX
  5
8B3
  8
DISTRICTS
 10
649.05228758199985
 20
4666.7949546700002
 30
12.0
  0
VERTEX
  5
8B4
  8
DISTRICTS
 10
648.97863983499985
 20
4666.7159904500013
 30
12.0
  0
VERTEX
  5
8B5
  8
DISTRICTS
 10
648.95206971699963
 20
4666.6894348100022
 30
12.0
  0
VERTEX
  5
8B6
  8
DISTRICTS
 10
648.87931014799995
 20
4666.6157517900001
 30
12.0
  0
VERTEX
  5
8B7
  8
DISTRICTS
 10
648.85185185199998
 20
4666.5900434300002
 30
12.0
  0
VERTEX
  5
8B8
  8
DISTRICTS
 10
648.769594149
 20
4666.5155131299998
 30
12.0
  0
VERTEX
  5
8B9
  8
DISTRICTS
 10
648.75163398699988
 20
4666.5001868600002
 30
12.0
  0
VERTEX
  5
8BA
  8
DISTRICTS
 10
648.651416122
 20
4666.4210548700003
 30
12.0
  0
VERTEX
  5
8BB
  8
DISTRICTS
 10
648.64316265199989
 20
4666.4152744599987
 30
12.0
  0
VERTEX
  5
8BC
  8
DISTRICTS
 10
648.55119825700001
 20
4666.34958878
 30
12.0
  0
VERTEX
  5
8BD
  8
DISTRICTS
 10
648.49294873300005
 20
4666.3150358000003
 30
12.0
  0
VERTEX
  5
8BE
  8
DISTRICTS
 10
648.45098039199991
 20
4666.2870099399979
 30
12.0
  0
VERTEX
  5
8BF
  8
DISTRICTS
 10
648.35076252699992
 20
4666.2267322500002
 30
12.0
  0
VERTEX
  5
8C0
  8
DISTRICTS
 10
648.32978363400002
 20
4666.21479714
 30
12.0
  0
VERTEX
  5
8C1
  8
DISTRICTS
 10
648.25054466199992
 20
4666.1517176899997
 30
12.0
  0
VERTEX
  5
8C2
  8
DISTRICTS
 10
648.21355863099996
 20
4666.1145584699998
 30
12.0
  0
VERTEX
  5
8C3
  8
DISTRICTS
 10
648.15181519099986
 20
4666.0143198100004
 30
12.0
  0
VERTEX
  5
8C4
  8
DISTRICTS
 10
648.12233050600003
 20
4665.9140811500001
 30
12.0
  0
VERTEX
  5
8C5
  8
DISTRICTS
 10
648.09946902499996
 20
4665.8138424799999
 30
12.0
  0
VERTEX
  5
8C6
  8
DISTRICTS
 10
648.06868709800005
 20
4665.7136038199997
 30
12.0
  0
VERTEX
  5
8C7
  8
DISTRICTS
 10
648.05010893199994
 20
4665.6761945199978
 30
12.0
  0
VERTEX
  5
8C8
  8
DISTRICTS
 10
648.02754843800005
 20
4665.6133651600003
 30
12.0
  0
VERTEX
  5
8C9
  8
DISTRICTS
 10
647.96016111500001
 20
4665.5131264900001
 30
12.0
  0
VERTEX
  5
8CA
  8
DISTRICTS
 10
647.94989106800006
 20
4665.5022524599999
 30
12.0
  0
VERTEX
  5
8CB
  8
DISTRICTS
 10
647.85456716500005
 20
4665.4128878299998
 30
12.0
  0
VERTEX
  5
8CC
  8
DISTRICTS
 10
647.74945533799996
 20
4665.3497733000004
 30
12.0
  0
VERTEX
  5
8CD
  8
DISTRICTS
 10
647.64923747300008
 20
4665.3217379300022
 30
12.0
  0
VERTEX
  5
8CE
  8
DISTRICTS
 10
647.54901960799987
 20
4665.3155501799984
 30
12.0
  0
VERTEX
  5
8CF
  8
DISTRICTS
 10
647.44880174299965
 20
4665.3283244999984
 30
12.0
  0
VERTEX
  5
8D0
  8
DISTRICTS
 10
647.348583878
 20
4665.3788889699999
 30
12.0
  0
SEQEND
  5
8D1
  8
DISTRICTS
  0
POLYLINE
  5
2C
  8
DISTRICTS
 66
     1
 10
0.0
 20
0.0
 30
13.0
 70
     1
  0
VERTEX
  5
8D2
  8
DISTRICTS
 10
651.25636089199975
 20
4667.4176611000003
 30
13.0
  0
VERTEX
  5
8D3
  8
DISTRICTS
 10
651.1568627449999
 20
4667.4488595000012
 30
13.0
  0
VERTEX
  5
8D4
  8
DISTRICTS
 10
651.05664488000002
 20
4667.4929895900023
 30
13.0
  0
VERTEX
  5
8D5
  8
DISTRICTS
 10
651.00951619699993
 20
4667.5178997599987
 30
13.0
  0
VERTEX
  5
8D6
  8
DISTRICTS
 10
650.95642701500003
 20
4667.5488186599996
 30
13.0
  0
VERTEX
  5
8D7
  8
DISTRICTS
 10
650.85729982800001
 20
4667.618138419999
 30
13.0
  0
VERTEX
  5
8D8
  8
DISTRICTS
 10
650.75599128500005
 20
4667.70632802
 30
13.0
  0
VERTEX
  5
8D9
  8
DISTRICTS
 10
650.74239826400003
 20
4667.7183770899992
 30
13.0
  0
VERTEX
  5
8DA
  8
DISTRICTS
 10
650.65609669200001
 20
4667.8186157500004
 30
13.0
  0
VERTEX
  5
8DB
  8
DISTRICTS
 10
650.58615432199986
 20
4667.9188544199978
 30
13.0
  0
VERTEX
  5
8DC
  8
DISTRICTS
 10
650.55555555599994
 20
4667.9888818500003
 30
13.0
  0
VERTEX
  5
8DD
  8
DISTRICTS
 10
650.53953256499994
 20
4668.0190930799999
 30
13.0
  0
VERTEX
  5
8DE
  8
DISTRICTS
 10
650.50758588799965
 20
4668.1193317400002
 30
13.0
  0
VERTEX
  5
8DF
  8
DISTRICTS
 10
650.49505018599984
 20
4668.2195704100004
 30
13.0
  0
VERTEX
  5
8E0
  8
DISTRICTS
 10
650.49856938800008
 20
4668.3198090699971
 30
13.0
  0
VERTEX
  5
8E1
  8
DISTRICTS
 10
650.51743057600004
 20
4668.4200477300001
 30
13.0
  0
VERTEX
  5
8E2
  8
DISTRICTS
 10
650.55320887000005
 20
4668.5202863999984
 30
13.0
  0
VERTEX
  5
8E3
  8
DISTRICTS
 10
650.59629080000002
 20
4668.6205250599969
 30
13.0
  0
VERTEX
  5
8E4
  8
DISTRICTS
 10
650.65577341999995
 20
4668.7138463999991
 30
13.0
  0
VERTEX
  5
8E5
  8
DISTRICTS
 10
650.73508328100002
 20
4668.8210023900001
 30
13.0
  0
VERTEX
  5
8E6
  8
DISTRICTS
 10
650.75599128500005
 20
4668.8425196300004
 30
13.0
  0
VERTEX
  5
8E7
  8
DISTRICTS
 10
650.83225893700001
 20
4668.9212410500004
 30
13.0
  0
VERTEX
  5
8E8
  8
DISTRICTS
 10
650.85620915000004
 20
4668.9414276199996
 30
13.0
  0
VERTEX
  5
8E9
  8
DISTRICTS
 10
650.95642701500003
 20
4669.0191911600023
 30
13.0
  0
VERTEX
  5
8EA
  8
DISTRICTS
 10
651.05664488000002
 20
4669.0823687399979
 30
13.0
  0
VERTEX
  5
8EB
  8
DISTRICTS
 10
651.13868415699994
 20
4669.1217183799999
 30
13.0
  0
VERTEX
  5
8EC
  8
DISTRICTS
 10
651.1568627449999
 20
4669.13012359
 30
13.0
  0
VERTEX
  5
8ED
  8
DISTRICTS
 10
651.25708061
 20
4669.1683807400004
 30
13.0
  0
VERTEX
  5
8EE
  8
DISTRICTS
 10
651.35729847499965
 20
4669.1941055500001
 30
13.0
  0
VERTEX
  5
8EF
  8
DISTRICTS
 10
651.45751633999987
 20
4669.2089034999999
 30
13.0
  0
VERTEX
  5
8F0
  8
DISTRICTS
 10
651.55773420499997
 20
4669.2139774899997
 30
13.0
  0
VERTEX
  5
8F1
  8
DISTRICTS
 10
651.65795206999985
 20
4669.2097710400021
 30
13.0
  0
VERTEX
  5
8F2
  8
DISTRICTS
 10
651.75816993499996
 20
4669.1956885500003
 30
13.0
  0
VERTEX
  5
8F3
  8
DISTRICTS
 10
651.85838779999995
 20
4669.1699243599996
 30
13.0
  0
VERTEX
  5
8F4
  8
DISTRICTS
 10
651.95860566399995
 20
4669.1294069599981
 30
13.0
  0
VERTEX
  5
8F5
  8
DISTRICTS
 10
651.97298506200002
 20
4669.1217183799999
 30
13.0
  0
VERTEX
  5
8F6
  8
DISTRICTS
 10
652.05882352900005
 20
4669.0782970299997
 30
13.0
  0
VERTEX
  5
8F7
  8
DISTRICTS
 10
652.13893938299975
 20
4669.0214797099989
 30
13.0
  0
VERTEX
  5
8F8
  8
DISTRICTS
 10
652.15904139400004
 20
4669.00682581
 30
13.0
  0
VERTEX
  5
8F9
  8
DISTRICTS
 10
652.25112001399998
 20
4668.9212410500004
 30
13.0
  0
VERTEX
  5
8FA
  8
DISTRICTS
 10
652.25925925900003
 20
4668.9126092500001
 30
13.0
  0
VERTEX
  5
8FB
  8
DISTRICTS
 10
652.33434162100002
 20
4668.8210023900001
 30
13.0
  0
VERTEX
  5
8FC
  8
DISTRICTS
 10
652.35947712399991
 20
4668.7816674999976
 30
13.0
  0
VERTEX
  5
8FD
  8
DISTRICTS
 10
652.39676004199976
 20
4668.7207637199981
 30
13.0
  0
VERTEX
  5
8FE
  8
DISTRICTS
 10
652.44196196300004
 20
4668.6205250599969
 30
13.0
  0
VERTEX
  5
8FF
  8
DISTRICTS
 10
652.45969498900001
 20
4668.562119549998
 30
13.0
  0
VERTEX
  5
900
  8
DISTRICTS
 10
652.47359422399995
 20
4668.5202863999984
 30
13.0
  0
VERTEX
  5
901
  8
DISTRICTS
 10
652.49457071099994
 20
4668.4200477300001
 30
13.0
  0
VERTEX
  5
902
  8
DISTRICTS
 10
652.50314244399976
 20
4668.3198090699971
 30
13.0
  0
VERTEX
  5
903
  8
DISTRICTS
 10
652.50015421499995
 20
4668.2195704100004
 30
13.0
  0
VERTEX
  5
904
  8
DISTRICTS
 10
652.48527260499975
 20
4668.1193317400002
 30
13.0
  0
VERTEX
  5
905
  8
DISTRICTS
 10
652.45969498900001
 20
4668.0279081999997
 30
13.0
  0
VERTEX
  5
906
  8
DISTRICTS
 10
652.42036664399996
 20
4667.9188544199978
 30
13.0
  0
VERTEX
  5
907
  8
DISTRICTS
 10
652.36455005899995
 20
4667.8186157500004
 30
13.0
  0
VERTEX
  5
908
  8
DISTRICTS
 10
652.29292550399998
 20
4667.7183770899992
 30
13.0
  0
VERTEX
  5
909
  8
DISTRICTS
 10
652.25925925900003
 20
4667.680183389999
 30
13.0
  0
VERTEX
  5
90A
  8
DISTRICTS
 10
652.19510671199976
 20
4667.618138419999
 30
13.0
  0
VERTEX
  5
90B
  8
DISTRICTS
 10
652.15904139400004
 20
4667.5865350399981
 30
13.0
  0
VERTEX
  5
90C
  8
DISTRICTS
 10
652.05882352900005
 20
4667.5180886500002
 30
13.0
  0
VERTEX
  5
90D
  8
DISTRICTS
 10
651.95860566399995
 20
4667.4628789400003
 30
13.0
  0
VERTEX
  5
90E
  8
DISTRICTS
 10
651.85838779999995
 20
4667.42570746
 30
13.0
  0
VERTEX
  5
90F
  8
DISTRICTS
 10
651.825634487
 20
4667.4176611000003
 30
13.0
  0
VERTEX
  5
910
  8
DISTRICTS
 10
651.75816993499996
 20
4667.3981707800003
 30
13.0
  0
VERTEX
  5
911
  8
DISTRICTS
 10
651.65795206999985
 20
4667.3813242200004
 30
13.0
  0
VERTEX
  5
912
  8
DISTRICTS
 10
651.55773420499997
 20
4667.3752569500002
 30
13.0
  0
VERTEX
  5
913
  8
DISTRICTS
 10
651.45751633999987
 20
4667.379153439997
 30
13.0
  0
VERTEX
  5
914
  8
DISTRICTS
 10
651.35729847499965
 20
4667.3930162400011
 30
13.0
  0
SEQEND
  5
915
  8
DISTRICTS
  0
POLYLINE
  5
2D
  8
DISTRICTS
 66
     1
 10
0.0
 20
0.0
 30
4.0
 70
     1
  0
VERTEX
  5
916
  8
DISTRICTS
 10
650.71910218400001
 20
4681.9522673000001
 30
4.0
  0
VERTEX
  5
917
  8
DISTRICTS
 10
650.65577341999995
 20
4681.9658253500002
 30
4.0
  0
VERTEX
  5
918
  8
DISTRICTS
 10
650.55555555599994
 20
4681.997049489999
 30
4.0
  0
VERTEX
  5
919
  8
DISTRICTS
 10
650.45533769099995
 20
4682.0405991600001
 30
4.0
  0
VERTEX
  5
91A
  8
DISTRICTS
 10
650.43227779300003
 20
4682.0525059700003
 30
4.0
  0
VERTEX
  5
91B
  8
DISTRICTS
 10
650.35511982599985
 20
4682.0938776200001
 30
4.0
  0
VERTEX
  5
91C
  8
DISTRICTS
 10
650.26722001199994
 20
4682.152744629997
 30
4.0
  0
VERTEX
  5
91D
  8
DISTRICTS
 10
650.25490196099986
 20
4682.1614153
 30
4.0
  0
VERTEX
  5
91E
  8
DISTRICTS
 10
650.15468409599976
 20
4682.2439400699996
 30
4.0
  0
VERTEX
  5
91F
  8
DISTRICTS
 10
650.14509621299976
 20
4682.25298329
 30
4.0
  0
VERTEX
  5
920
  8
DISTRICTS
 10
650.05661401999998
 20
4682.3532219600002
 30
4.0
  0
VERTEX
  5
921
  8
DISTRICTS
 10
649.99306064699999
 20
4682.4534606200004
 30
4.0
  0
VERTEX
  5
922
  8
DISTRICTS
 10
649.95424836599989
 20
4682.5432839799978
 30
4.0
  0
VERTEX
  5
923
  8
DISTRICTS
 10
649.94914947099994
 20
4682.553699279998
 30
4.0
  0
VERTEX
  5
924
  8
DISTRICTS
 10
649.91162748500017
 20
4682.6539379499991
 30
4.0
  0
VERTEX
  5
925
  8
DISTRICTS
 10
649.886714944
 20
4682.7541766100003
 30
4.0
  0
VERTEX
  5
926
  8
DISTRICTS
 10
649.87254656300001
 20
4682.8544152699969
 30
4.0
  0
VERTEX
  5
927
  8
DISTRICTS
 10
649.86799279699994
 20
4682.9546539399998
 30
4.0
  0
VERTEX
  5
928
  8
DISTRICTS
 10
649.87264718800009
 20
4683.054892600001
 30
4.0
  0
VERTEX
  5
929
  8
DISTRICTS
 10
649.88690303500005
 20
4683.1551312600004
 30
4.0
  0
VERTEX
  5
92A
  8
DISTRICTS
 10
649.91199412200001
 20
4683.2553699299997
 30
4.0
  0
VERTEX
  5
92B
  8
DISTRICTS
 10
649.95001161300002
 20
4683.35560859
 30
4.0
  0
VERTEX
  5
92C
  8
DISTRICTS
 10
649.99601860500002
 20
4683.4558472600002
 30
4.0
  0
VERTEX
  5
92D
  8
DISTRICTS
 10
650.05446623099999
 20
4683.5487415899997
 30
4.0
  0
VERTEX
  5
92E
  8
DISTRICTS
 10
650.13548944299998
 20
4683.6563245799998
 30
4.0
  0
VERTEX
  5
92F
  8
DISTRICTS
 10
650.15468409599976
 20
4683.6771271500011
 30
4.0
  0
VERTEX
  5
930
  8
DISTRICTS
 10
650.23314405699989
 20
4683.75656325
 30
4.0
  0
VERTEX
  5
931
  8
DISTRICTS
 10
650.25490196099986
 20
4683.77562837
 30
4.0
  0
VERTEX
  5
932
  8
DISTRICTS
 10
650.35511982599985
 20
4683.8535979400003
 30
4.0
  0
VERTEX
  5
933
  8
DISTRICTS
 10
650.45533769099995
 20
4683.9181584099997
 30
4.0
  0
VERTEX
  5
934
  8
DISTRICTS
 10
650.53122048699993
 20
4683.9570405699988
 30
4.0
  0
VERTEX
  5
935
  8
DISTRICTS
 10
650.55555555599994
 20
4683.9692217099991
 30
4.0
  0
VERTEX
  5
936
  8
DISTRICTS
 10
650.65577341999995
 20
4684.0122133699988
 30
4.0
  0
VERTEX
  5
937
  8
DISTRICTS
 10
650.75599128500005
 20
4684.0451071699999
 30
4.0
  0
VERTEX
  5
938
  8
DISTRICTS
 10
650.80321563500002
 20
4684.0572792399998
 30
4.0
  0
VERTEX
  5
939
  8
DISTRICTS
 10
650.85620915000004
 20
4684.0717255999989
 30
4.0
  0
VERTEX
  5
93A
  8
DISTRICTS
 10
650.95642701500003
 20
4684.0927739999979
 30
4.0
  0
VERTEX
  5
93B
  8
DISTRICTS
 10
651.05664488000002
 20
4684.107683039997
 30
4.0
  0
VERTEX
  5
93C
  8
DISTRICTS
 10
651.1568627449999
 20
4684.1173866099998
 30
4.0
  0
VERTEX
  5
93D
  8
DISTRICTS
 10
651.25708061
 20
4684.1224903800003
 30
4.0
  0
VERTEX
  5
93E
  8
DISTRICTS
 10
651.35729847499965
 20
4684.1231674399996
 30
4.0
  0
VERTEX
  5
93F
  8
DISTRICTS
 10
651.45751633999987
 20
4684.1190151500023
 30
4.0
  0
VERTEX
  5
940
  8
DISTRICTS
 10
651.55773420499997
 20
4684.1088421100003
 30
4.0
  0
VERTEX
  5
941
  8
DISTRICTS
 10
651.65795206999985
 20
4684.0902790999999
 30
4.0
  0
VERTEX
  5
942
  8
DISTRICTS
 10
651.75816993499996
 20
4684.0591023200004
 30
4.0
  0
VERTEX
  5
943
  8
DISTRICTS
 10
651.85838779999995
 20
4684.0200761200003
 30
4.0
  0
VERTEX
  5
944
  8
DISTRICTS
 10
651.95433235400003
 20
4683.9570405699988
 30
4.0
  0
VERTEX
  5
945
  8
DISTRICTS
 10
652.05882352900005
 20
4683.8577807700003
 30
4.0
  0
VERTEX
  5
946
  8
DISTRICTS
 10
652.12858430999995
 20
4683.75656325
 30
4.0
  0
VERTEX
  5
947
  8
DISTRICTS
 10
652.15904139400004
 20
4683.6772546000002
 30
4.0
  0
VERTEX
  5
948
  8
DISTRICTS
 10
652.16817919200003
 20
4683.6563245799998
 30
4.0
  0
VERTEX
  5
949
  8
DISTRICTS
 10
652.19454296200001
 20
4683.5560859200023
 30
4.0
  0
VERTEX
  5
94A
  8
DISTRICTS
 10
652.20540315699975
 20
4683.4558472600002
 30
4.0
  0
VERTEX
  5
94B
  8
DISTRICTS
 10
652.20523913699992
 20
4683.35560859
 30
4.0
  0
VERTEX
  5
94C
  8
DISTRICTS
 10
652.19682886999999
 20
4683.2553699299997
 30
4.0
  0
VERTEX
  5
94D
  8
DISTRICTS
 10
652.1820215099998
 20
4683.1551312600004
 30
4.0
  0
VERTEX
  5
94E
  8
DISTRICTS
 10
652.16181857900006
 20
4683.054892600001
 30
4.0
  0
VERTEX
  5
94F
  8
DISTRICTS
 10
652.15904139400004
 20
4683.0434139099998
 30
4.0
  0
VERTEX
  5
950
  8
DISTRICTS
 10
652.13917111900003
 20
4682.9546539399998
 30
4.0
  0
VERTEX
  5
951
  8
DISTRICTS
 10
652.11126045699984
 20
4682.8544152699969
 30
4.0
  0
VERTEX
  5
952
  8
DISTRICTS
 10
652.07613031800008
 20
4682.7541766100003
 30
4.0
  0
VERTEX
  5
953
  8
DISTRICTS
 10
652.05882352900005
 20
4682.7132144200004
 30
4.0
  0
VERTEX
  5
954
  8
DISTRICTS
 10
652.03505915400001
 20
4682.6539379499991
 30
4.0
  0
VERTEX
  5
955
  8
DISTRICTS
 10
651.98485007099998
 20
4682.553699279998
 30
4.0
  0
VERTEX
  5
956
  8
DISTRICTS
 10
651.95860566399995
 20
4682.5101759199997
 30
4.0
  0
VERTEX
  5
957
  8
DISTRICTS
 10
651.92408080600001
 20
4682.4534606200004
 30
4.0
  0
VERTEX
  5
958
  8
DISTRICTS
 10
651.85838779999995
 20
4682.3653289200001
 30
4.0
  0
VERTEX
  5
959
  8
DISTRICTS
 10
651.848768533
 20
4682.3532219600002
 30
4.0
  0
VERTEX
  5
95A
  8
DISTRICTS
 10
651.75816993499996
 20
4682.2548938999998
 30
4.0
  0
VERTEX
  5
95B
  8
DISTRICTS
 10
651.65795206999985
 20
4682.1669416499999
 30
4.0
  0
VERTEX
  5
95C
  8
DISTRICTS
 10
651.63810110099996
 20
4682.152744629997
 30
4.0
  0
VERTEX
  5
95D
  8
DISTRICTS
 10
651.55773420499997
 20
4682.0962295199988
 30
4.0
  0
VERTEX
  5
95E
  8
DISTRICTS
 10
651.47629917400002
 20
4682.0525059700003
 30
4.0
  0
VERTEX
  5
95F
  8
DISTRICTS
 10
651.45751633999987
 20
4682.0419954600002
 30
4.0
  0
VERTEX
  5
960
  8
DISTRICTS
 10
651.35729847499965
 20
4681.9973070699998
 30
4.0
  0
VERTEX
  5
961
  8
DISTRICTS
 10
651.25708061
 20
4681.9659628600002
 30
4.0
  0
VERTEX
  5
962
  8
DISTRICTS
 10
651.19121864800002
 20
4681.9522673000001
 30
4.0
  0
VERTEX
  5
963
  8
DISTRICTS
 10
651.1568627449999
 20
4681.9439110699986
 30
4.0
  0
VERTEX
  5
964
  8
DISTRICTS
 10
651.05664488000002
 20
4681.9296801800001
 30
4.0
  0
VERTEX
  5
965
  8
DISTRICTS
 10
650.95642701500003
 20
4681.9250751999998
 30
4.0
  0
VERTEX
  5
966
  8
DISTRICTS
 10
650.85620915000004
 20
4681.9297188099999
 30
4.0
  0
VERTEX
  5
967
  8
DISTRICTS
 10
650.75599128500005
 20
4681.9438218599998
 30
4.0
  0
SEQEND
  5
968
  8
DISTRICTS
  0
POLYLINE
  5
2E
  8
DISTRICTS
 66
     1
 10
0.0
 20
0.0
 30
1.0
 70
     1
  0
VERTEX
  5
969
  8
DISTRICTS
 10
637.7421116669999
 20
4694.381861580001
 30
1.0
  0
VERTEX
  5
96A
  8
DISTRICTS
 10
637.72766884500004
 20
4694.3866094200002
 30
1.0
  0
VERTEX
  5
96B
  8
DISTRICTS
 10
637.62745098000005
 20
4694.4317197500004
 30
1.0
  0
VERTEX
  5
96C
  8
DISTRICTS
 10
637.54552988599994
 20
4694.4821002400013
 30
1.0
  0
VERTEX
  5
96D
  8
DISTRICTS
 10
637.52723311499994
 20
4694.4918628499991
 30
1.0
  0
VERTEX
  5
96E
  8
DISTRICTS
 10
637.42701525099994
 20
4694.56145664
 30
1.0
  0
VERTEX
  5
96F
  8
DISTRICTS
 10
637.40300457599994
 20
4694.5823388999997
 30
1.0
  0
VERTEX
  5
970
  8
DISTRICTS
 10
637.32679738599995
 20
4694.6464574600013
 30
1.0
  0
VERTEX
  5
971
  8
DISTRICTS
 10
637.29185969199989
 20
4694.6825775699999
 30
1.0
  0
VERTEX
  5
972
  8
DISTRICTS
 10
637.22657952099985
 20
4694.7530954800022
 30
1.0
  0
VERTEX
  5
973
  8
DISTRICTS
 10
637.20301420400006
 20
4694.7828162300002
 30
1.0
  0
VERTEX
  5
974
  8
DISTRICTS
 10
637.13221860500005
 20
4694.8830548899996
 30
1.0
  0
VERTEX
  5
975
  8
DISTRICTS
 10
637.12636165599997
 20
4694.8925139900011
 30
1.0
  0
VERTEX
  5
976
  8
DISTRICTS
 10
637.07429370599993
 20
4694.9832935599989
 30
1.0
  0
VERTEX
  5
977
  8
DISTRICTS
 10
637.03138719200001
 20
4695.0835322199991
 30
1.0
  0
VERTEX
  5
978
  8
DISTRICTS
 10
637.02614379099987
 20
4695.0991316899999
 30
1.0
  0
VERTEX
  5
979
  8
DISTRICTS
 10
636.99708549100001
 20
4695.1837708800003
 30
1.0
  0
VERTEX
  5
97A
  8
DISTRICTS
 10
636.97364207299995
 20
4695.2840095499987
 30
1.0
  0
VERTEX
  5
97B
  8
DISTRICTS
 10
636.96047437799996
 20
4695.384248209999
 30
1.0
  0
VERTEX
  5
97C
  8
DISTRICTS
 10
636.95665495499998
 20
4695.4844868699984
 30
1.0
  0
VERTEX
  5
97D
  8
DISTRICTS
 10
636.96192140999995
 20
4695.5847255400004
 30
1.0
  0
VERTEX
  5
97E
  8
DISTRICTS
 10
636.97682249800005
 20
4695.6849641999979
 30
1.0
  0
VERTEX
  5
97F
  8
DISTRICTS
 10
637.00280103399996
 20
4695.78520286
 30
1.0
  0
VERTEX
  5
980
  8
DISTRICTS
 10
637.02614379099987
 20
4695.84641483
 30
1.0
  0
VERTEX
  5
981
  8
DISTRICTS
 10
637.03937472400003
 20
4695.8854415300002
 30
1.0
  0
VERTEX
  5
982
  8
DISTRICTS
 10
637.08687456600001
 20
4695.9856801899969
 30
1.0
  0
VERTEX
  5
983
  8
DISTRICTS
 10
637.12636165599997
 20
4696.0477573199969
 30
1.0
  0
VERTEX
  5
984
  8
DISTRICTS
 10
637.15059173600002
 20
4696.0859188499999
 30
1.0
  0
VERTEX
  5
985
  8
DISTRICTS
 10
637.22657952099985
 20
4696.1786757600003
 30
1.0
  0
VERTEX
  5
986
  8
DISTRICTS
 10
637.23324026800003
 20
4696.1861575200001
 30
1.0
  0
VERTEX
  5
987
  8
DISTRICTS
 10
637.32679738599995
 20
4696.2751797800001
 30
1.0
  0
VERTEX
  5
988
  8
DISTRICTS
 10
637.34087508800008
 20
4696.2863961800003
 30
1.0
  0
VERTEX
  5
989
  8
DISTRICTS
 10
637.42701525099994
 20
4696.349923329999
 30
1.0
  0
VERTEX
  5
98A
  8
DISTRICTS
 10
637.49235842199994
 20
4696.3866348399979
 30
1.0
  0
VERTEX
  5
98B
  8
DISTRICTS
 10
637.52723311499994
 20
4696.4062274199978
 30
1.0
  0
VERTEX
  5
98C
  8
DISTRICTS
 10
637.62745098000005
 20
4696.4501197400004
 30
1.0
  0
VERTEX
  5
98D
  8
DISTRICTS
 10
637.72766884500004
 20
4696.4798306999992
 30
1.0
  0
VERTEX
  5
98E
  8
DISTRICTS
 10
637.76435613000001
 20
4696.486873509999
 30
1.0
  0
VERTEX
  5
98F
  8
DISTRICTS
 10
637.82788671000003
 20
4696.500974470001
 30
1.0
  0
VERTEX
  5
990
  8
DISTRICTS
 10
637.92810457499979
 20
4696.5127192399996
 30
1.0
  0
VERTEX
  5
991
  8
DISTRICTS
 10
638.02832244000001
 20
4696.5146294799997
 30
1.0
  0
VERTEX
  5
992
  8
DISTRICTS
 10
638.128540305
 20
4696.5070768499991
 30
1.0
  0
VERTEX
  5
993
  8
DISTRICTS
 10
638.22875816999988
 20
4696.4898254299978
 30
1.0
  0
VERTEX
  5
994
  8
DISTRICTS
 10
638.24037041600002
 20
4696.486873509999
 30
1.0
  0
VERTEX
  5
995
  8
DISTRICTS
 10
638.32897603499998
 20
4696.4657668999998
 30
1.0
  0
VERTEX
  5
996
  8
DISTRICTS
 10
638.42919389999975
 20
4696.4311971399993
 30
1.0
  0
VERTEX
  5
997
  8
DISTRICTS
 10
638.52463777699995
 20
4696.3866348399979
 30
1.0
  0
VERTEX
  5
998
  8
DISTRICTS
 10
638.62962962999995
 20
4696.3278878399979
 30
1.0
  0
VERTEX
  5
999
  8
DISTRICTS
 10
638.69096656599993
 20
4696.2863961800003
 30
1.0
  0
VERTEX
  5
99A
  8
DISTRICTS
 10
638.72984749499994
 20
4696.2558751500001
 30
1.0
  0
VERTEX
  5
99B
  8
DISTRICTS
 10
638.81071841699986
 20
4696.1861575200001
 30
1.0
  0
VERTEX
  5
99C
  8
DISTRICTS
 10
638.83006535899995
 20
4696.1652556899999
 30
1.0
  0
VERTEX
  5
99D
  8
DISTRICTS
 10
638.90300537999985
 20
4696.0859188499999
 30
1.0
  0
VERTEX
  5
99E
  8
DISTRICTS
 10
638.93028322400005
 20
4696.0456214200003
 30
1.0
  0
VERTEX
  5
99F
  8
DISTRICTS
 10
638.97366630099975
 20
4695.9856801899969
 30
1.0
  0
VERTEX
  5
9A0
  8
DISTRICTS
 10
639.02355490100001
 20
4695.8854415300002
 30
1.0
  0
VERTEX
  5
9A1
  8
DISTRICTS
 10
639.03050108900004
 20
4695.8649630099999
 30
1.0
  0
VERTEX
  5
9A2
  8
DISTRICTS
 10
639.0622100459999
 20
4695.78520286
 30
1.0
  0
VERTEX
  5
9A3
  8
DISTRICTS
 10
639.08615849499995
 20
4695.6849641999979
 30
1.0
  0
VERTEX
  5
9A4
  8
DISTRICTS
 10
639.09767936499998
 20
4695.5847255400004
 30
1.0
  0
VERTEX
  5
9A5
  8
DISTRICTS
 10
639.09912858600001
 20
4695.4844868699984
 30
1.0
  0
VERTEX
  5
9A6
  8
DISTRICTS
 10
639.091547956
 20
4695.384248209999
 30
1.0
  0
VERTEX
  5
9A7
  8
DISTRICTS
 10
639.07509546800009
 20
4695.2840095499987
 30
1.0
  0
VERTEX
  5
9A8
  8
DISTRICTS
 10
639.04935218599985
 20
4695.1837708800003
 30
1.0
  0
VERTEX
  5
9A9
  8
DISTRICTS
 10
639.03050108900004
 20
4695.1285981199999
 30
1.0
  0
VERTEX
  5
9AA
  8
DISTRICTS
 10
639.01625539899965
 20
4695.0835322199991
 30
1.0
  0
VERTEX
  5
9AB
  8
DISTRICTS
 10
638.975858894
 20
4694.9832935599989
 30
1.0
  0
VERTEX
  5
9AC
  8
DISTRICTS
 10
638.93028322400005
 20
4694.8942671799969
 30
1.0
  0
VERTEX
  5
9AD
  8
DISTRICTS
 10
638.92442251800003
 20
4694.8830548899996
 30
1.0
  0
VERTEX
  5
9AE
  8
DISTRICTS
 10
638.86559971899976
 20
4694.7828162300002
 30
1.0
  0
VERTEX
  5
9AF
  8
DISTRICTS
 10
638.83006535899995
 20
4694.7296235800004
 30
1.0
  0
VERTEX
  5
9B0
  8
DISTRICTS
 10
638.79468842199992
 20
4694.6825775699999
 30
1.0
  0
VERTEX
  5
9B1
  8
DISTRICTS
 10
638.72984749499994
 20
4694.6023802600002
 30
1.0
  0
VERTEX
  5
9B2
  8
DISTRICTS
 10
638.71022326100001
 20
4694.5823388999997
 30
1.0
  0
VERTEX
  5
9B3
  8
DISTRICTS
 10
638.62962962999995
 20
4694.4996758999996
 30
1.0
  0
VERTEX
  5
9B4
  8
DISTRICTS
 10
638.60698366199995
 20
4694.4821002400013
 30
1.0
  0
VERTEX
  5
9B5
  8
DISTRICTS
 10
638.52941176499985
 20
4694.4167341599978
 30
1.0
  0
VERTEX
  5
9B6
  8
DISTRICTS
 10
638.46759075
 20
4694.381861580001
 30
1.0
  0
VERTEX
  5
9B7
  8
DISTRICTS
 10
638.42919389999975
 20
4694.3563148800004
 30
1.0
  0
VERTEX
  5
9B8
  8
DISTRICTS
 10
638.32897603499998
 20
4694.3148860600004
 30
1.0
  0
VERTEX
  5
9B9
  8
DISTRICTS
 10
638.22875816999988
 20
4694.295349349999
 30
1.0
  0
VERTEX
  5
9BA
  8
DISTRICTS
 10
638.128540305
 20
4694.2909305200001
 30
1.0
  0
VERTEX
  5
9BB
  8
DISTRICTS
 10
638.02832244000001
 20
4694.29833736
 30
1.0
  0
VERTEX
  5
9BC
  8
DISTRICTS
 10
637.92810457499979
 20
4694.3164566400001
 30
1.0
  0
VERTEX
  5
9BD
  8
DISTRICTS
 10
637.82788671000003
 20
4694.34576328
 30
1.0
  0
SEQEND
  5
9BE
  8
DISTRICTS
  0
POLYLINE
  5
2F
  8
DISTRICTS
 66
     1
 10
0.0
 20
0.0
 30
2.0
 70
     1
  0
VERTEX
  5
9BF
  8
DISTRICTS
 10
641.00243962399975
 20
4695.78520286
 30
2.0
  0
VERTEX
  5
9C0
  8
DISTRICTS
 10
640.93464052299987
 20
4695.7926379800001
 30
2.0
  0
VERTEX
  5
9C1
  8
DISTRICTS
 10
640.83442265799965
 20
4695.8005048000023
 30
2.0
  0
VERTEX
  5
9C2
  8
DISTRICTS
 10
640.734204793
 20
4695.8044358500001
 30
2.0
  0
VERTEX
  5
9C3
  8
DISTRICTS
 10
640.6339869279999
 20
4695.8052425200003
 30
2.0
  0
VERTEX
  5
9C4
  8
DISTRICTS
 10
640.53376906300002
 20
4695.80624076
 30
2.0
  0
VERTEX
  5
9C5
  8
DISTRICTS
 10
640.43355119800003
 20
4695.8133280599977
 30
2.0
  0
VERTEX
  5
9C6
  8
DISTRICTS
 10
640.33333333300004
 20
4695.8342577499989
 30
2.0
  0
VERTEX
  5
9C7
  8
DISTRICTS
 10
640.23311546800005
 20
4695.8776095399999
 30
2.0
  0
VERTEX
  5
9C8
  8
DISTRICTS
 10
640.21977579799977
 20
4695.8854415300002
 30
2.0
  0
VERTEX
  5
9C9
  8
DISTRICTS
 10
640.13289760300006
 20
4695.9397304599997
 30
2.0
  0
VERTEX
  5
9CA
  8
DISTRICTS
 10
640.07971719800003
 20
4695.9856801899969
 30
2.0
  0
VERTEX
  5
9CB
  8
DISTRICTS
 10
640.03267973899995
 20
4696.0385646000022
 30
2.0
  0
VERTEX
  5
9CC
  8
DISTRICTS
 10
639.99377513000002
 20
4696.0859188499999
 30
2.0
  0
VERTEX
  5
9CD
  8
DISTRICTS
 10
639.93723940500001
 20
4696.1861575200001
 30
2.0
  0
VERTEX
  5
9CE
  8
DISTRICTS
 10
639.93246187399996
 20
4696.1978268999992
 30
2.0
  0
VERTEX
  5
9CF
  8
DISTRICTS
 10
639.89364711199994
 20
4696.2863961800003
 30
2.0
  0
VERTEX
  5
9D0
  8
DISTRICTS
 10
639.86820305699985
 20
4696.3866348399979
 30
2.0
  0
VERTEX
  5
9D1
  8
DISTRICTS
 10
639.85933345199999
 20
4696.486873509999
 30
2.0
  0
VERTEX
  5
9D2
  8
DISTRICTS
 10
639.8685810909999
 20
4696.5871121700002
 30
2.0
  0
VERTEX
  5
9D3
  8
DISTRICTS
 10
639.90032228799998
 20
4696.6873508400004
 30
2.0
  0
VERTEX
  5
9D4
  8
DISTRICTS
 10
639.93246187399996
 20
4696.7553202899999
 30
2.0
  0
VERTEX
  5
9D5
  8
DISTRICTS
 10
639.94655787199997
 20
4696.7875894999997
 30
2.0
  0
VERTEX
  5
9D6
  8
DISTRICTS
 10
639.99879942699988
 20
4696.88782816
 30
2.0
  0
VERTEX
  5
9D7
  8
DISTRICTS
 10
640.03267973899995
 20
4696.9431320699987
 30
2.0
  0
VERTEX
  5
9D8
  8
DISTRICTS
 10
640.05885451999995
 20
4696.9880668300002
 30
2.0
  0
VERTEX
  5
9D9
  8
DISTRICTS
 10
640.12676287099998
 20
4697.0883054899996
 30
2.0
  0
VERTEX
  5
9DA
  8
DISTRICTS
 10
640.13289760300006
 20
4697.0969662300013
 30
2.0
  0
VERTEX
  5
9DB
  8
DISTRICTS
 10
640.19750726599989
 20
4697.1885441499999
 30
2.0
  0
VERTEX
  5
9DC
  8
DISTRICTS
 10
640.23311546800005
 20
4697.2385137499996
 30
2.0
  0
VERTEX
  5
9DD
  8
DISTRICTS
 10
640.26752168199994
 20
4697.2887828200001
 30
2.0
  0
VERTEX
  5
9DE
  8
DISTRICTS
 10
640.33157824099987
 20
4697.3890214800003
 30
2.0
  0
VERTEX
  5
9DF
  8
DISTRICTS
 10
640.38512699
 20
4697.4892601399997
 30
2.0
  0
VERTEX
  5
9E0
  8
DISTRICTS
 10
640.43355119800003
 20
4697.5647853399987
 30
2.0
  0
VERTEX
  5
9E1
  8
DISTRICTS
 10
640.44672961699985
 20
4697.5894988099999
 30
2.0
  0
VERTEX
  5
9E2
  8
DISTRICTS
 10
640.52462014599985
 20
4697.6897374700002
 30
2.0
  0
VERTEX
  5
9E3
  8
DISTRICTS
 10
640.53376906300002
 20
4697.7003072099978
 30
2.0
  0
VERTEX
  5
9E4
  8
DISTRICTS
 10
640.62373337199995
 20
4697.7899761299986
 30
2.0
  0
VERTEX
  5
9E5
  8
DISTRICTS
 10
640.6339869279999
 20
4697.8010551199977
 30
2.0
  0
VERTEX
  5
9E6
  8
DISTRICTS
 10
640.734204793
 20
4697.88774612
 30
2.0
  0
VERTEX
  5
9E7
  8
DISTRICTS
 10
640.83442265799965
 20
4697.9693042899989
 30
2.0
  0
VERTEX
  5
9E8
  8
DISTRICTS
 10
640.859691645
 20
4697.99045346
 30
2.0
  0
VERTEX
  5
9E9
  8
DISTRICTS
 10
640.93464052299987
 20
4698.0518258000002
 30
2.0
  0
VERTEX
  5
9EA
  8
DISTRICTS
 10
640.98074968499998
 20
4698.0906921200003
 30
2.0
  0
VERTEX
  5
9EB
  8
DISTRICTS
 10
641.03485838799998
 20
4698.1350524600002
 30
2.0
  0
VERTEX
  5
9EC
  8
DISTRICTS
 10
641.10228190199985
 20
4698.1909307899996
 30
2.0
  0
VERTEX
  5
9ED
  8
DISTRICTS
 10
641.13507625299997
 20
4698.2172037600003
 30
2.0
  0
VERTEX
  5
9EE
  8
DISTRICTS
 10
641.22722238699976
 20
4698.2911694499999
 30
2.0
  0
VERTEX
  5
9EF
  8
DISTRICTS
 10
641.23529411799996
 20
4698.297383449999
 30
2.0
  0
VERTEX
  5
9F0
  8
DISTRICTS
 10
641.33551198300006
 20
4698.3755075899981
 30
2.0
  0
VERTEX
  5
9F1
  8
DISTRICTS
 10
641.35579088300005
 20
4698.3914081100002
 30
2.0
  0
VERTEX
  5
9F2
  8
DISTRICTS
 10
641.43572984699995
 20
4698.4502260299996
 30
2.0
  0
VERTEX
  5
9F3
  8
DISTRICTS
 10
641.49383279000006
 20
4698.4916467800003
 30
2.0
  0
VERTEX
  5
9F4
  8
DISTRICTS
 10
641.53594771199994
 20
4698.5197581199982
 30
2.0
  0
VERTEX
  5
9F5
  8
DISTRICTS
 10
641.63616557699993
 20
4698.5827046100003
 30
2.0
  0
VERTEX
  5
9F6
  8
DISTRICTS
 10
641.65162070799988
 20
4698.5918854399988
 30
2.0
  0
VERTEX
  5
9F7
  8
DISTRICTS
 10
641.73638344199992
 20
4698.6397767600001
 30
2.0
  0
VERTEX
  5
9F8
  8
DISTRICTS
 10
641.83660130699991
 20
4698.6878511699979
 30
2.0
  0
VERTEX
  5
9F9
  8
DISTRICTS
 10
641.84649082299995
 20
4698.692124109999
 30
2.0
  0
VERTEX
  5
9FA
  8
DISTRICTS
 10
641.93681917200001
 20
4698.7305957799981
 30
2.0
  0
VERTEX
  5
9FB
  8
DISTRICTS
 10
642.037037037
 20
4698.7641462700003
 30
2.0
  0
VERTEX
  5
9FC
  8
DISTRICTS
 10
642.13725490199988
 20
4698.7877436899998
 30
2.0
  0
VERTEX
  5
9FD
  8
DISTRICTS
 10
642.16859875499995
 20
4698.7923627700002
 30
2.0
  0
VERTEX
  5
9FE
  8
DISTRICTS
 10
642.23747276699999
 20
4698.8036110800003
 30
2.0
  0
VERTEX
  5
9FF
  8
DISTRICTS
 10
642.33769063199975
 20
4698.80924349
 30
2.0
  0
VERTEX
  5
A00
  8
DISTRICTS
 10
642.43790849699985
 20
4698.8026814499999
 30
2.0
  0
VERTEX
  5
A01
  8
DISTRICTS
 10
642.48887753099984
 20
4698.7923627700002
 30
2.0
  0
VERTEX
  5
A02
  8
DISTRICTS
 10
642.53812636199984
 20
4698.7843857899979
 30
2.0
  0
VERTEX
  5
A03
  8
DISTRICTS
 10
642.63834422699995
 20
4698.7541619699996
 30
2.0
  0
VERTEX
  5
A04
  8
DISTRICTS
 10
642.73856209199994
 20
4698.7040829899988
 30
2.0
  0
VERTEX
  5
A05
  8
DISTRICTS
 10
642.75681105900003
 20
4698.692124109999
 30
2.0
  0
VERTEX
  5
A06
  8
DISTRICTS
 10
642.83877995599994
 20
4698.6368390199968
 30
2.0
  0
VERTEX
  5
A07
  8
DISTRICTS
 10
642.88949851300004
 20
4698.5918854399988
 30
2.0
  0
VERTEX
  5
A08
  8
DISTRICTS
 10
642.93899782099993
 20
4698.5404771800004
 30
2.0
  0
VERTEX
  5
A09
  8
DISTRICTS
 10
642.98033344999976
 20
4698.4916467800003
 30
2.0
  0
VERTEX
  5
A0A
  8
DISTRICTS
 10
643.03921568600003
 20
4698.3992891400012
 30
2.0
  0
VERTEX
  5
A0B
  8
DISTRICTS
 10
643.09433001299999
 20
4698.2911694499999
 30
2.0
  0
VERTEX
  5
A0C
  8
DISTRICTS
 10
643.12664097499999
 20
4698.1909307899996
 30
2.0
  0
VERTEX
  5
A0D
  8
DISTRICTS
 10
643.13943355100002
 20
4698.1263399099989
 30
2.0
  0
VERTEX
  5
A0E
  8
DISTRICTS
 10
643.14807004500005
 20
4698.0906921200003
 30
2.0
  0
VERTEX
  5
A0F
  8
DISTRICTS
 10
643.16129154299995
 20
4697.99045346
 30
2.0
  0
VERTEX
  5
A10
  8
DISTRICTS
 10
643.16559795499995
 20
4697.8902147999997
 30
2.0
  0
VERTEX
  5
A11
  8
DISTRICTS
 10
643.16331716900004
 20
4697.7899761299986
 30
2.0
  0
VERTEX
  5
A12
  8
DISTRICTS
 10
643.156630597
 20
4697.6897374700002
 30
2.0
  0
VERTEX
  5
A13
  8
DISTRICTS
 10
643.147481126
 20
4697.5894988099999
 30
2.0
  0
VERTEX
  5
A14
  8
DISTRICTS
 10
643.13943355100002
 20
4697.5099272099978
 30
2.0
  0
VERTEX
  5
A15
  8
DISTRICTS
 10
643.13746757800004
 20
4697.4892601399997
 30
2.0
  0
VERTEX
  5
A16
  8
DISTRICTS
 10
643.12779272199998
 20
4697.3890214800003
 30
2.0
  0
VERTEX
  5
A17
  8
DISTRICTS
 10
643.11757123899986
 20
4697.2887828200001
 30
2.0
  0
VERTEX
  5
A18
  8
DISTRICTS
 10
643.10614964599995
 20
4697.1885441499999
 30
2.0
  0
VERTEX
  5
A19
  8
DISTRICTS
 10
643.09252902900005
 20
4697.0883054899996
 30
2.0
  0
VERTEX
  5
A1A
  8
DISTRICTS
 10
643.075551496
 20
4696.9880668300002
 30
2.0
  0
VERTEX
  5
A1B
  8
DISTRICTS
 10
643.05397302699976
 20
4696.88782816
 30
2.0
  0
VERTEX
  5
A1C
  8
DISTRICTS
 10
643.03921568600003
 20
4696.8329785599981
 30
2.0
  0
VERTEX
  5
A1D
  8
DISTRICTS
 10
643.02808435999998
 20
4696.7875894999997
 30
2.0
  0
VERTEX
  5
A1E
  8
DISTRICTS
 10
642.99740664699993
 20
4696.6873508400004
 30
2.0
  0
VERTEX
  5
A1F
  8
DISTRICTS
 10
642.95823549799991
 20
4696.5871121700002
 30
2.0
  0
VERTEX
  5
A20
  8
DISTRICTS
 10
642.93899782099993
 20
4696.5461084799981
 30
2.0
  0
VERTEX
  5
A21
  8
DISTRICTS
 10
642.91203658999984
 20
4696.486873509999
 30
2.0
  0
VERTEX
  5
A22
  8
DISTRICTS
 10
642.85545077899985
 20
4696.3866348399979
 30
2.0
  0
VERTEX
  5
A23
  8
DISTRICTS
 10
642.83877995599994
 20
4696.3610347699969
 30
2.0
  0
VERTEX
  5
A24
  8
DISTRICTS
 10
642.78805504499985
 20
4696.2863961800003
 30
2.0
  0
VERTEX
  5
A25
  8
DISTRICTS
 10
642.73856209199994
 20
4696.2242471400004
 30
2.0
  0
VERTEX
  5
A26
  8
DISTRICTS
 10
642.70501769400005
 20
4696.1861575200001
 30
2.0
  0
VERTEX
  5
A27
  8
DISTRICTS
 10
642.63834422699995
 20
4696.1174272099988
 30
2.0
  0
VERTEX
  5
A28
  8
DISTRICTS
 10
642.60236324000005
 20
4696.0859188499999
 30
2.0
  0
VERTEX
  5
A29
  8
DISTRICTS
 10
642.53812636199984
 20
4696.0312541000003
 30
2.0
  0
VERTEX
  5
A2A
  8
DISTRICTS
 10
642.47170578600003
 20
4695.9856801899969
 30
2.0
  0
VERTEX
  5
A2B
  8
DISTRICTS
 10
642.43790849699985
 20
4695.9617334200002
 30
2.0
  0
VERTEX
  5
A2C
  8
DISTRICTS
 10
642.33769063199975
 20
4695.9043524799999
 30
2.0
  0
VERTEX
  5
A2D
  8
DISTRICTS
 10
642.29504139899996
 20
4695.8854415300002
 30
2.0
  0
VERTEX
  5
A2E
  8
DISTRICTS
 10
642.23747276699999
 20
4695.8569326299994
 30
2.0
  0
VERTEX
  5
A2F
  8
DISTRICTS
 10
642.13725490199988
 20
4695.8184533499989
 30
2.0
  0
VERTEX
  5
A30
  8
DISTRICTS
 10
642.037037037
 20
4695.7897445600001
 30
2.0
  0
VERTEX
  5
A31
  8
DISTRICTS
 10
642.01543166299996
 20
4695.78520286
 30
2.0
  0
VERTEX
  5
A32
  8
DISTRICTS
 10
641.93681917200001
 20
4695.7654869199996
 30
2.0
  0
VERTEX
  5
A33
  8
DISTRICTS
 10
641.83660130699991
 20
4695.7479396600002
 30
2.0
  0
VERTEX
  5
A34
  8
DISTRICTS
 10
641.73638344199992
 20
4695.7368694099996
 30
2.0
  0
VERTEX
  5
A35
  8
DISTRICTS
 10
641.63616557699993
 20
4695.7314670599981
 30
2.0
  0
VERTEX
  5
A36
  8
DISTRICTS
 10
641.53594771199994
 20
4695.7311247099988
 30
2.0
  0
VERTEX
  5
A37
  8
DISTRICTS
 10
641.43572984699995
 20
4695.7353077199969
 30
2.0
  0
VERTEX
  5
A38
  8
DISTRICTS
 10
641.33551198300006
 20
4695.7434159200002
 30
2.0
  0
VERTEX
  5
A39
  8
DISTRICTS
 10
641.23529411799996
 20
4695.7546363199999
 30
2.0
  0
VERTEX
  5
A3A
  8
DISTRICTS
 10
641.13507625299997
 20
4695.7678113800002
 30
2.0
  0
VERTEX
  5
A3B
  8
DISTRICTS
 10
641.03485838799998
 20
4695.7813841799998
 30
2.0
  0
SEQEND
  5
A3C
  8
DISTRICTS
  0
POLYLINE
  5
30
  8
DISTRICTS
 66
     1
 10
0.0
 20
0.0
 30
6.0
 70
     1
  0
VERTEX
  5
A3D
  8
DISTRICTS
 10
643.73055120900005
 20
4675.3365155099991
 30
6.0
  0
VERTEX
  5
A3E
  8
DISTRICTS
 10
643.64052287599986
 20
4675.3500162800001
 30
6.0
  0
VERTEX
  5
A3F
  8
DISTRICTS
 10
643.54030501099965
 20
4675.3757798500001
 30
6.0
  0
VERTEX
  5
A40
  8
DISTRICTS
 10
643.440087146
 20
4675.4142188300002
 30
6.0
  0
VERTEX
  5
A41
  8
DISTRICTS
 10
643.39582601599977
 20
4675.4367541800002
 30
6.0
  0
VERTEX
  5
A42
  8
DISTRICTS
 10
643.33986928099989
 20
4675.46533636
 30
6.0
  0
VERTEX
  5
A43
  8
DISTRICTS
 10
643.24085311600004
 20
4675.5369928399969
 30
6.0
  0
VERTEX
  5
A44
  8
DISTRICTS
 10
643.13943355100002
 20
4675.632907029998
 30
6.0
  0
VERTEX
  5
A45
  8
DISTRICTS
 10
643.04805999799999
 20
4675.7374701700001
 30
6.0
  0
VERTEX
  5
A46
  8
DISTRICTS
 10
643.03921568600003
 20
4675.7500418099999
 30
6.0
  0
VERTEX
  5
A47
  8
DISTRICTS
 10
642.97013430699985
 20
4675.8377088300003
 30
6.0
  0
VERTEX
  5
A48
  8
DISTRICTS
 10
642.93899782099993
 20
4675.8842714900011
 30
6.0
  0
VERTEX
  5
A49
  8
DISTRICTS
 10
642.89957829900004
 20
4675.9379474899997
 30
6.0
  0
VERTEX
  5
A4A
  8
DISTRICTS
 10
642.83877995599994
 20
4676.0340228300001
 30
6.0
  0
VERTEX
  5
A4B
  8
DISTRICTS
 10
642.77434703899985
 20
4676.1384248200002
 30
6.0
  0
VERTEX
  5
A4C
  8
DISTRICTS
 10
642.73856209199994
 20
4676.20619257
 30
6.0
  0
VERTEX
  5
A4D
  8
DISTRICTS
 10
642.71988204900003
 20
4676.2386634799977
 30
6.0
  0
VERTEX
  5
A4E
  8
DISTRICTS
 10
642.66932240199992
 20
4676.3389021499988
 30
6.0
  0
VERTEX
  5
A4F
  8
DISTRICTS
 10
642.63834422699995
 20
4676.4106753200003
 30
6.0
  0
VERTEX
  5
A50
  8
DISTRICTS
 10
642.62485183900003
 20
4676.43914081
 30
6.0
  0
VERTEX
  5
A51
  8
DISTRICTS
 10
642.58359979099998
 20
4676.5393794700003
 30
6.0
  0
VERTEX
  5
A52
  8
DISTRICTS
 10
642.54901826199989
 20
4676.6396181399996
 30
6.0
  0
VERTEX
  5
A53
  8
DISTRICTS
 10
642.53812636199984
 20
4676.6770971599999
 30
6.0
  0
VERTEX
  5
A54
  8
DISTRICTS
 10
642.51777944499975
 20
4676.7398568000008
 30
6.0
  0
VERTEX
  5
A55
  8
DISTRICTS
 10
642.49100785799988
 20
4676.8400954700001
 30
6.0
  0
VERTEX
  5
A56
  8
DISTRICTS
 10
642.46972077500004
 20
4676.9403341300012
 30
6.0
  0
VERTEX
  5
A57
  8
DISTRICTS
 10
642.45352464899975
 20
4677.0405727899997
 30
6.0
  0
VERTEX
  5
A58
  8
DISTRICTS
 10
642.44215190399996
 20
4677.1408114599999
 30
6.0
  0
VERTEX
  5
A59
  8
DISTRICTS
 10
642.43790849699985
 20
4677.2043318000005
 30
6.0
  0
VERTEX
  5
A5A
  8
DISTRICTS
 10
642.43509368199977
 20
4677.2410501200002
 30
6.0
  0
VERTEX
  5
A5B
  8
DISTRICTS
 10
642.43271427800005
 20
4677.3412887799996
 30
6.0
  0
VERTEX
  5
A5C
  8
DISTRICTS
 10
642.43570464799996
 20
4677.4415274499997
 30
6.0
  0
VERTEX
  5
A5D
  8
DISTRICTS
 10
642.43790849699985
 20
4677.4677003400002
 30
6.0
  0
VERTEX
  5
A5E
  8
DISTRICTS
 10
642.44347243499999
 20
4677.54176611
 30
6.0
  0
VERTEX
  5
A5F
  8
DISTRICTS
 10
642.45615810200002
 20
4677.6420047700003
 30
6.0
  0
VERTEX
  5
A60
  8
DISTRICTS
 10
642.47451426899988
 20
4677.7422434399996
 30
6.0
  0
VERTEX
  5
A61
  8
DISTRICTS
 10
642.49919101900002
 20
4677.842482099999
 30
6.0
  0
VERTEX
  5
A62
  8
DISTRICTS
 10
642.53104088099985
 20
4677.9427207599992
 30
6.0
  0
VERTEX
  5
A63
  8
DISTRICTS
 10
642.53812636199984
 20
4677.9612735999999
 30
6.0
  0
VERTEX
  5
A64
  8
DISTRICTS
 10
642.56718708400001
 20
4678.0429594300003
 30
6.0
  0
VERTEX
  5
A65
  8
DISTRICTS
 10
642.61113187800004
 20
4678.1431980899988
 30
6.0
  0
VERTEX
  5
A66
  8
DISTRICTS
 10
642.63834422699995
 20
4678.1953892700003
 30
6.0
  0
VERTEX
  5
A67
  8
DISTRICTS
 10
642.66227729000002
 20
4678.24343675
 30
6.0
  0
VERTEX
  5
A68
  8
DISTRICTS
 10
642.721476048
 20
4678.3436754200002
 30
6.0
  0
VERTEX
  5
A69
  8
DISTRICTS
 10
642.73856209199994
 20
4678.3689422999969
 30
6.0
  0
VERTEX
  5
A6A
  8
DISTRICTS
 10
642.78843455100002
 20
4678.4439140799977
 30
6.0
  0
VERTEX
  5
A6B
  8
DISTRICTS
 10
642.83877995599994
 20
4678.5090963499997
 30
6.0
  0
VERTEX
  5
A6C
  8
DISTRICTS
 10
642.86596668799996
 20
4678.544152739998
 30
6.0
  0
VERTEX
  5
A6D
  8
DISTRICTS
 10
642.93899782099993
 20
4678.6270825199999
 30
6.0
  0
VERTEX
  5
A6E
  8
DISTRICTS
 10
642.95465353400004
 20
4678.6443914099982
 30
6.0
  0
VERTEX
  5
A6F
  8
DISTRICTS
 10
643.03921568600003
 20
4678.7285883300001
 30
6.0
  0
VERTEX
  5
A70
  8
DISTRICTS
 10
643.056179767
 20
4678.7446300700003
 30
6.0
  0
VERTEX
  5
A71
  8
DISTRICTS
 10
643.13943355100002
 20
4678.8171594300002
 30
6.0
  0
VERTEX
  5
A72
  8
DISTRICTS
 10
643.17383679300008
 20
4678.8448687399969
 30
6.0
  0
VERTEX
  5
A73
  8
DISTRICTS
 10
643.23965141600002
 20
4678.8948363500003
 30
6.0
  0
VERTEX
  5
A74
  8
DISTRICTS
 10
643.31336079100004
 20
4678.945107399999
 30
6.0
  0
VERTEX
  5
A75
  8
DISTRICTS
 10
643.33986928099989
 20
4678.96254322
 30
6.0
  0
VERTEX
  5
A76
  8
DISTRICTS
 10
643.440087146
 20
4679.0223926299977
 30
6.0
  0
VERTEX
  5
A77
  8
DISTRICTS
 10
643.48404493800001
 20
4679.0453460600002
 30
6.0
  0
VERTEX
  5
A78
  8
DISTRICTS
 10
643.54030501099965
 20
4679.0746709499999
 30
6.0
  0
VERTEX
  5
A79
  8
DISTRICTS
 10
643.64052287599986
 20
4679.1198175500012
 30
6.0
  0
VERTEX
  5
A7A
  8
DISTRICTS
 10
643.70893806599975
 20
4679.1455847300003
 30
6.0
  0
VERTEX
  5
A7B
  8
DISTRICTS
 10
643.74074074099985
 20
4679.1579869799989
 30
6.0
  0
VERTEX
  5
A7C
  8
DISTRICTS
 10
643.84095860599984
 20
4679.19127914
 30
6.0
  0
VERTEX
  5
A7D
  8
DISTRICTS
 10
643.94117647099995
 20
4679.2175533899999
 30
6.0
  0
VERTEX
  5
A7E
  8
DISTRICTS
 10
644.04139433599994
 20
4679.2374018299997
 30
6.0
  0
VERTEX
  5
A7F
  8
DISTRICTS
 10
644.10128770899985
 20
4679.2458233899997
 30
6.0
  0
VERTEX
  5
A80
  8
DISTRICTS
 10
644.14161220000005
 20
4679.2521244199979
 30
6.0
  0
VERTEX
  5
A81
  8
DISTRICTS
 10
644.24183006500004
 20
4679.2617538200002
 30
6.0
  0
VERTEX
  5
A82
  8
DISTRICTS
 10
644.34204793000004
 20
4679.265147969998
 30
6.0
  0
VERTEX
  5
A83
  8
DISTRICTS
 10
644.44226579500003
 20
4679.2621291200003
 30
6.0
  0
VERTEX
  5
A84
  8
DISTRICTS
 10
644.5424836599999
 20
4679.2522226800002
 30
6.0
  0
VERTEX
  5
A85
  8
DISTRICTS
 10
644.57976822199998
 20
4679.2458233899997
 30
6.0
  0
VERTEX
  5
A86
  8
DISTRICTS
 10
644.64270152500001
 20
4679.2362031100001
 30
6.0
  0
VERTEX
  5
A87
  8
DISTRICTS
 10
644.74291938999966
 20
4679.2133315199981
 30
6.0
  0
VERTEX
  5
A88
  8
DISTRICTS
 10
644.84313725499987
 20
4679.1808554400022
 30
6.0
  0
VERTEX
  5
A89
  8
DISTRICTS
 10
644.92354065899985
 20
4679.1455847300003
 30
6.0
  0
VERTEX
  5
A8A
  8
DISTRICTS
 10
644.94335511999998
 20
4679.1374428700001
 30
6.0
  0
VERTEX
  5
A8B
  8
DISTRICTS
 10
645.04357298499986
 20
4679.0851427300004
 30
6.0
  0
VERTEX
  5
A8C
  8
DISTRICTS
 10
645.10256284800005
 20
4679.0453460600002
 30
6.0
  0
VERTEX
  5
A8D
  8
DISTRICTS
 10
645.14379084999985
 20
4679.0180291099978
 30
6.0
  0
VERTEX
  5
A8E
  8
DISTRICTS
 10
645.2316163779999
 20
4678.945107399999
 30
6.0
  0
VERTEX
  5
A8F
  8
DISTRICTS
 10
645.24400871499995
 20
4678.9346481900002
 30
6.0
  0
VERTEX
  5
A90
  8
DISTRICTS
 10
645.332908858
 20
4678.8448687399969
 30
6.0
  0
VERTEX
  5
A91
  8
DISTRICTS
 10
645.34422658000005
 20
4678.8327718899991
 30
6.0
  0
VERTEX
  5
A92
  8
DISTRICTS
 10
645.41626012199993
 20
4678.7446300700003
 30
6.0
  0
VERTEX
  5
A93
  8
DISTRICTS
 10
645.44444444400006
 20
4678.7064608199989
 30
6.0
  0
VERTEX
  5
A94
  8
DISTRICTS
 10
645.48619472300004
 20
4678.6443914099982
 30
6.0
  0
VERTEX
  5
A95
  8
DISTRICTS
 10
645.54435942700002
 20
4678.544152739998
 30
6.0
  0
VERTEX
  5
A96
  8
DISTRICTS
 10
645.59538780399976
 20
4678.4439140799977
 30
6.0
  0
VERTEX
  5
A97
  8
DISTRICTS
 10
645.63667124999995
 20
4678.3436754200002
 30
6.0
  0
VERTEX
  5
A98
  8
DISTRICTS
 10
645.64488017400004
 20
4678.3201922899998
 30
6.0
  0
VERTEX
  5
A99
  8
DISTRICTS
 10
645.67232826899965
 20
4678.24343675
 30
6.0
  0
VERTEX
  5
A9A
  8
DISTRICTS
 10
645.70125857800008
 20
4678.1431980899988
 30
6.0
  0
VERTEX
  5
A9B
  8
DISTRICTS
 10
645.723442729
 20
4678.0429594300003
 30
6.0
  0
VERTEX
  5
A9C
  8
DISTRICTS
 10
645.73967585800006
 20
4677.9427207599992
 30
6.0
  0
VERTEX
  5
A9D
  8
DISTRICTS
 10
645.74509803899991
 20
4677.8936676800022
 30
6.0
  0
VERTEX
  5
A9E
  8
DISTRICTS
 10
645.75140816700002
 20
4677.842482099999
 30
6.0
  0
VERTEX
  5
A9F
  8
DISTRICTS
 10
645.75845875699963
 20
4677.7422434399996
 30
6.0
  0
VERTEX
  5
AA0
  8
DISTRICTS
 10
645.76029506099997
 20
4677.6420047700003
 30
6.0
  0
VERTEX
  5
AA1
  8
DISTRICTS
 10
645.75680524199993
 20
4677.54176611
 30
6.0
  0
VERTEX
  5
AA2
  8
DISTRICTS
 10
645.74735440799986
 20
4677.4415274499997
 30
6.0
  0
VERTEX
  5
AA3
  8
DISTRICTS
 10
645.74509803899991
 20
4677.4273198899991
 30
6.0
  0
VERTEX
  5
AA4
  8
DISTRICTS
 10
645.73281851199965
 20
4677.3412887799996
 30
6.0
  0
VERTEX
  5
AA5
  8
DISTRICTS
 10
645.71139115099993
 20
4677.2410501200002
 30
6.0
  0
VERTEX
  5
AA6
  8
DISTRICTS
 10
645.68184875300005
 20
4677.1408114599999
 30
6.0
  0
VERTEX
  5
AA7
  8
DISTRICTS
 10
645.64488017400004
 20
4677.0423278599992
 30
6.0
  0
VERTEX
  5
AA8
  8
DISTRICTS
 10
645.60456837200002
 20
4676.9403341300012
 30
6.0
  0
VERTEX
  5
AA9
  8
DISTRICTS
 10
645.55827203099977
 20
4676.8400954700001
 30
6.0
  0
VERTEX
  5
AAA
  8
DISTRICTS
 10
645.54466230900005
 20
4676.8132087699978
 30
6.0
  0
VERTEX
  5
AAB
  8
DISTRICTS
 10
645.509381276
 20
4676.7398568000008
 30
6.0
  0
VERTEX
  5
AAC
  8
DISTRICTS
 10
645.45559893999985
 20
4676.6396181399996
 30
6.0
  0
VERTEX
  5
AAD
  8
DISTRICTS
 10
645.44444444400006
 20
4676.6202263799978
 30
6.0
  0
VERTEX
  5
AAE
  8
DISTRICTS
 10
645.39940261900006
 20
4676.5393794700003
 30
6.0
  0
VERTEX
  5
AAF
  8
DISTRICTS
 10
645.34422658000005
 20
4676.4498324799979
 30
6.0
  0
VERTEX
  5
AB0
  8
DISTRICTS
 10
645.33780330199988
 20
4676.43914081
 30
6.0
  0
VERTEX
  5
AB1
  8
DISTRICTS
 10
645.27329729500002
 20
4676.3389021499988
 30
6.0
  0
VERTEX
  5
AB2
  8
DISTRICTS
 10
645.24400871499995
 20
4676.2971518799986
 30
6.0
  0
VERTEX
  5
AB3
  8
DISTRICTS
 10
645.20342788000016
 20
4676.2386634799977
 30
6.0
  0
VERTEX
  5
AB4
  8
DISTRICTS
 10
645.14379084999985
 20
4676.160288699999
 30
6.0
  0
VERTEX
  5
AB5
  8
DISTRICTS
 10
645.12716291599975
 20
4676.1384248200002
 30
6.0
  0
VERTEX
  5
AB6
  8
DISTRICTS
 10
645.04382309799996
 20
4676.0381861599999
 30
6.0
  0
VERTEX
  5
AB7
  8
DISTRICTS
 10
644.95299768199993
 20
4675.9379474899997
 30
6.0
  0
VERTEX
  5
AB8
  8
DISTRICTS
 10
644.94335511999998
 20
4675.9280189600004
 30
6.0
  0
VERTEX
  5
AB9
  8
DISTRICTS
 10
644.85180060300002
 20
4675.8377088300003
 30
6.0
  0
VERTEX
  5
ABA
  8
DISTRICTS
 10
644.84313725499987
 20
4675.8296308099998
 30
6.0
  0
VERTEX
  5
ABB
  8
DISTRICTS
 10
644.74291938999966
 20
4675.7410722499999
 30
6.0
  0
VERTEX
  5
ABC
  8
DISTRICTS
 10
644.64270152500001
 20
4675.6602748400001
 30
6.0
  0
VERTEX
  5
ABD
  8
DISTRICTS
 10
644.61187045599991
 20
4675.6372314999999
 30
6.0
  0
VERTEX
  5
ABE
  8
DISTRICTS
 10
644.5424836599999
 20
4675.587158889999
 30
6.0
  0
VERTEX
  5
ABF
  8
DISTRICTS
 10
644.46581460899995
 20
4675.5369928399969
 30
6.0
  0
VERTEX
  5
AC0
  8
DISTRICTS
 10
644.44226579500003
 20
4675.5220654499999
 30
6.0
  0
VERTEX
  5
AC1
  8
DISTRICTS
 10
644.34204793000004
 20
4675.4640138100003
 30
6.0
  0
VERTEX
  5
AC2
  8
DISTRICTS
 10
644.28599190399996
 20
4675.4367541800002
 30
6.0
  0
VERTEX
  5
AC3
  8
DISTRICTS
 10
644.24183006500004
 20
4675.4154381400003
 30
6.0
  0
VERTEX
  5
AC4
  8
DISTRICTS
 10
644.14161220000005
 20
4675.3760703099997
 30
6.0
  0
VERTEX
  5
AC5
  8
DISTRICTS
 10
644.04139433599994
 20
4675.34944688
 30
6.0
  0
VERTEX
  5
AC6
  8
DISTRICTS
 10
643.95447660100001
 20
4675.3365155099991
 30
6.0
  0
VERTEX
  5
AC7
  8
DISTRICTS
 10
643.94117647099995
 20
4675.3341862999978
 30
6.0
  0
VERTEX
  5
AC8
  8
DISTRICTS
 10
643.84095860599984
 20
4675.3283958299999
 30
6.0
  0
VERTEX
  5
AC9
  8
DISTRICTS
 10
643.74074074099985
 20
4675.3347542199981
 30
6.0
  0
SEQEND
  5
ACA
  8
DISTRICTS
  0
POLYLINE
  5
31
  8
DISTRICTS
 66
     1
 10
0.0
 20
0.0
 30
5.0
 70
     1
  0
VERTEX
  5
ACB
  8
DISTRICTS
 10
645.96544586499999
 20
4680.1479713600002
 30
5.0
  0
VERTEX
  5
ACC
  8
DISTRICTS
 10
645.94553376900001
 20
4680.1492672100003
 30
5.0
  0
VERTEX
  5
ACD
  8
DISTRICTS
 10
645.84531590400002
 20
4680.1716815600003
 30
5.0
  0
VERTEX
  5
ACE
  8
DISTRICTS
 10
645.74509803899991
 20
4680.2212863300001
 30
5.0
  0
VERTEX
  5
ACF
  8
DISTRICTS
 10
645.70911292599999
 20
4680.2482100200023
 30
5.0
  0
VERTEX
  5
AD0
  8
DISTRICTS
 10
645.64488017400004
 20
4680.3060794599996
 30
5.0
  0
VERTEX
  5
AD1
  8
DISTRICTS
 10
645.60837053900002
 20
4680.3484486899997
 30
5.0
  0
VERTEX
  5
AD2
  8
DISTRICTS
 10
645.55123268199998
 20
4680.44868735
 30
5.0
  0
VERTEX
  5
AD3
  8
DISTRICTS
 10
645.54466230900005
 20
4680.46857783
 30
5.0
  0
VERTEX
  5
AD4
  8
DISTRICTS
 10
645.51413554800001
 20
4680.5489260100012
 30
5.0
  0
VERTEX
  5
AD5
  8
DISTRICTS
 10
645.4956663449999
 20
4680.6491646799996
 30
5.0
  0
VERTEX
  5
AD6
  8
DISTRICTS
 10
645.49169539900004
 20
4680.7494033399998
 30
5.0
  0
VERTEX
  5
AD7
  8
DISTRICTS
 10
645.49899710800003
 20
4680.8496420000001
 30
5.0
  0
VERTEX
  5
AD8
  8
DISTRICTS
 10
645.51632605899999
 20
4680.9498806700003
 30
5.0
  0
VERTEX
  5
AD9
  8
DISTRICTS
 10
645.54395089599996
 20
4681.0501193299997
 30
5.0
  0
VERTEX
  5
ADA
  8
DISTRICTS
 10
645.57573525800001
 20
4681.1503579999999
 30
5.0
  0
VERTEX
  5
ADB
  8
DISTRICTS
 10
645.62071478199994
 20
4681.2505966599992
 30
5.0
  0
VERTEX
  5
ADC
  8
DISTRICTS
 10
645.64488017400004
 20
4681.2923664
 30
5.0
  0
VERTEX
  5
ADD
  8
DISTRICTS
 10
645.67728322400001
 20
4681.3508353200004
 30
5.0
  0
VERTEX
  5
ADE
  8
DISTRICTS
 10
645.74509803899991
 20
4681.4358422100004
 30
5.0
  0
VERTEX
  5
ADF
  8
DISTRICTS
 10
645.75728062300004
 20
4681.4510739899988
 30
5.0
  0
VERTEX
  5
AE0
  8
DISTRICTS
 10
645.84531590400002
 20
4681.5359982299988
 30
5.0
  0
VERTEX
  5
AE1
  8
DISTRICTS
 10
645.86318447899998
 20
4681.5513126499991
 30
5.0
  0
VERTEX
  5
AE2
  8
DISTRICTS
 10
645.94553376900001
 20
4681.6121140300002
 30
5.0
  0
VERTEX
  5
AE3
  8
DISTRICTS
 10
646.01598003300001
 20
4681.6515513099994
 30
5.0
  0
VERTEX
  5
AE4
  8
DISTRICTS
 10
646.04575163399988
 20
4681.6675089800001
 30
5.0
  0
VERTEX
  5
AE5
  8
DISTRICTS
 10
646.14596949899999
 20
4681.7090071499997
 30
5.0
  0
VERTEX
  5
AE6
  8
DISTRICTS
 10
646.24618736399975
 20
4681.7340352399979
 30
5.0
  0
VERTEX
  5
AE7
  8
DISTRICTS
 10
646.34640522899986
 20
4681.7455924699998
 30
5.0
  0
VERTEX
  5
AE8
  8
DISTRICTS
 10
646.44662309399985
 20
4681.745498979998
 30
5.0
  0
VERTEX
  5
AE9
  8
DISTRICTS
 10
646.54684095899995
 20
4681.7336498399991
 30
5.0
  0
VERTEX
  5
AEA
  8
DISTRICTS
 10
646.64705882400006
 20
4681.7075328299989
 30
5.0
  0
VERTEX
  5
AEB
  8
DISTRICTS
 10
646.74727668800006
 20
4681.6627984300003
 30
5.0
  0
VERTEX
  5
AEC
  8
DISTRICTS
 10
646.76667467100003
 20
4681.6515513099994
 30
5.0
  0
VERTEX
  5
AED
  8
DISTRICTS
 10
646.84749455300005
 20
4681.6043513900004
 30
5.0
  0
VERTEX
  5
AEE
  8
DISTRICTS
 10
646.91901848400005
 20
4681.5513126499991
 30
5.0
  0
VERTEX
  5
AEF
  8
DISTRICTS
 10
646.94771241800004
 20
4681.5271167799983
 30
5.0
  0
VERTEX
  5
AF0
  8
DISTRICTS
 10
647.04745425799968
 20
4681.4510739899988
 30
5.0
  0
VERTEX
  5
AF1
  8
DISTRICTS
 10
647.14814814800002
 20
4681.4475088600002
 30
5.0
  0
VERTEX
  5
AF2
  8
DISTRICTS
 10
647.2483660129999
 20
4681.5444974700004
 30
5.0
  0
VERTEX
  5
AF3
  8
DISTRICTS
 10
647.25602172499975
 20
4681.5513126499991
 30
5.0
  0
VERTEX
  5
AF4
  8
DISTRICTS
 10
647.31132273399976
 20
4681.6515513099994
 30
5.0
  0
VERTEX
  5
AF5
  8
DISTRICTS
 10
647.348583878
 20
4681.6803171000001
 30
5.0
  0
VERTEX
  5
AF6
  8
DISTRICTS
 10
647.39087646199994
 20
4681.6515513099994
 30
5.0
  0
VERTEX
  5
AF7
  8
DISTRICTS
 10
647.44880174299965
 20
4681.5823541500004
 30
5.0
  0
VERTEX
  5
AF8
  8
DISTRICTS
 10
647.46675310800003
 20
4681.5513126499991
 30
5.0
  0
VERTEX
  5
AF9
  8
DISTRICTS
 10
647.45640393600002
 20
4681.4510739899988
 30
5.0
  0
VERTEX
  5
AFA
  8
DISTRICTS
 10
647.44880174299965
 20
4681.4403100099998
 30
5.0
  0
VERTEX
  5
AFB
  8
DISTRICTS
 10
647.43253907500002
 20
4681.3508353200004
 30
5.0
  0
VERTEX
  5
AFC
  8
DISTRICTS
 10
647.348583878
 20
4681.2606806499998
 30
5.0
  0
VERTEX
  5
AFD
  8
DISTRICTS
 10
647.33990001699965
 20
4681.2505966599992
 30
5.0
  0
VERTEX
  5
AFE
  8
DISTRICTS
 10
647.299070798
 20
4681.1503579999999
 30
5.0
  0
VERTEX
  5
AFF
  8
DISTRICTS
 10
647.2483660129999
 20
4681.0892881999989
 30
5.0
  0
VERTEX
  5
B00
  8
DISTRICTS
 10
647.14814814800002
 20
4681.0511553400002
 30
5.0
  0
VERTEX
  5
B01
  8
DISTRICTS
 10
647.09205678699993
 20
4680.9498806700003
 30
5.0
  0
VERTEX
  5
B02
  8
DISTRICTS
 10
647.05196851800008
 20
4680.8496420000001
 30
5.0
  0
VERTEX
  5
B03
  8
DISTRICTS
 10
647.00948038499985
 20
4680.7494033399998
 30
5.0
  0
VERTEX
  5
B04
  8
DISTRICTS
 10
646.95072573599998
 20
4680.6491646799996
 30
5.0
  0
VERTEX
  5
B05
  8
DISTRICTS
 10
646.87765572299998
 20
4680.5489260100012
 30
5.0
  0
VERTEX
  5
B06
  8
DISTRICTS
 10
646.84749455300005
 20
4680.5136620900003
 30
5.0
  0
VERTEX
  5
B07
  8
DISTRICTS
 10
646.780442881
 20
4680.44868735
 30
5.0
  0
VERTEX
  5
B08
  8
DISTRICTS
 10
646.74727668800006
 20
4680.4178153499997
 30
5.0
  0
VERTEX
  5
B09
  8
DISTRICTS
 10
646.65168655599996
 20
4680.3484486899997
 30
5.0
  0
VERTEX
  5
B0A
  8
DISTRICTS
 10
646.54684095899995
 20
4680.2825909000003
 30
5.0
  0
VERTEX
  5
B0B
  8
DISTRICTS
 10
646.47111796299998
 20
4680.2482100200023
 30
5.0
  0
VERTEX
  5
B0C
  8
DISTRICTS
 10
646.44662309399985
 20
4680.2354567000002
 30
5.0
  0
VERTEX
  5
B0D
  8
DISTRICTS
 10
646.34640522899986
 20
4680.1946210300002
 30
5.0
  0
VERTEX
  5
B0E
  8
DISTRICTS
 10
646.24618736399975
 20
4680.1660200599981
 30
5.0
  0
VERTEX
  5
B0F
  8
DISTRICTS
 10
646.14596949899999
 20
4680.1488272500001
 30
5.0
  0
VERTEX
  5
B10
  8
DISTRICTS
 10
646.13144863399998
 20
4680.1479713600002
 30
5.0
  0
VERTEX
  5
B11
  8
DISTRICTS
 10
646.04575163399988
 20
4680.1409982100004
 30
5.0
  0
SEQEND
  5
B12
  8
DISTRICTS
  0
POLYLINE
  5
32
  8
DISTRICTS
 66
     1
 10
0.0
 20
0.0
 30
7.0
 70
     1
  0
VERTEX
  5
B13
  8
DISTRICTS
 10
632.56991552599993
 20
4685.9618138400001
 30
7.0
  0
VERTEX
  5
B14
  8
DISTRICTS
 10
632.531945909
 20
4686.0620525100003
 30
7.0
  0
VERTEX
  5
B15
  8
DISTRICTS
 10
632.51633986900003
 20
4686.1004702299997
 30
7.0
  0
VERTEX
  5
B16
  8
DISTRICTS
 10
632.49861511300003
 20
4686.1622911699978
 30
7.0
  0
VERTEX
  5
B17
  8
DISTRICTS
 10
632.46292367199976
 20
4686.2625298299999
 30
7.0
  0
VERTEX
  5
B18
  8
DISTRICTS
 10
632.41612200400004
 20
4686.3481128900012
 30
7.0
  0
VERTEX
  5
B19
  8
DISTRICTS
 10
632.41000021699995
 20
4686.3627685000001
 30
7.0
  0
VERTEX
  5
B1A
  8
DISTRICTS
 10
632.33995368699993
 20
4686.4630071600004
 30
7.0
  0
VERTEX
  5
B1B
  8
DISTRICTS
 10
632.31590413900005
 20
4686.4890326299992
 30
7.0
  0
VERTEX
  5
B1C
  8
DISTRICTS
 10
632.23568907599997
 20
4686.5632458199989
 30
7.0
  0
VERTEX
  5
B1D
  8
DISTRICTS
 10
632.21568627500005
 20
4686.5808970300004
 30
7.0
  0
VERTEX
  5
B1E
  8
DISTRICTS
 10
632.11546840999995
 20
4686.6570811299989
 30
7.0
  0
VERTEX
  5
B1F
  8
DISTRICTS
 10
632.10630541599994
 20
4686.66348449
 30
7.0
  0
VERTEX
  5
B20
  8
DISTRICTS
 10
632.01525054499984
 20
4686.7376156399996
 30
7.0
  0
VERTEX
  5
B21
  8
DISTRICTS
 10
631.98470619599993
 20
4686.7637231500003
 30
7.0
  0
VERTEX
  5
B22
  8
DISTRICTS
 10
631.91503267999985
 20
4686.8310850799999
 30
7.0
  0
VERTEX
  5
B23
  8
DISTRICTS
 10
631.88569404199995
 20
4686.8639618099996
 30
7.0
  0
VERTEX
  5
B24
  8
DISTRICTS
 10
631.82395352599997
 20
4686.9642004799998
 30
7.0
  0
VERTEX
  5
B25
  8
DISTRICTS
 10
631.81481481499975
 20
4686.9989587700002
 30
7.0
  0
VERTEX
  5
B26
  8
DISTRICTS
 10
631.80565993200003
 20
4687.0644391400001
 30
7.0
  0
VERTEX
  5
B27
  8
DISTRICTS
 10
631.78407649199994
 20
4687.1646778000022
 30
7.0
  0
VERTEX
  5
B28
  8
DISTRICTS
 10
631.71459694999999
 20
4687.221812859998
 30
7.0
  0
VERTEX
  5
B29
  8
DISTRICTS
 10
631.61437908499988
 20
4687.2386274
 30
7.0
  0
VERTEX
  5
B2A
  8
DISTRICTS
 10
631.51416122000001
 20
4687.2347833000003
 30
7.0
  0
VERTEX
  5
B2B
  8
DISTRICTS
 10
631.41394335500001
 20
4687.2350010399996
 30
7.0
  0
VERTEX
  5
B2C
  8
DISTRICTS
 10
631.3137254899998
 20
4687.2298862399994
 30
7.0
  0
VERTEX
  5
B2D
  8
DISTRICTS
 10
631.21350762500003
 20
4687.1785181400001
 30
7.0
  0
VERTEX
  5
B2E
  8
DISTRICTS
 10
631.18692481799997
 20
4687.1646778000022
 30
7.0
  0
VERTEX
  5
B2F
  8
DISTRICTS
 10
631.11328976000004
 20
4687.1153031000003
 30
7.0
  0
VERTEX
  5
B30
  8
DISTRICTS
 10
631.01307189500005
 20
4687.0665133700013
 30
7.0
  0
VERTEX
  5
B31
  8
DISTRICTS
 10
630.91285403099994
 20
4687.0315518300004
 30
7.0
  0
VERTEX
  5
B32
  8
DISTRICTS
 10
630.81263616599995
 20
4687.0002172100003
 30
7.0
  0
VERTEX
  5
B33
  8
DISTRICTS
 10
630.71241830099984
 20
4686.9673298899979
 30
7.0
  0
VERTEX
  5
B34
  8
DISTRICTS
 10
630.61220043599985
 20
4686.9344381099991
 30
7.0
  0
VERTEX
  5
B35
  8
DISTRICTS
 10
630.51198257099998
 20
4686.897350299997
 30
7.0
  0
VERTEX
  5
B36
  8
DISTRICTS
 10
630.43096586199999
 20
4686.8639618099996
 30
7.0
  0
VERTEX
  5
B37
  8
DISTRICTS
 10
630.41176470599987
 20
4686.8564572200003
 30
7.0
  0
VERTEX
  5
B38
  8
DISTRICTS
 10
630.31154684099965
 20
4686.8146701799997
 30
7.0
  0
VERTEX
  5
B39
  8
DISTRICTS
 10
630.211328976
 20
4686.7687117900023
 30
7.0
  0
VERTEX
  5
B3A
  8
DISTRICTS
 10
630.20096153600002
 20
4686.7637231500003
 30
7.0
  0
VERTEX
  5
B3B
  8
DISTRICTS
 10
630.1111111109999
 20
4686.7229368199978
 30
7.0
  0
VERTEX
  5
B3C
  8
DISTRICTS
 10
630.01089324600002
 20
4686.6730458299999
 30
7.0
  0
VERTEX
  5
B3D
  8
DISTRICTS
 10
629.99291119099996
 20
4686.66348449
 30
7.0
  0
VERTEX
  5
B3E
  8
DISTRICTS
 10
629.91067538100003
 20
4686.6224577599996
 30
7.0
  0
VERTEX
  5
B3F
  8
DISTRICTS
 10
629.81045751599993
 20
4686.5663625300003
 30
7.0
  0
VERTEX
  5
B40
  8
DISTRICTS
 10
629.71023965099994
 20
4686.509404659997
 30
7.0
  0
VERTEX
  5
B41
  8
DISTRICTS
 10
629.63746709999975
 20
4686.4630071600004
 30
7.0
  0
VERTEX
  5
B42
  8
DISTRICTS
 10
629.61002178599995
 20
4686.4466357800002
 30
7.0
  0
VERTEX
  5
B43
  8
DISTRICTS
 10
629.50980392199995
 20
4686.380385729999
 30
7.0
  0
VERTEX
  5
B44
  8
DISTRICTS
 10
629.48607274300002
 20
4686.3627685000001
 30
7.0
  0
VERTEX
  5
B45
  8
DISTRICTS
 10
629.40958605699996
 20
4686.3097179300003
 30
7.0
  0
VERTEX
  5
B46
  8
DISTRICTS
 10
629.35275834499998
 20
4686.2625298299999
 30
7.0
  0
VERTEX
  5
B47
  8
DISTRICTS
 10
629.30936819199985
 20
4686.2278917000003
 30
7.0
  0
VERTEX
  5
B48
  8
DISTRICTS
 10
629.24319959900004
 20
4686.1622911699978
 30
7.0
  0
VERTEX
  5
B49
  8
DISTRICTS
 10
629.20915032699986
 20
4686.1255765599999
 30
7.0
  0
VERTEX
  5
B4A
  8
DISTRICTS
 10
629.15915922699992
 20
4686.0620525100003
 30
7.0
  0
VERTEX
  5
B4B
  8
DISTRICTS
 10
629.10893246199964
 20
4685.9757680599969
 30
7.0
  0
VERTEX
  5
B4C
  8
DISTRICTS
 10
629.10095109500003
 20
4685.9618138400001
 30
7.0
  0
VERTEX
  5
B4D
  8
DISTRICTS
 10
629.05866655800003
 20
4685.8615751799998
 30
7.0
  0
VERTEX
  5
B4E
  8
DISTRICTS
 10
629.03688679399977
 20
4685.7613365200004
 30
7.0
  0
VERTEX
  5
B4F
  8
DISTRICTS
 10
629.03121234599985
 20
4685.6610978500003
 30
7.0
  0
VERTEX
  5
B50
  8
DISTRICTS
 10
629.03975982700001
 20
4685.56085919
 30
7.0
  0
VERTEX
  5
B51
  8
DISTRICTS
 10
629.063124776
 20
4685.4606205299979
 30
7.0
  0
VERTEX
  5
B52
  8
DISTRICTS
 10
629.10191741799997
 20
4685.3603818600004
 30
7.0
  0
VERTEX
  5
B53
  8
DISTRICTS
 10
629.10893246199964
 20
4685.3448655599996
 30
7.0
  0
VERTEX
  5
B54
  8
DISTRICTS
 10
629.15118956699985
 20
4685.2601431999992
 30
7.0
  0
VERTEX
  5
B55
  8
DISTRICTS
 10
629.20915032699986
 20
4685.165290599999
 30
7.0
  0
VERTEX
  5
B56
  8
DISTRICTS
 10
629.28294751400006
 20
4685.0596658699988
 30
7.0
  0
VERTEX
  5
B57
  8
DISTRICTS
 10
629.30936819199985
 20
4685.0212859499989
 30
7.0
  0
VERTEX
  5
B58
  8
DISTRICTS
 10
629.35880799099994
 20
4684.9594272100003
 30
7.0
  0
VERTEX
  5
B59
  8
DISTRICTS
 10
629.40958605699996
 20
4684.8913726700002
 30
7.0
  0
VERTEX
  5
B5A
  8
DISTRICTS
 10
629.43720634199985
 20
4684.8591885400001
 30
7.0
  0
VERTEX
  5
B5B
  8
DISTRICTS
 10
629.50980392199995
 20
4684.7651772700001
 30
7.0
  0
VERTEX
  5
B5C
  8
DISTRICTS
 10
629.59081849999995
 20
4684.6587112200004
 30
7.0
  0
VERTEX
  5
B5D
  8
DISTRICTS
 10
629.61002178599995
 20
4684.6289001900004
 30
7.0
  0
VERTEX
  5
B5E
  8
DISTRICTS
 10
629.66032698200002
 20
4684.5584725500003
 30
7.0
  0
VERTEX
  5
B5F
  8
DISTRICTS
 10
629.71023965099994
 20
4684.4733372700002
 30
7.0
  0
VERTEX
  5
B60
  8
DISTRICTS
 10
629.71993866599996
 20
4684.45823389
 30
7.0
  0
VERTEX
  5
B61
  8
DISTRICTS
 10
629.76809521300004
 20
4684.3579952299997
 30
7.0
  0
VERTEX
  5
B62
  8
DISTRICTS
 10
629.8017006
 20
4684.2577565600004
 30
7.0
  0
VERTEX
  5
B63
  8
DISTRICTS
 10
631.28082516755694
 20
4684.8632121787668
 30
7.0
  0
SEQEND
  5
B64
  8
DISTRICTS
  0
POLYLINE
  5
33
  8
DISTRICTS
 66
     1
 10
0.0
 20
0.0
 30
8.0
 70
     1
  0
VERTEX
  5
B65
  8
DISTRICTS
 10
636.58844997473511
 20
4681.327271400196
 30
8.0
  0
VERTEX
  5
B66
  8
DISTRICTS
 10
636.57850208900004
 20
4681.3508353200004
 30
8.0
  0
VERTEX
  5
B67
  8
DISTRICTS
 10
636.54183967199992
 20
4681.4510739899988
 30
8.0
  0
VERTEX
  5
B68
  8
DISTRICTS
 10
636.52505446600003
 20
4681.5020058600003
 30
8.0
  0
VERTEX
  5
B69
  8
DISTRICTS
 10
636.51098302699995
 20
4681.5513126499991
 30
8.0
  0
VERTEX
  5
B6A
  8
DISTRICTS
 10
636.48457691500005
 20
4681.6515513099994
 30
8.0
  0
VERTEX
  5
B6B
  8
DISTRICTS
 10
636.45941085100003
 20
4681.7517899799977
 30
8.0
  0
VERTEX
  5
B6C
  8
DISTRICTS
 10
636.43478610599993
 20
4681.852028639998
 30
8.0
  0
VERTEX
  5
B6D
  8
DISTRICTS
 10
636.42483660100004
 20
4681.8946301300002
 30
8.0
  0
VERTEX
  5
B6E
  8
DISTRICTS
 10
636.413366215
 20
4681.9522673000001
 30
8.0
  0
VERTEX
  5
B6F
  8
DISTRICTS
 10
636.39601603599999
 20
4682.0525059700003
 30
8.0
  0
VERTEX
  5
B70
  8
DISTRICTS
 10
636.38035876599963
 20
4682.152744629997
 30
8.0
  0
VERTEX
  5
B71
  8
DISTRICTS
 10
636.36053837199995
 20
4682.25298329
 30
8.0
  0
VERTEX
  5
B72
  8
DISTRICTS
 10
636.33170514999995
 20
4682.3532219600002
 30
8.0
  0
VERTEX
  5
B73
  8
DISTRICTS
 10
636.32461873599993
 20
4682.3817764200003
 30
8.0
  0
VERTEX
  5
B74
  8
DISTRICTS
 10
636.30324636900002
 20
4682.4534606200004
 30
8.0
  0
VERTEX
  5
B75
  8
DISTRICTS
 10
636.31488956300007
 20
4682.553699279998
 30
8.0
  0
VERTEX
  5
B76
  8
DISTRICTS
 10
636.32461873599993
 20
4682.557158669998
 30
8.0
  0
VERTEX
  5
B77
  8
DISTRICTS
 10
636.42483660100004
 20
4682.6562537
 30
8.0
  0
VERTEX
  5
B78
  8
DISTRICTS
 10
636.483799234
 20
4682.7541766100003
 30
8.0
  0
VERTEX
  5
B79
  8
DISTRICTS
 10
636.49923234400001
 20
4682.8544152699969
 30
8.0
  0
VERTEX
  5
B7A
  8
DISTRICTS
 10
636.49117686199975
 20
4682.9546539399998
 30
8.0
  0
VERTEX
  5
B7B
  8
DISTRICTS
 10
636.42483660100004
 20
4683.0406794999999
 30
8.0
  0
VERTEX
  5
B7C
  8
DISTRICTS
 10
636.38959535399999
 20
4683.054892600001
 30
8.0
  0
VERTEX
  5
B7D
  8
DISTRICTS
 10
636.32461873599993
 20
4683.0881695400003
 30
8.0
  0
VERTEX
  5
B7E
  8
DISTRICTS
 10
636.25962783399996
 20
4683.054892600001
 30
8.0
  0
VERTEX
  5
B7F
  8
DISTRICTS
 10
636.22440087099994
 20
4683.0277757200001
 30
8.0
  0
VERTEX
  5
B80
  8
DISTRICTS
 10
636.14920787199992
 20
4682.9546539399998
 30
8.0
  0
VERTEX
  5
B81
  8
DISTRICTS
 10
636.12418300699994
 20
4682.8855819500004
 30
8.0
  0
VERTEX
  5
B82
  8
DISTRICTS
 10
636.09508136800002
 20
4682.8544152699969
 30
8.0
  0
VERTEX
  5
B83
  8
DISTRICTS
 10
636.02396514199995
 20
4682.74905365
 30
8.0
  0
VERTEX
  5
B84
  8
DISTRICTS
 10
635.92374727699985
 20
4682.7326085799987
 30
8.0
  0
VERTEX
  5
B85
  8
DISTRICTS
 10
635.82352941199986
 20
4682.7478513200022
 30
8.0
  0
VERTEX
  5
B86
  8
DISTRICTS
 10
635.80410415599988
 20
4682.7541766100003
 30
8.0
  0
VERTEX
  5
B87
  8
DISTRICTS
 10
635.72331154699975
 20
4682.7821588200022
 30
8.0
  0
VERTEX
  5
B88
  8
DISTRICTS
 10
635.62309368199999
 20
4682.8319005900003
 30
8.0
  0
VERTEX
  5
B89
  8
DISTRICTS
 10
635.58747459400001
 20
4682.8544152699969
 30
8.0
  0
VERTEX
  5
B8A
  8
DISTRICTS
 10
635.52287581699989
 20
4682.8958822200002
 30
8.0
  0
VERTEX
  5
B8B
  8
DISTRICTS
 10
635.44490353000003
 20
4682.9546539399998
 30
8.0
  0
VERTEX
  5
B8C
  8
DISTRICTS
 10
635.42265795200001
 20
4682.9713187599991
 30
8.0
  0
VERTEX
  5
B8D
  8
DISTRICTS
 10
635.32244008700002
 20
4683.0554836900001
 30
8.0
  0
VERTEX
  5
B8E
  8
DISTRICTS
 10
635.22222222199991
 20
4683.1457109299981
 30
8.0
  0
VERTEX
  5
B8F
  8
DISTRICTS
 10
635.21247535099997
 20
4683.1551312600004
 30
8.0
  0
VERTEX
  5
B90
  8
DISTRICTS
 10
635.12200435699992
 20
4683.2394305400003
 30
8.0
  0
VERTEX
  5
B91
  8
DISTRICTS
 10
635.10582496199993
 20
4683.2553699299997
 30
8.0
  0
VERTEX
  5
B92
  8
DISTRICTS
 10
635.02178649199993
 20
4683.33487702
 30
8.0
  0
VERTEX
  5
B93
  8
DISTRICTS
 10
635.00085470099975
 20
4683.35560859
 30
8.0
  0
VERTEX
  5
B94
  8
DISTRICTS
 10
634.92156862699994
 20
4683.4308963499989
 30
8.0
  0
VERTEX
  5
B95
  8
DISTRICTS
 10
634.89633689300001
 20
4683.4558472600002
 30
8.0
  0
VERTEX
  5
B96
  8
DISTRICTS
 10
634.82135076300005
 20
4683.5268908600001
 30
8.0
  0
VERTEX
  5
B97
  8
DISTRICTS
 10
634.791744988
 20
4683.5560859200023
 30
8.0
  0
VERTEX
  5
B98
  8
DISTRICTS
 10
634.72113289800006
 20
4683.6226978200002
 30
8.0
  0
VERTEX
  5
B99
  8
DISTRICTS
 10
634.68701301900001
 20
4683.6563245799998
 30
8.0
  0
VERTEX
  5
B9A
  8
DISTRICTS
 10
634.62091503299996
 20
4683.7183601999986
 30
8.0
  0
VERTEX
  5
B9B
  8
DISTRICTS
 10
634.58211707799967
 20
4683.75656325
 30
8.0
  0
VERTEX
  5
B9C
  8
DISTRICTS
 10
634.52069716799997
 20
4683.8137401900003
 30
8.0
  0
VERTEX
  5
B9D
  8
DISTRICTS
 10
634.47630622700001
 20
4683.8568019100003
 30
8.0
  0
VERTEX
  5
B9E
  8
DISTRICTS
 10
634.42047930299998
 20
4683.9081040399988
 30
8.0
  0
VERTEX
  5
B9F
  8
DISTRICTS
 10
634.36692471399999
 20
4683.9570405699988
 30
8.0
  0
VERTEX
  5
BA0
  8
DISTRICTS
 10
634.32026143799987
 20
4683.9990758900003
 30
8.0
  0
VERTEX
  5
BA1
  8
DISTRICTS
 10
634.24038828800008
 20
4684.0572792399998
 30
8.0
  0
VERTEX
  5
BA2
  8
DISTRICTS
 10
634.22004357299966
 20
4684.0709575499968
 30
8.0
  0
VERTEX
  5
BA3
  8
DISTRICTS
 10
634.11982570800001
 20
4684.121370009997
 30
8.0
  0
VERTEX
  5
BA4
  8
DISTRICTS
 10
634.01201782099997
 20
4684.1575179000001
 30
8.0
  0
VERTEX
  5
BA5
  8
DISTRICTS
 10
633.91938997800003
 20
4684.1861422399979
 30
8.0
  0
VERTEX
  5
BA6
  8
DISTRICTS
 10
633.81917211300004
 20
4684.2114214900002
 30
8.0
  0
VERTEX
  5
BA7
  8
DISTRICTS
 10
633.71895424800005
 20
4684.231452279997
 30
8.0
  0
VERTEX
  5
BA8
  8
DISTRICTS
 10
633.61873638300005
 20
4684.2437225499971
 30
8.0
  0
VERTEX
  5
BA9
  8
DISTRICTS
 10
633.51851851900005
 20
4684.2480453999988
 30
8.0
  0
VERTEX
  5
BAA
  8
DISTRICTS
 10
633.41830065399995
 20
4684.2484025399981
 30
8.0
  0
VERTEX
  5
BAB
  8
DISTRICTS
 10
633.31808278899985
 20
4684.2539056799997
 30
8.0
  0
VERTEX
  5
BAC
  8
DISTRICTS
 10
633.28621076299964
 20
4684.2577565600004
 30
8.0
  0
VERTEX
  5
BAD
  8
DISTRICTS
 10
633.21786492399985
 20
4684.2663093399979
 30
8.0
  0
VERTEX
  5
BAE
  8
DISTRICTS
 10
633.11764705899986
 20
4684.263858199999
 30
8.0
  0
VERTEX
  5
BAF
  8
DISTRICTS
 10
633.10141291299965
 20
4684.2577565600004
 30
8.0
  0
VERTEX
  5
BB0
  8
DISTRICTS
 10
633.01742919399965
 20
4684.2152881899983
 30
8.0
  0
VERTEX
  5
BB1
  8
DISTRICTS
 10
632.917211329
 20
4684.1756882199979
 30
8.0
  0
VERTEX
  5
BB2
  8
DISTRICTS
 10
632.84498728300002
 20
4684.1575179000001
 30
8.0
  0
VERTEX
  5
BB3
  8
DISTRICTS
 10
632.81699346399989
 20
4684.1501374299969
 30
8.0
  0
VERTEX
  5
BB4
  8
DISTRICTS
 10
632.71677559900002
 20
4684.1333919299968
 30
8.0
  0
VERTEX
  5
BB5
  8
DISTRICTS
 10
632.61655773400003
 20
4684.1223988299998
 30
8.0
  0
VERTEX
  5
BB6
  8
DISTRICTS
 10
632.51633986900003
 20
4684.116948349998
 30
8.0
  0
VERTEX
  5
BB7
  8
DISTRICTS
 10
632.41612200400004
 20
4684.1188695399978
 30
8.0
  0
VERTEX
  5
BB8
  8
DISTRICTS
 10
632.31590413900005
 20
4684.1326201900001
 30
8.0
  0
VERTEX
  5
BB9
  8
DISTRICTS
 10
632.21568627500005
 20
4684.13241475
 30
8.0
  0
VERTEX
  5
BBA
  8
DISTRICTS
 10
632.11546840999995
 20
4684.0727959100004
 30
8.0
  0
VERTEX
  5
BBB
  8
DISTRICTS
 10
632.09037117399976
 20
4684.0572792399998
 30
8.0
  0
VERTEX
  5
BBC
  8
DISTRICTS
 10
632.01525054499984
 20
4684.0283847299997
 30
8.0
  0
VERTEX
  5
BBD
  8
DISTRICTS
 10
631.91503267999985
 20
4683.9884980099969
 30
8.0
  0
VERTEX
  5
BBE
  8
DISTRICTS
 10
631.83740039099985
 20
4683.9570405699988
 30
8.0
  0
VERTEX
  5
BBF
  8
DISTRICTS
 10
631.81481481499975
 20
4683.948954649999
 30
8.0
  0
VERTEX
  5
BC0
  8
DISTRICTS
 10
631.71459694999999
 20
4683.9108278900012
 30
8.0
  0
VERTEX
  5
BC1
  8
DISTRICTS
 10
631.61437908499988
 20
4683.8684628800002
 30
8.0
  0
VERTEX
  5
BC2
  8
DISTRICTS
 10
631.58925408900006
 20
4683.8568019100003
 30
8.0
  0
VERTEX
  5
BC3
  8
DISTRICTS
 10
631.51416122000001
 20
4683.8250602799999
 30
8.0
  0
VERTEX
  5
BC4
  8
DISTRICTS
 10
631.41394335500001
 20
4683.777277969999
 30
8.0
  0
VERTEX
  5
BC5
  8
DISTRICTS
 10
631.37519278499985
 20
4683.75656325
 30
8.0
  0
VERTEX
  5
BC6
  8
DISTRICTS
 10
631.3137254899998
 20
4683.7268155100001
 30
8.0
  0
VERTEX
  5
BC7
  8
DISTRICTS
 10
631.21350762500003
 20
4683.6719315500013
 30
8.0
  0
VERTEX
  5
BC8
  8
DISTRICTS
 10
631.18815738599994
 20
4683.6563245799998
 30
8.0
  0
VERTEX
  5
BC9
  8
DISTRICTS
 10
631.11328976000004
 20
4683.61491303
 30
8.0
  0
VERTEX
  5
BCA
  8
DISTRICTS
 10
631.01307189500005
 20
4683.5515715499978
 30
8.0
  0
VERTEX
  5
BCB
  8
DISTRICTS
 10
630.91285403099994
 20
4683.4866345999999
 30
8.0
  0
VERTEX
  5
BCC
  8
DISTRICTS
 10
630.87187870599996
 20
4683.4558472600002
 30
8.0
  0
VERTEX
  5
BCD
  8
DISTRICTS
 10
630.81263616599995
 20
4683.4152805900003
 30
8.0
  0
VERTEX
  5
BCE
  8
DISTRICTS
 10
630.7388670769999
 20
4683.35560859
 30
8.0
  0
VERTEX
  5
BCF
  8
DISTRICTS
 10
630.71241830099984
 20
4683.3355460499979
 30
8.0
  0
VERTEX
  5
BD0
  8
DISTRICTS
 10
630.62354871800005
 20
4683.2553699299997
 30
8.0
  0
VERTEX
  5
BD1
  8
DISTRICTS
 10
630.61220043599985
 20
4683.2451024499987
 30
8.0
  0
VERTEX
  5
BD2
  8
DISTRICTS
 10
630.52512623500002
 20
4683.1551312600004
 30
8.0
  0
VERTEX
  5
BD3
  8
DISTRICTS
 10
630.51198257099998
 20
4683.1404099499996
 30
8.0
  0
VERTEX
  5
BD4
  8
DISTRICTS
 10
630.43922718199985
 20
4683.054892600001
 30
8.0
  0
VERTEX
  5
BD5
  8
DISTRICTS
 10
630.41176470599987
 20
4683.0192216300002
 30
8.0
  0
VERTEX
  5
BD6
  8
DISTRICTS
 10
630.36138750600003
 20
4682.9546539399998
 30
8.0
  0
VERTEX
  5
BD7
  8
DISTRICTS
 10
630.31154684099965
 20
4682.8864304199988
 30
8.0
  0
VERTEX
  5
BD8
  8
DISTRICTS
 10
630.28747662000001
 20
4682.8544152699969
 30
8.0
  0
VERTEX
  5
BD9
  8
DISTRICTS
 10
630.211328976
 20
4682.7501084799969
 30
8.0
  0
VERTEX
  5
BDA
  8
DISTRICTS
 10
630.13960860700001
 20
4682.6539379499991
 30
8.0
  0
VERTEX
  5
BDB
  8
DISTRICTS
 10
630.1111111109999
 20
4682.6154716999999
 30
8.0
  0
VERTEX
  5
BDC
  8
DISTRICTS
 10
630.06453496099994
 20
4682.553699279998
 30
8.0
  0
VERTEX
  5
BDD
  8
DISTRICTS
 10
630.01089324600002
 20
4682.4823301799997
 30
8.0
  0
VERTEX
  5
BDE
  8
DISTRICTS
 10
629.98886889300002
 20
4682.4534606200004
 30
8.0
  0
VERTEX
  5
BDF
  8
DISTRICTS
 10
629.91067538100003
 20
4682.3509732800012
 30
8.0
  0
VERTEX
  5
BE0
  8
DISTRICTS
 10
629.83389994599997
 20
4682.25298329
 30
8.0
  0
VERTEX
  5
BE1
  8
DISTRICTS
 10
629.81045751599993
 20
4682.223161769999
 30
8.0
  0
VERTEX
  5
BE2
  8
DISTRICTS
 10
629.75364177499989
 20
4682.152744629997
 30
8.0
  0
VERTEX
  5
BE3
  8
DISTRICTS
 10
629.71023965099994
 20
4682.0995943099979
 30
8.0
  0
VERTEX
  5
BE4
  8
DISTRICTS
 10
629.67045481299999
 20
4682.0525059700003
 30
8.0
  0
VERTEX
  5
BE5
  8
DISTRICTS
 10
629.61002178599995
 20
4681.9827306500001
 30
8.0
  0
VERTEX
  5
BE6
  8
DISTRICTS
 10
629.582451558
 20
4681.9522673000001
 30
8.0
  0
VERTEX
  5
BE7
  8
DISTRICTS
 10
629.50980392199995
 20
4681.8752696499987
 30
8.0
  0
VERTEX
  5
BE8
  8
DISTRICTS
 10
629.48660588199994
 20
4681.852028639998
 30
8.0
  0
VERTEX
  5
BE9
  8
DISTRICTS
 10
629.40958605699996
 20
4681.7795047999998
 30
8.0
  0
VERTEX
  5
BEA
  8
DISTRICTS
 10
629.37792029900004
 20
4681.7517899799977
 30
8.0
  0
VERTEX
  5
BEB
  8
DISTRICTS
 10
629.30936819199985
 20
4681.6966623099997
 30
8.0
  0
VERTEX
  5
BEC
  8
DISTRICTS
 10
629.24732827699995
 20
4681.6515513099994
 30
8.0
  0
VERTEX
  5
BED
  8
DISTRICTS
 10
629.20915032699986
 20
4681.6266284100002
 30
8.0
  0
VERTEX
  5
BEE
  8
DISTRICTS
 10
629.10893246199964
 20
4681.5700620099979
 30
8.0
  0
VERTEX
  5
BEF
  8
DISTRICTS
 10
629.06798164500003
 20
4681.5513126499991
 30
8.0
  0
VERTEX
  5
BF0
  8
DISTRICTS
 10
629.00871459699999
 20
4681.52818407
 30
8.0
  0
VERTEX
  5
BF1
  8
DISTRICTS
 10
628.90849673199989
 20
4681.5028178599987
 30
8.0
  0
VERTEX
  5
BF2
  8
DISTRICTS
 10
628.80827886700001
 20
4681.4940447199988
 30
8.0
  0
VERTEX
  5
BF3
  8
DISTRICTS
 10
628.70806100200002
 20
4681.4961541900002
 30
8.0
  0
VERTEX
  5
BF4
  8
DISTRICTS
 10
628.60784313699992
 20
4681.4907417900022
 30
8.0
  0
VERTEX
  5
BF5
  8
DISTRICTS
 10
628.50357170099994
 20
4681.4510739899988
 30
8.0
  0
VERTEX
  5
BF6
  8
DISTRICTS
 10
628.40740740699994
 20
4681.3732688500004
 30
8.0
  0
VERTEX
  5
BF7
  8
DISTRICTS
 10
628.38341214900004
 20
4681.3508353200004
 30
8.0
  0
VERTEX
  5
BF8
  8
DISTRICTS
 10
628.30718954199995
 20
4681.2449026100003
 30
8.0
  0
VERTEX
  5
BF9
  8
DISTRICTS
 10
628.20697167799995
 20
4681.1614642499981
 30
8.0
  0
VERTEX
  5
BFA
  8
DISTRICTS
 10
628.10675381300007
 20
4681.1624728300003
 30
8.0
  0
VERTEX
  5
BFB
  8
DISTRICTS
 10
628.00653594799996
 20
4681.2187369499998
 30
8.0
  0
VERTEX
  5
BFC
  8
DISTRICTS
 10
627.90631808299975
 20
4681.2384836499969
 30
8.0
  0
VERTEX
  5
BFD
  8
DISTRICTS
 10
627.80610021799998
 20
4681.2288198400001
 30
8.0
  0
VERTEX
  5
BFE
  8
DISTRICTS
 10
627.70588235299988
 20
4681.1746903599978
 30
8.0
  0
VERTEX
  5
BFF
  8
DISTRICTS
 10
627.68345464499987
 20
4681.1503579999999
 30
8.0
  0
VERTEX
  5
C00
  8
DISTRICTS
 10
627.64902148999988
 20
4681.0501193299997
 30
8.0
  0
VERTEX
  5
C01
  8
DISTRICTS
 10
627.70588235299988
 20
4680.9896217699998
 30
8.0
  0
VERTEX
  5
C02
  8
DISTRICTS
 10
627.78903988499985
 20
4680.9498806700003
 30
8.0
  0
VERTEX
  5
C03
  8
DISTRICTS
 10
627.80610021799998
 20
4680.935329599999
 30
8.0
  0
VERTEX
  5
C04
  8
DISTRICTS
 10
627.90631808299975
 20
4680.8612087199981
 30
8.0
  0
VERTEX
  5
C05
  8
DISTRICTS
 10
627.92073024199965
 20
4680.8496420000001
 30
8.0
  0
VERTEX
  5
C06
  8
DISTRICTS
 10
628.00653594799996
 20
4680.7759293600002
 30
8.0
  0
VERTEX
  5
C07
  8
DISTRICTS
 10
628.07920567799999
 20
4680.7494033399998
 30
8.0
  0
VERTEX
  5
C08
  8
DISTRICTS
 10
628.10675381300007
 20
4680.7207982600003
 30
8.0
  0
VERTEX
  5
C09
  8
DISTRICTS
 10
628.16143445
 20
4680.6491646799996
 30
8.0
  0
VERTEX
  5
C0A
  8
DISTRICTS
 10
628.19104011900004
 20
4680.5489260100012
 30
8.0
  0
VERTEX
  5
C0B
  8
DISTRICTS
 10
628.20794026399994
 20
4680.44868735
 30
8.0
  0
VERTEX
  5
C0C
  8
DISTRICTS
 10
628.22231515600004
 20
4680.3484486899997
 30
8.0
  0
VERTEX
  5
C0D
  8
DISTRICTS
 10
628.24409667700002
 20
4680.2482100200023
 30
8.0
  0
VERTEX
  5
C0E
  8
DISTRICTS
 10
628.28342259199985
 20
4680.1479713600002
 30
8.0
  0
VERTEX
  5
C0F
  8
DISTRICTS
 10
628.30718954199995
 20
4680.1091124699997
 30
8.0
  0
VERTEX
  5
C10
  8
DISTRICTS
 10
628.33827494000002
 20
4680.0477326999999
 30
8.0
  0
VERTEX
  5
C11
  8
DISTRICTS
 10
628.412452573
 20
4679.9474940299979
 30
8.0
  0
VERTEX
  5
C12
  8
DISTRICTS
 10
628.50762527199993
 20
4679.8461808900001
 30
8.0
  0
VERTEX
  5
C13
  8
DISTRICTS
 10
628.60784313699992
 20
4679.7609266199997
 30
8.0
  0
VERTEX
  5
C14
  8
DISTRICTS
 10
628.62929906500005
 20
4679.74701671
 30
8.0
  0
VERTEX
  5
C15
  8
DISTRICTS
 10
628.70806100200002
 20
4679.6889741900022
 30
8.0
  0
VERTEX
  5
C16
  8
DISTRICTS
 10
628.77872785800002
 20
4679.6467780399998
 30
8.0
  0
VERTEX
  5
C17
  8
DISTRICTS
 10
628.80827886700001
 20
4679.6262957899999
 30
8.0
  0
VERTEX
  5
C18
  8
DISTRICTS
 10
628.90849673199989
 20
4679.5656402699979
 30
8.0
  0
VERTEX
  5
C19
  8
DISTRICTS
 10
628.94390046000001
 20
4679.5465393799968
 30
8.0
  0
VERTEX
  5
C1A
  8
DISTRICTS
 10
629.00871459699999
 20
4679.50524253
 30
8.0
  0
VERTEX
  5
C1B
  8
DISTRICTS
 10
629.10893246199964
 20
4679.4454858400004
 30
8.0
  0
VERTEX
  5
C1C
  8
DISTRICTS
 10
629.20915032699986
 20
4679.3782534800002
 30
8.0
  0
VERTEX
  5
C1D
  8
DISTRICTS
 10
629.25710404199992
 20
4679.34606205
 30
8.0
  0
VERTEX
  5
C1E
  8
DISTRICTS
 10
629.30936819199985
 20
4679.306176019998
 30
8.0
  0
VERTEX
  5
C1F
  8
DISTRICTS
 10
629.38724280600002
 20
4679.2458233899997
 30
8.0
  0
VERTEX
  5
C20
  8
DISTRICTS
 10
629.40958605699996
 20
4679.22663792
 30
8.0
  0
VERTEX
  5
C21
  8
DISTRICTS
 10
629.50222461500016
 20
4679.1455847300003
 30
8.0
  0
VERTEX
  5
C22
  8
DISTRICTS
 10
629.50980392199995
 20
4679.1383974700002
 30
8.0
  0
VERTEX
  5
C23
  8
DISTRICTS
 10
629.61002178599995
 20
4679.0415218400012
 30
8.0
  0
VERTEX
  5
C24
  8
DISTRICTS
 10
629.70274928100002
 20
4678.945107399999
 30
8.0
  0
VERTEX
  5
C25
  8
DISTRICTS
 10
629.71023965099994
 20
4678.9369223599997
 30
8.0
  0
VERTEX
  5
C26
  8
DISTRICTS
 10
629.7938657000002
 20
4678.8448687399969
 30
8.0
  0
VERTEX
  5
C27
  8
DISTRICTS
 10
629.81045751599993
 20
4678.8258434199988
 30
8.0
  0
VERTEX
  5
C28
  8
DISTRICTS
 10
629.88113118000001
 20
4678.7446300700003
 30
8.0
  0
VERTEX
  5
C29
  8
DISTRICTS
 10
629.91067538100003
 20
4678.7094379199998
 30
8.0
  0
VERTEX
  5
C2A
  8
DISTRICTS
 10
629.96542490599995
 20
4678.6443914099982
 30
8.0
  0
VERTEX
  5
C2B
  8
DISTRICTS
 10
630.01089324600002
 20
4678.5884740000001
 30
8.0
  0
VERTEX
  5
C2C
  8
DISTRICTS
 10
630.04717054399975
 20
4678.544152739998
 30
8.0
  0
VERTEX
  5
C2D
  8
DISTRICTS
 10
630.1111111109999
 20
4678.4631547299987
 30
8.0
  0
VERTEX
  5
C2E
  8
DISTRICTS
 10
630.12644570500004
 20
4678.4439140799977
 30
8.0
  0
VERTEX
  5
C2F
  8
DISTRICTS
 10
630.20297846300002
 20
4678.3436754200002
 30
8.0
  0
VERTEX
  5
C30
  8
DISTRICTS
 10
630.211328976
 20
4678.3321802199989
 30
8.0
  0
VERTEX
  5
C31
  8
DISTRICTS
 10
630.27638406299991
 20
4678.24343675
 30
8.0
  0
VERTEX
  5
C32
  8
DISTRICTS
 10
630.31154684099965
 20
4678.192865109997
 30
8.0
  0
VERTEX
  5
C33
  8
DISTRICTS
 10
630.34637752599997
 20
4678.1431980899988
 30
8.0
  0
VERTEX
  5
C34
  8
DISTRICTS
 10
630.41240860000005
 20
4678.0429594300003
 30
8.0
  0
VERTEX
  5
C35
  8
DISTRICTS
 10
630.4737564909999
 20
4677.9427207599992
 30
8.0
  0
VERTEX
  5
C36
  8
DISTRICTS
 10
630.51198257099998
 20
4677.8748557199979
 30
8.0
  0
VERTEX
  5
C37
  8
DISTRICTS
 10
630.53020318400002
 20
4677.842482099999
 30
8.0
  0
VERTEX
  5
C38
  8
DISTRICTS
 10
630.58124305299975
 20
4677.7422434399996
 30
8.0
  0
VERTEX
  5
C39
  8
DISTRICTS
 10
630.61220043599985
 20
4677.6742998999998
 30
8.0
  0
VERTEX
  5
C3A
  8
DISTRICTS
 10
630.62677114300004
 20
4677.6420047700003
 30
8.0
  0
VERTEX
  5
C3B
  8
DISTRICTS
 10
630.66527975149506
 20
4677.5449989989384
 30
8.0
  0
VERTEX
  5
C3C
  8
DISTRICTS
 10
631.39113034963941
 20
4677.7225609040343
 30
8.0
  0
VERTEX
  5
C3D
  8
DISTRICTS
 10
632.96297777224015
 20
4678.301532608466
 30
8.0
  0
VERTEX
  5
C3E
  8
DISTRICTS
 10
633.943176793254
 20
4679.082193853902
 30
8.0
  0
VERTEX
  5
C3F
  8
DISTRICTS
 10
634.58997778588207
 20
4679.5973264521099
 30
8.0
  0
VERTEX
  5
C40
  8
DISTRICTS
 10
635.63787606761593
 20
4680.4244289087319
 30
8.0
  0
SEQEND
  5
C41
  8
DISTRICTS
  0
POLYLINE
  5
34
  8
DISTRICTS
 66
     1
 10
0.0
 20
0.0
 30
3.0
 70
     1
  0
VERTEX
  5
C42
  8
DISTRICTS
 10
640.53452714000002
 20
4685.2601431999992
 30
3.0
  0
VERTEX
  5
C43
  8
DISTRICTS
 10
640.43355119800003
 20
4685.279753009997
 30
3.0
  0
VERTEX
  5
C44
  8
DISTRICTS
 10
640.33333333300004
 20
4685.3025952500002
 30
3.0
  0
VERTEX
  5
C45
  8
DISTRICTS
 10
640.23311546800005
 20
4685.32902904
 30
3.0
  0
VERTEX
  5
C46
  8
DISTRICTS
 10
640.13289760300006
 20
4685.3592338099979
 30
3.0
  0
VERTEX
  5
C47
  8
DISTRICTS
 10
640.03267973899995
 20
4685.3911458000002
 30
3.0
  0
VERTEX
  5
C48
  8
DISTRICTS
 10
639.93246187399996
 20
4685.4269261499994
 30
3.0
  0
VERTEX
  5
C49
  8
DISTRICTS
 10
639.84688326900005
 20
4685.4606205299979
 30
3.0
  0
VERTEX
  5
C4A
  8
DISTRICTS
 10
639.83224400899985
 20
4685.4663644299981
 30
3.0
  0
VERTEX
  5
C4B
  8
DISTRICTS
 10
639.73202614399986
 20
4685.5076912100003
 30
3.0
  0
VERTEX
  5
C4C
  8
DISTRICTS
 10
639.63180827899976
 20
4685.5530171700002
 30
3.0
  0
VERTEX
  5
C4D
  8
DISTRICTS
 10
639.61493170000006
 20
4685.56085919
 30
3.0
  0
VERTEX
  5
C4E
  8
DISTRICTS
 10
639.53159041399999
 20
4685.5999137199988
 30
3.0
  0
VERTEX
  5
C4F
  8
DISTRICTS
 10
639.43137254899989
 20
4685.6495707100003
 30
3.0
  0
VERTEX
  5
C50
  8
DISTRICTS
 10
639.40807167800006
 20
4685.6610978500003
 30
3.0
  0
VERTEX
  5
C51
  8
DISTRICTS
 10
639.33115468400001
 20
4685.6989566100001
 30
3.0
  0
VERTEX
  5
C52
  8
DISTRICTS
 10
639.23093681900002
 20
4685.7466496799998
 30
3.0
  0
VERTEX
  5
C53
  8
DISTRICTS
 10
639.19881940599976
 20
4685.7613365200004
 30
3.0
  0
VERTEX
  5
C54
  8
DISTRICTS
 10
639.13071895400003
 20
4685.7859228799998
 30
3.0
  0
VERTEX
  5
C55
  8
DISTRICTS
 10
639.03050108900004
 20
4685.8255316900004
 30
3.0
  0
VERTEX
  5
C56
  8
DISTRICTS
 10
638.98009240099998
 20
4685.8615751799998
 30
3.0
  0
VERTEX
  5
C57
  8
DISTRICTS
 10
638.93028322400005
 20
4685.9102283800003
 30
3.0
  0
VERTEX
  5
C58
  8
DISTRICTS
 10
638.88030921599977
 20
4685.9618138400001
 30
3.0
  0
VERTEX
  5
C59
  8
DISTRICTS
 10
638.83006535899995
 20
4686.0382902800002
 30
3.0
  0
VERTEX
  5
C5A
  8
DISTRICTS
 10
638.80996299100002
 20
4686.0620525100003
 30
3.0
  0
VERTEX
  5
C5B
  8
DISTRICTS
 10
638.73507514400001
 20
4686.1622911699978
 30
3.0
  0
VERTEX
  5
C5C
  8
DISTRICTS
 10
638.65888882000002
 20
4686.2625298299999
 30
3.0
  0
VERTEX
  5
C5D
  8
DISTRICTS
 10
638.62962962999995
 20
4686.3031856199987
 30
3.0
  0
VERTEX
  5
C5E
  8
DISTRICTS
 10
638.58731350599965
 20
4686.3627685000001
 30
3.0
  0
VERTEX
  5
C5F
  8
DISTRICTS
 10
638.52941176499985
 20
4686.44995793
 30
3.0
  0
VERTEX
  5
C60
  8
DISTRICTS
 10
638.52100615300003
 20
4686.4630071600004
 30
3.0
  0
VERTEX
  5
C61
  8
DISTRICTS
 10
638.45788919400002
 20
4686.5632458199989
 30
3.0
  0
VERTEX
  5
C62
  8
DISTRICTS
 10
638.42919389999975
 20
4686.6111781
 30
3.0
  0
VERTEX
  5
C63
  8
DISTRICTS
 10
638.39883037799996
 20
4686.66348449
 30
3.0
  0
VERTEX
  5
C64
  8
DISTRICTS
 10
638.343211301
 20
4686.7637231500003
 30
3.0
  0
VERTEX
  5
C65
  8
DISTRICTS
 10
638.32897603499998
 20
4686.7900166299978
 30
3.0
  0
VERTEX
  5
C66
  8
DISTRICTS
 10
638.28981768800008
 20
4686.8639618099996
 30
3.0
  0
VERTEX
  5
C67
  8
DISTRICTS
 10
638.23991976299976
 20
4686.9642004799998
 30
3.0
  0
VERTEX
  5
C68
  8
DISTRICTS
 10
638.22875816999988
 20
4686.9872440999998
 30
3.0
  0
VERTEX
  5
C69
  8
DISTRICTS
 10
638.19159015399998
 20
4687.0644391400001
 30
3.0
  0
VERTEX
  5
C6A
  8
DISTRICTS
 10
638.14633628199988
 20
4687.1646778000022
 30
3.0
  0
VERTEX
  5
C6B
  8
DISTRICTS
 10
638.128540305
 20
4687.205754999999
 30
3.0
  0
VERTEX
  5
C6C
  8
DISTRICTS
 10
638.10241909299975
 20
4687.2649164699997
 30
3.0
  0
VERTEX
  5
C6D
  8
DISTRICTS
 10
638.05929559399999
 20
4687.3651551299999
 30
3.0
  0
VERTEX
  5
C6E
  8
DISTRICTS
 10
638.02832244000001
 20
4687.4368051600004
 30
3.0
  0
VERTEX
  5
C6F
  8
DISTRICTS
 10
638.01545384099995
 20
4687.4653937900002
 30
3.0
  0
VERTEX
  5
C70
  8
DISTRICTS
 10
637.96494421199975
 20
4687.5656324600013
 30
3.0
  0
VERTEX
  5
C71
  8
DISTRICTS
 10
637.92810457499979
 20
4687.6225154599997
 30
3.0
  0
VERTEX
  5
C72
  8
DISTRICTS
 10
637.90089616699993
 20
4687.6658711199998
 30
3.0
  0
VERTEX
  5
C73
  8
DISTRICTS
 10
637.82788671000003
 20
4687.7490290300002
 30
3.0
  0
VERTEX
  5
C74
  8
DISTRICTS
 10
637.81612835400006
 20
4687.76610979
 30
3.0
  0
VERTEX
  5
C75
  8
DISTRICTS
 10
637.73648105799975
 20
4687.8663484500003
 30
3.0
  0
VERTEX
  5
C76
  8
DISTRICTS
 10
637.72766884500004
 20
4687.8786009900032
 30
3.0
  0
VERTEX
  5
C77
  8
DISTRICTS
 10
637.68105685800003
 20
4687.9665871099996
 30
3.0
  0
VERTEX
  5
C78
  8
DISTRICTS
 10
637.66466270399985
 20
4688.0668257799998
 30
3.0
  0
VERTEX
  5
C79
  8
DISTRICTS
 10
637.68883880600004
 20
4688.1670644400001
 30
3.0
  0
VERTEX
  5
C7A
  8
DISTRICTS
 10
637.72766884500004
 20
4688.2425662200003
 30
3.0
  0
VERTEX
  5
C7B
  8
DISTRICTS
 10
637.746098211
 20
4688.2673031000004
 30
3.0
  0
VERTEX
  5
C7C
  8
DISTRICTS
 10
637.81151498400004
 20
4688.3675417699988
 30
3.0
  0
VERTEX
  5
C7D
  8
DISTRICTS
 10
637.82788671000003
 20
4688.4343713699991
 30
3.0
  0
VERTEX
  5
C7E
  8
DISTRICTS
 10
637.84169523900005
 20
4688.467780429999
 30
3.0
  0
VERTEX
  5
C7F
  8
DISTRICTS
 10
637.83352893199981
 20
4688.5680190900002
 30
3.0
  0
VERTEX
  5
C80
  8
DISTRICTS
 10
637.92512573699992
 20
4688.6682577600004
 30
3.0
  0
VERTEX
  5
C81
  8
DISTRICTS
 10
637.92810457499979
 20
4688.6863640499978
 30
3.0
  0
VERTEX
  5
C82
  8
DISTRICTS
 10
637.93704136500003
 20
4688.768496419998
 30
3.0
  0
VERTEX
  5
C83
  8
DISTRICTS
 10
637.93777917800003
 20
4688.8687350800001
 30
3.0
  0
VERTEX
  5
C84
  8
DISTRICTS
 10
637.93639470899996
 20
4688.9689737500003
 30
3.0
  0
VERTEX
  5
C85
  8
DISTRICTS
 10
637.92993463799996
 20
4689.0692124099969
 30
3.0
  0
VERTEX
  5
C86
  8
DISTRICTS
 10
637.98677655300003
 20
4689.169451069999
 30
3.0
  0
VERTEX
  5
C87
  8
DISTRICTS
 10
638.02832244000001
 20
4689.25612886
 30
3.0
  0
VERTEX
  5
C88
  8
DISTRICTS
 10
638.03464734399995
 20
4689.2696897400001
 30
3.0
  0
VERTEX
  5
C89
  8
DISTRICTS
 10
638.07636710500003
 20
4689.3699283999977
 30
3.0
  0
VERTEX
  5
C8A
  8
DISTRICTS
 10
638.12190466699997
 20
4689.4701670599998
 30
3.0
  0
VERTEX
  5
C8B
  8
DISTRICTS
 10
638.128540305
 20
4689.4829358200004
 30
3.0
  0
VERTEX
  5
C8C
  8
DISTRICTS
 10
638.1565233959999
 20
4689.5704057299999
 30
3.0
  0
VERTEX
  5
C8D
  8
DISTRICTS
 10
638.22875816999988
 20
4689.6566640700012
 30
3.0
  0
VERTEX
  5
C8E
  8
DISTRICTS
 10
638.25159134299997
 20
4689.6706443900002
 30
3.0
  0
VERTEX
  5
C8F
  8
DISTRICTS
 10
638.32897603499998
 20
4689.74343417
 30
3.0
  0
VERTEX
  5
C90
  8
DISTRICTS
 10
638.36760847599999
 20
4689.7708830499969
 30
3.0
  0
VERTEX
  5
C91
  8
DISTRICTS
 10
638.42919389999975
 20
4689.82665481
 30
3.0
  0
VERTEX
  5
C92
  8
DISTRICTS
 10
638.48476526699994
 20
4689.871121719998
 30
3.0
  0
VERTEX
  5
C93
  8
DISTRICTS
 10
638.52941176499985
 20
4689.9147565599988
 30
3.0
  0
VERTEX
  5
C94
  8
DISTRICTS
 10
638.58903371500003
 20
4689.9713603800001
 30
3.0
  0
VERTEX
  5
C95
  8
DISTRICTS
 10
638.62962962999995
 20
4690.0169605299998
 30
3.0
  0
VERTEX
  5
C96
  8
DISTRICTS
 10
638.67668493500003
 20
4690.0715990500003
 30
3.0
  0
VERTEX
  5
C97
  8
DISTRICTS
 10
638.72984749499994
 20
4690.1406356599991
 30
3.0
  0
VERTEX
  5
C98
  8
DISTRICTS
 10
638.75259089500003
 20
4690.1718377099987
 30
3.0
  0
VERTEX
  5
C99
  8
DISTRICTS
 10
638.822055793
 20
4690.2720763699999
 30
3.0
  0
VERTEX
  5
C9A
  8
DISTRICTS
 10
638.83006535899995
 20
4690.2841712099998
 30
3.0
  0
VERTEX
  5
C9B
  8
DISTRICTS
 10
638.88715456699993
 20
4690.3723150400001
 30
3.0
  0
VERTEX
  5
C9C
  8
DISTRICTS
 10
638.93028322400005
 20
4690.4394810000013
 30
3.0
  0
VERTEX
  5
C9D
  8
DISTRICTS
 10
638.95168051099995
 20
4690.4725537000013
 30
3.0
  0
VERTEX
  5
C9E
  8
DISTRICTS
 10
639.01425940199999
 20
4690.5727923599998
 30
3.0
  0
VERTEX
  5
C9F
  8
DISTRICTS
 10
639.03050108900004
 20
4690.6019948700023
 30
3.0
  0
VERTEX
  5
CA0
  8
DISTRICTS
 10
639.07250141500003
 20
4690.6730310299999
 30
3.0
  0
VERTEX
  5
CA1
  8
DISTRICTS
 10
639.120860666
 20
4690.7732696900011
 30
3.0
  0
VERTEX
  5
CA2
  8
DISTRICTS
 10
639.13071895400003
 20
4690.8095628199999
 30
3.0
  0
VERTEX
  5
CA3
  8
DISTRICTS
 10
639.15016985699992
 20
4690.8735083499996
 30
3.0
  0
VERTEX
  5
CA4
  8
DISTRICTS
 10
639.146116119
 20
4690.9737470199998
 30
3.0
  0
VERTEX
  5
CA5
  8
DISTRICTS
 10
639.13071895400003
 20
4691.0022576000001
 30
3.0
  0
VERTEX
  5
CA6
  8
DISTRICTS
 10
639.09921698799997
 20
4691.0739856800001
 30
3.0
  0
VERTEX
  5
CA7
  8
DISTRICTS
 10
639.03050108900004
 20
4691.1560838200012
 30
3.0
  0
VERTEX
  5
CA8
  8
DISTRICTS
 10
639.01945142399995
 20
4691.1742243400004
 30
3.0
  0
VERTEX
  5
CA9
  8
DISTRICTS
 10
638.94208786900003
 20
4691.2744630099996
 30
3.0
  0
VERTEX
  5
CAA
  8
DISTRICTS
 10
638.93028322400005
 20
4691.294574759997
 30
3.0
  0
VERTEX
  5
CAB
  8
DISTRICTS
 10
638.88563308199991
 20
4691.3747016699999
 30
3.0
  0
VERTEX
  5
CAC
  8
DISTRICTS
 10
638.84114431299997
 20
4691.4749403300002
 30
3.0
  0
VERTEX
  5
CAD
  8
DISTRICTS
 10
638.83006535899995
 20
4691.4930331100004
 30
3.0
  0
VERTEX
  5
CAE
  8
DISTRICTS
 10
638.78095079399998
 20
4691.5751789999986
 30
3.0
  0
VERTEX
  5
CAF
  8
DISTRICTS
 10
638.72984749499994
 20
4691.6535863199997
 30
3.0
  0
VERTEX
  5
CB0
  8
DISTRICTS
 10
638.71992906900005
 20
4691.6754176599989
 30
3.0
  0
VERTEX
  5
CB1
  8
DISTRICTS
 10
638.72303973999965
 20
4691.7756563199991
 30
3.0
  0
VERTEX
  5
CB2
  8
DISTRICTS
 10
638.72984749499994
 20
4691.8022171399998
 30
3.0
  0
VERTEX
  5
CB3
  8
DISTRICTS
 10
638.74819558599995
 20
4691.8758949900002
 30
3.0
  0
VERTEX
  5
CB4
  8
DISTRICTS
 10
638.76248553199991
 20
4691.9761336499978
 30
3.0
  0
VERTEX
  5
CB5
  8
DISTRICTS
 10
638.76800177099994
 20
4692.076372319998
 30
3.0
  0
VERTEX
  5
CB6
  8
DISTRICTS
 10
638.76115001599999
 20
4692.1766109800001
 30
3.0
  0
VERTEX
  5
CB7
  8
DISTRICTS
 10
638.7551318699999
 20
4692.2768496400004
 30
3.0
  0
VERTEX
  5
CB8
  8
DISTRICTS
 10
638.77809186399975
 20
4692.3770883099978
 30
3.0
  0
VERTEX
  5
CB9
  8
DISTRICTS
 10
638.80753104500002
 20
4692.4773269699981
 30
3.0
  0
VERTEX
  5
CBA
  8
DISTRICTS
 10
638.83006535899995
 20
4692.5201784399969
 30
3.0
  0
VERTEX
  5
CBB
  8
DISTRICTS
 10
638.89836290999995
 20
4692.5775656300002
 30
3.0
  0
VERTEX
  5
CBC
  8
DISTRICTS
 10
638.93028322400005
 20
4692.5902088399998
 30
3.0
  0
VERTEX
  5
CBD
  8
DISTRICTS
 10
638.96558688900006
 20
4692.5775656300002
 30
3.0
  0
VERTEX
  5
CBE
  8
DISTRICTS
 10
639.03050108900004
 20
4692.5579818699998
 30
3.0
  0
VERTEX
  5
CBF
  8
DISTRICTS
 10
639.13071895400003
 20
4692.4999646300002
 30
3.0
  0
VERTEX
  5
CC0
  8
DISTRICTS
 10
639.17034552099994
 20
4692.4773269699981
 30
3.0
  0
VERTEX
  5
CC1
  8
DISTRICTS
 10
639.23093681900002
 20
4692.443290109999
 30
3.0
  0
VERTEX
  5
CC2
  8
DISTRICTS
 10
639.33059355399985
 20
4692.3770883099978
 30
3.0
  0
VERTEX
  5
CC3
  8
DISTRICTS
 10
639.43137254899989
 20
4692.29398442
 30
3.0
  0
VERTEX
  5
CC4
  8
DISTRICTS
 10
639.45196684099994
 20
4692.2768496400004
 30
3.0
  0
VERTEX
  5
CC5
  8
DISTRICTS
 10
639.53159041399999
 20
4692.2011993100032
 30
3.0
  0
VERTEX
  5
CC6
  8
DISTRICTS
 10
639.56648400099994
 20
4692.1766109800001
 30
3.0
  0
VERTEX
  5
CC7
  8
DISTRICTS
 10
639.63180827899976
 20
4692.1373636500002
 30
3.0
  0
VERTEX
  5
CC8
  8
DISTRICTS
 10
639.73202614399986
 20
4692.0865517800012
 30
3.0
  0
VERTEX
  5
CC9
  8
DISTRICTS
 10
639.75098842199975
 20
4692.076372319998
 30
3.0
  0
VERTEX
  5
CCA
  8
DISTRICTS
 10
639.83224400899985
 20
4692.0345283999977
 30
3.0
  0
VERTEX
  5
CCB
  8
DISTRICTS
 10
639.93246187399996
 20
4691.978281149999
 30
3.0
  0
VERTEX
  5
CCC
  8
DISTRICTS
 10
640.03267973899995
 20
4691.9571149100002
 30
3.0
  0
VERTEX
  5
CCD
  8
DISTRICTS
 10
640.13289760300006
 20
4691.9637196200001
 30
3.0
  0
VERTEX
  5
CCE
  8
DISTRICTS
 10
640.23311546800005
 20
4691.9746295699979
 30
3.0
  0
VERTEX
  5
CCF
  8
DISTRICTS
 10
640.25332968800001
 20
4691.9761336499978
 30
3.0
  0
VERTEX
  5
CD0
  8
DISTRICTS
 10
640.33333333300004
 20
4691.9830101899988
 30
3.0
  0
VERTEX
  5
CD1
  8
DISTRICTS
 10
640.43355119800003
 20
4691.9849459699981
 30
3.0
  0
VERTEX
  5
CD2
  8
DISTRICTS
 10
640.46329316499998
 20
4691.9761336499978
 30
3.0
  0
VERTEX
  5
CD3
  8
DISTRICTS
 10
640.53376906300002
 20
4691.9611084199996
 30
3.0
  0
VERTEX
  5
CD4
  8
DISTRICTS
 10
640.6339869279999
 20
4691.8975724700003
 30
3.0
  0
VERTEX
  5
CD5
  8
DISTRICTS
 10
640.65995638300001
 20
4691.8758949900002
 30
3.0
  0
VERTEX
  5
CD6
  8
DISTRICTS
 10
640.734204793
 20
4691.7934326299992
 30
3.0
  0
VERTEX
  5
CD7
  8
DISTRICTS
 10
640.75011623599994
 20
4691.7756563199991
 30
3.0
  0
VERTEX
  5
CD8
  8
DISTRICTS
 10
640.81715389399994
 20
4691.6754176599989
 30
3.0
  0
VERTEX
  5
CD9
  8
DISTRICTS
 10
640.83442265799965
 20
4691.6421627199998
 30
3.0
  0
VERTEX
  5
CDA
  8
DISTRICTS
 10
640.88094526199995
 20
4691.5751789999986
 30
3.0
  0
VERTEX
  5
CDB
  8
DISTRICTS
 10
640.93464052299987
 20
4691.502452499999
 30
3.0
  0
VERTEX
  5
CDC
  8
DISTRICTS
 10
640.95671572699985
 20
4691.4749403300002
 30
3.0
  0
VERTEX
  5
CDD
  8
DISTRICTS
 10
641.03485838799998
 20
4691.3845533999984
 30
3.0
  0
VERTEX
  5
CDE
  8
DISTRICTS
 10
641.04247497499966
 20
4691.3747016699999
 30
3.0
  0
VERTEX
  5
CDF
  8
DISTRICTS
 10
641.11298443099975
 20
4691.2744630099996
 30
3.0
  0
VERTEX
  5
CE0
  8
DISTRICTS
 10
641.13507625299997
 20
4691.2179633400001
 30
3.0
  0
VERTEX
  5
CE1
  8
DISTRICTS
 10
641.15534133599999
 20
4691.1742243400004
 30
3.0
  0
VERTEX
  5
CE2
  8
DISTRICTS
 10
641.17652126400003
 20
4691.0739856800001
 30
3.0
  0
VERTEX
  5
CE3
  8
DISTRICTS
 10
641.17679700600002
 20
4690.9737470199998
 30
3.0
  0
VERTEX
  5
CE4
  8
DISTRICTS
 10
641.16390254400005
 20
4690.8735083499996
 30
3.0
  0
VERTEX
  5
CE5
  8
DISTRICTS
 10
641.14755602599985
 20
4690.7732696900011
 30
3.0
  0
VERTEX
  5
CE6
  8
DISTRICTS
 10
641.13967518299989
 20
4690.6730310299999
 30
3.0
  0
VERTEX
  5
CE7
  8
DISTRICTS
 10
641.14988545099993
 20
4690.5727923599998
 30
3.0
  0
VERTEX
  5
CE8
  8
DISTRICTS
 10
641.18189280599995
 20
4690.4725537000013
 30
3.0
  0
VERTEX
  5
CE9
  8
DISTRICTS
 10
641.23398632400006
 20
4690.3723150400001
 30
3.0
  0
VERTEX
  5
CEA
  8
DISTRICTS
 10
641.30526588400005
 20
4690.2720763699999
 30
3.0
  0
VERTEX
  5
CEB
  8
DISTRICTS
 10
641.33551198300006
 20
4690.2359953699997
 30
3.0
  0
VERTEX
  5
CEC
  8
DISTRICTS
 10
641.39342129299996
 20
4690.1718377099987
 30
3.0
  0
VERTEX
  5
CED
  8
DISTRICTS
 10
641.43572984699995
 20
4690.1300172600004
 30
3.0
  0
VERTEX
  5
CEE
  8
DISTRICTS
 10
641.49898032099998
 20
4690.0715990500003
 30
3.0
  0
VERTEX
  5
CEF
  8
DISTRICTS
 10
641.53594771199994
 20
4690.0404081099978
 30
3.0
  0
VERTEX
  5
CF0
  8
DISTRICTS
 10
641.62257511199994
 20
4689.9713603800001
 30
3.0
  0
VERTEX
  5
CF1
  8
DISTRICTS
 10
641.63616557699993
 20
4689.96131788
 30
3.0
  0
VERTEX
  5
CF2
  8
DISTRICTS
 10
641.73638344199992
 20
4689.8904018599978
 30
3.0
  0
VERTEX
  5
CF3
  8
DISTRICTS
 10
641.76480266500016
 20
4689.871121719998
 30
3.0
  0
VERTEX
  5
CF4
  8
DISTRICTS
 10
641.83660130699991
 20
4689.8248526400012
 30
3.0
  0
VERTEX
  5
CF5
  8
DISTRICTS
 10
641.92240655699993
 20
4689.7708830499969
 30
3.0
  0
VERTEX
  5
CF6
  8
DISTRICTS
 10
641.93681917200001
 20
4689.7621339099996
 30
3.0
  0
VERTEX
  5
CF7
  8
DISTRICTS
 10
642.037037037
 20
4689.7029117100001
 30
3.0
  0
VERTEX
  5
CF8
  8
DISTRICTS
 10
642.09311133299991
 20
4689.6706443900002
 30
3.0
  0
VERTEX
  5
CF9
  8
DISTRICTS
 10
642.13725490199988
 20
4689.6449926900004
 30
3.0
  0
VERTEX
  5
CFA
  8
DISTRICTS
 10
642.23747276699999
 20
4689.5877199699999
 30
3.0
  0
VERTEX
  5
CFB
  8
DISTRICTS
 10
642.26976257299975
 20
4689.5704057299999
 30
3.0
  0
VERTEX
  5
CFC
  8
DISTRICTS
 10
642.33769063199975
 20
4689.52982436
 30
3.0
  0
VERTEX
  5
CFD
  8
DISTRICTS
 10
642.42872050999995
 20
4689.4701670599998
 30
3.0
  0
VERTEX
  5
CFE
  8
DISTRICTS
 10
642.43790849699985
 20
4689.4630975999999
 30
3.0
  0
VERTEX
  5
CFF
  8
DISTRICTS
 10
642.53417786199986
 20
4689.3699283999977
 30
3.0
  0
VERTEX
  5
D00
  8
DISTRICTS
 10
642.60554613899978
 20
4689.2696897400001
 30
3.0
  0
VERTEX
  5
D01
  8
DISTRICTS
 10
642.63834422699995
 20
4689.2218727600011
 30
3.0
  0
VERTEX
  5
D02
  8
DISTRICTS
 10
642.66809658800003
 20
4689.169451069999
 30
3.0
  0
VERTEX
  5
D03
  8
DISTRICTS
 10
642.72815145599975
 20
4689.0692124099969
 30
3.0
  0
VERTEX
  5
D04
  8
DISTRICTS
 10
642.73856209199994
 20
4689.0527043099992
 30
3.0
  0
VERTEX
  5
D05
  8
DISTRICTS
 10
642.78641956599995
 20
4688.9689737500003
 30
3.0
  0
VERTEX
  5
D06
  8
DISTRICTS
 10
642.83877995599994
 20
4688.8755235899998
 30
3.0
  0
VERTEX
  5
D07
  8
DISTRICTS
 10
642.89618135699993
 20
4688.768496419998
 30
3.0
  0
VERTEX
  5
D08
  8
DISTRICTS
 10
642.93899782099993
 20
4688.6836785200003
 30
3.0
  0
VERTEX
  5
D09
  8
DISTRICTS
 10
642.94647719400007
 20
4688.6682577600004
 30
3.0
  0
VERTEX
  5
D0A
  8
DISTRICTS
 10
642.99426234899965
 20
4688.5680190900002
 30
3.0
  0
VERTEX
  5
D0B
  8
DISTRICTS
 10
643.03755984400004
 20
4688.467780429999
 30
3.0
  0
VERTEX
  5
D0C
  8
DISTRICTS
 10
643.07849767100004
 20
4688.3675417699988
 30
3.0
  0
VERTEX
  5
D0D
  8
DISTRICTS
 10
643.11492711300002
 20
4688.2673031000004
 30
3.0
  0
VERTEX
  5
D0E
  8
DISTRICTS
 10
643.13943355100002
 20
4688.1910977300004
 30
3.0
  0
VERTEX
  5
D0F
  8
DISTRICTS
 10
643.14728877599998
 20
4688.1670644400001
 30
3.0
  0
VERTEX
  5
D10
  8
DISTRICTS
 10
643.17686476099993
 20
4688.0668257799998
 30
3.0
  0
VERTEX
  5
D11
  8
DISTRICTS
 10
643.20202610199988
 20
4687.9665871099996
 30
3.0
  0
VERTEX
  5
D12
  8
DISTRICTS
 10
643.22291827599975
 20
4687.8663484500003
 30
3.0
  0
VERTEX
  5
D13
  8
DISTRICTS
 10
643.23965141600002
 20
4687.76653506
 30
3.0
  0
VERTEX
  5
D14
  8
DISTRICTS
 10
643.25387609999996
 20
4687.6658711199998
 30
3.0
  0
VERTEX
  5
D15
  8
DISTRICTS
 10
643.26402346299994
 20
4687.5656324600013
 30
3.0
  0
VERTEX
  5
D16
  8
DISTRICTS
 10
643.27034496600004
 20
4687.4653937900002
 30
3.0
  0
VERTEX
  5
D17
  8
DISTRICTS
 10
643.27315099400005
 20
4687.3651551299999
 30
3.0
  0
VERTEX
  5
D18
  8
DISTRICTS
 10
643.27349379600003
 20
4687.2649164699997
 30
3.0
  0
VERTEX
  5
D19
  8
DISTRICTS
 10
643.28659326000002
 20
4687.1646778000022
 30
3.0
  0
VERTEX
  5
D1A
  8
DISTRICTS
 10
643.25919530199997
 20
4687.0644391400001
 30
3.0
  0
VERTEX
  5
D1B
  8
DISTRICTS
 10
643.24103052700002
 20
4686.9642004799998
 30
3.0
  0
VERTEX
  5
D1C
  8
DISTRICTS
 10
643.22273975799999
 20
4686.8639618099996
 30
3.0
  0
VERTEX
  5
D1D
  8
DISTRICTS
 10
643.20110962299998
 20
4686.7637231500003
 30
3.0
  0
VERTEX
  5
D1E
  8
DISTRICTS
 10
643.17537965799977
 20
4686.66348449
 30
3.0
  0
VERTEX
  5
D1F
  8
DISTRICTS
 10
643.14505523800005
 20
4686.5632458199989
 30
3.0
  0
VERTEX
  5
D20
  8
DISTRICTS
 10
643.13943355100002
 20
4686.5468648599999
 30
3.0
  0
VERTEX
  5
D21
  8
DISTRICTS
 10
643.11223366599995
 20
4686.4630071600004
 30
3.0
  0
VERTEX
  5
D22
  8
DISTRICTS
 10
643.07431729199993
 20
4686.3627685000001
 30
3.0
  0
VERTEX
  5
D23
  8
DISTRICTS
 10
643.03921568600003
 20
4686.28354726
 30
3.0
  0
VERTEX
  5
D24
  8
DISTRICTS
 10
643.03039037099995
 20
4686.2625298299999
 30
3.0
  0
VERTEX
  5
D25
  8
DISTRICTS
 10
642.98172325300004
 20
4686.1622911699978
 30
3.0
  0
VERTEX
  5
D26
  8
DISTRICTS
 10
642.93899782099993
 20
4686.0889780399993
 30
3.0
  0
VERTEX
  5
D27
  8
DISTRICTS
 10
642.92359331300008
 20
4686.0620525100003
 30
3.0
  0
VERTEX
  5
D28
  8
DISTRICTS
 10
642.85559575299999
 20
4685.9618138400001
 30
3.0
  0
VERTEX
  5
D29
  8
DISTRICTS
 10
642.83877995599994
 20
4685.9400329800001
 30
3.0
  0
VERTEX
  5
D2A
  8
DISTRICTS
 10
642.77426358900004
 20
4685.8615751799998
 30
3.0
  0
VERTEX
  5
D2B
  8
DISTRICTS
 10
642.73856209199994
 20
4685.8228511099987
 30
3.0
  0
VERTEX
  5
D2C
  8
DISTRICTS
 10
642.67461520999996
 20
4685.7613365200004
 30
3.0
  0
VERTEX
  5
D2D
  8
DISTRICTS
 10
642.63834422699995
 20
4685.7282177099987
 30
3.0
  0
VERTEX
  5
D2E
  8
DISTRICTS
 10
642.55201109399991
 20
4685.6610978500003
 30
3.0
  0
VERTEX
  5
D2F
  8
DISTRICTS
 10
642.53812636199984
 20
4685.6502591999997
 30
3.0
  0
VERTEX
  5
D30
  8
DISTRICTS
 10
642.43790849699985
 20
4685.5824548700002
 30
3.0
  0
VERTEX
  5
D31
  8
DISTRICTS
 10
642.399761442
 20
4685.56085919
 30
3.0
  0
VERTEX
  5
D32
  8
DISTRICTS
 10
642.33769063199975
 20
4685.5233253500001
 30
3.0
  0
VERTEX
  5
D33
  8
DISTRICTS
 10
642.23747276699999
 20
4685.4715054799999
 30
3.0
  0
VERTEX
  5
D34
  8
DISTRICTS
 10
642.21365493199994
 20
4685.4606205299979
 30
3.0
  0
VERTEX
  5
D35
  8
DISTRICTS
 10
642.13725490199988
 20
4685.4227244100002
 30
3.0
  0
VERTEX
  5
D36
  8
DISTRICTS
 10
642.037037037
 20
4685.3781513499998
 30
3.0
  0
VERTEX
  5
D37
  8
DISTRICTS
 10
641.99471611299975
 20
4685.3603818600004
 30
3.0
  0
VERTEX
  5
D38
  8
DISTRICTS
 10
641.93681917200001
 20
4685.3344339200003
 30
3.0
  0
VERTEX
  5
D39
  8
DISTRICTS
 10
641.83660130699991
 20
4685.2901196900002
 30
3.0
  0
VERTEX
  5
D3A
  8
DISTRICTS
 10
641.77378291399998
 20
4685.2601431999992
 30
3.0
  0
VERTEX
  5
D3B
  8
DISTRICTS
 10
641.73638344199992
 20
4685.2430560000003
 30
3.0
  0
VERTEX
  5
D3C
  8
DISTRICTS
 10
641.63616557699993
 20
4685.1969698899984
 30
3.0
  0
VERTEX
  5
D3D
  8
DISTRICTS
 10
641.53594771199994
 20
4685.1714250000023
 30
3.0
  0
VERTEX
  5
D3E
  8
DISTRICTS
 10
641.43572984699995
 20
4685.1665067899994
 30
3.0
  0
VERTEX
  5
D3F
  8
DISTRICTS
 10
641.33551198300006
 20
4685.1724340399996
 30
3.0
  0
VERTEX
  5
D40
  8
DISTRICTS
 10
641.23529411799996
 20
4685.1816503999989
 30
3.0
  0
VERTEX
  5
D41
  8
DISTRICTS
 10
641.13507625299997
 20
4685.1897828800011
 30
3.0
  0
VERTEX
  5
D42
  8
DISTRICTS
 10
641.03485838799998
 20
4685.1973594700003
 30
3.0
  0
VERTEX
  5
D43
  8
DISTRICTS
 10
640.93464052299987
 20
4685.2056387900002
 30
3.0
  0
VERTEX
  5
D44
  8
DISTRICTS
 10
640.83442265799965
 20
4685.2155406399979
 30
3.0
  0
VERTEX
  5
D45
  8
DISTRICTS
 10
640.734204793
 20
4685.22767621
 30
3.0
  0
VERTEX
  5
D46
  8
DISTRICTS
 10
640.6339869279999
 20
4685.2424776500002
 30
3.0
  0
SEQEND
  5
D47
  8
DISTRICTS
  0
ENDSEC
  0
EOF
