  0
SECTION
  2
HEADER
  9
$ACADVER
  1
AC1009
  9
$INSBASE
 10
0.0
 20
0.0
 30
0.0
  9
$EXTMIN
 10
624.98655652690263
 20
4659.6416179393909
 30
-0.0015258207003583
  9
$EXTMAX
 10
671.02891368542464
 20
4702.3491320441817
 30
0.0000000349246037
  9
$LIMMIN
 10
0.0
 20
0.0
  9
$LIMMAX
 10
12.0
 20
9.0
  9
$ORTHOMODE
 70
     0
  9
$REGENMODE
 70
     1
  9
$FILLMODE
 70
     1
  9
$QTEXTMODE
 70
     0
  9
$MIRRTEXT
 70
     1
  9
$DRAGMODE
 70
     2
  9
$LTSCALE
 40
1.0
  9
$OSMODE
 70
   613
  9
$ATTMODE
 70
     1
  9
$TEXTSIZE
 40
0.2
  9
$TRACEWID
 40
0.05
  9
$TEXTSTYLE
  7
ARIAL
  9
$CLAYER
  8
RIVERS
  9
$CELTYPE
  6
BYLAYER
  9
$CECOLOR
 62
   256
  9
$DIMSCALE
 40
1.0
  9
$DIMASZ
 40
0.18
  9
$DIMEXO
 40
0.0625
  9
$DIMDLI
 40
0.38
  9
$DIMRND
 40
0.0
  9
$DIMDLE
 40
0.0
  9
$DIMEXE
 40
0.18
  9
$DIMTP
 40
0.0
  9
$DIMTM
 40
0.0
  9
$DIMTXT
 40
0.18
  9
$DIMCEN
 40
0.09
  9
$DIMTSZ
 40
0.0
  9
$DIMTOL
 70
     0
  9
$DIMLIM
 70
     0
  9
$DIMTIH
 70
     1
  9
$DIMTOH
 70
     1
  9
$DIMSE1
 70
     0
  9
$DIMSE2
 70
     0
  9
$DIMTAD
 70
     0
  9
$DIMZIN
 70
     0
  9
$DIMBLK
  1

  9
$DIMASO
 70
     1
  9
$DIMSHO
 70
     1
  9
$DIMPOST
  1

  9
$DIMAPOST
  1

  9
$DIMALT
 70
     0
  9
$DIMALTD
 70
     2
  9
$DIMALTF
 40
25.399999999999999
  9
$DIMLFAC
 40
1.0
  9
$DIMTOFL
 70
     0
  9
$DIMTVP
 40
0.0
  9
$DIMTIX
 70
     0
  9
$DIMSOXD
 70
     0
  9
$DIMSAH
 70
     0
  9
$DIMBLK1
  1

  9
$DIMBLK2
  1

  9
$DIMSTYLE
  2
STANDARD
  9
$DIMCLRD
 70
     0
  9
$DIMCLRE
 70
     0
  9
$DIMCLRT
 70
     0
  9
$DIMTFAC
 40
1.0
  9
$DIMGAP
 40
0.09
  9
$LUNITS
 70
     2
  9
$LUPREC
 70
     4
  9
$SKETCHINC
 40
0.1
  9
$FILLETRAD
 40
0.5
  9
$AUNITS
 70
     0
  9
$AUPREC
 70
     0
  9
$MENU
  1
.
  9
$ELEVATION
 40
0.0
  9
$PELEVATION
 40
0.0
  9
$THICKNESS
 40
0.0
  9
$LIMCHECK
 70
     0
  9
$BLIPMODE
 70
     0
  9
$CHAMFERA
 40
0.5
  9
$CHAMFERB
 40
0.5
  9
$SKPOLY
 70
     0
  9
$TDCREATE
 40
2451380.7704007518
  9
$TDUPDATE
 40
2454384.3948960528
  9
$TDINDWG
 40
0.3543803356
  9
$TDUSRTIMER
 40
0.3543803356
  9
$USRTIMER
 70
     1
  9
$ANGBASE
 50
0.0
  9
$ANGDIR
 70
     0
  9
$PDMODE
 70
     0
  9
$PDSIZE
 40
0.0
  9
$PLINEWID
 40
0.0
  9
$COORDS
 70
     1
  9
$SPLFRAME
 70
     0
  9
$SPLINETYPE
 70
     6
  9
$SPLINESEGS
 70
     8
  9
$ATTDIA
 70
     0
  9
$ATTREQ
 70
     1
  9
$HANDLING
 70
     1
  9
$HANDSEED
  5
988
  9
$SURFTAB1
 70
     6
  9
$SURFTAB2
 70
     6
  9
$SURFTYPE
 70
     6
  9
$SURFU
 70
     6
  9
$SURFV
 70
     6
  9
$UCSNAME
  2

  9
$UCSORG
 10
0.0
 20
0.0
 30
0.0
  9
$UCSXDIR
 10
1.0
 20
0.0
 30
0.0
  9
$UCSYDIR
 10
0.0
 20
1.0
 30
0.0
  9
$PUCSNAME
  2

  9
$PUCSORG
 10
0.0
 20
0.0
 30
0.0
  9
$PUCSXDIR
 10
1.0
 20
0.0
 30
0.0
  9
$PUCSYDIR
 10
0.0
 20
1.0
 30
0.0
  9
$USERI1
 70
     0
  9
$USERI2
 70
     0
  9
$USERI3
 70
     0
  9
$USERI4
 70
     0
  9
$USERI5
 70
     0
  9
$USERR1
 40
0.0
  9
$USERR2
 40
0.0
  9
$USERR3
 40
0.0
  9
$USERR4
 40
0.0
  9
$USERR5
 40
0.0
  9
$WORLDVIEW
 70
     1
  9
$SHADEDGE
 70
     3
  9
$SHADEDIF
 70
    70
  9
$TILEMODE
 70
     1
  9
$MAXACTVP
 70
    48
  9
$PLIMCHECK
 70
     0
  9
$PEXTMIN
 10
1.0000000000000000E+020
 20
1.0000000000000000E+020
 30
1.0000000000000000E+020
  9
$PEXTMAX
 10
-1.0000000000000000E+020
 20
-1.0000000000000000E+020
 30
-1.0000000000000000E+020
  9
$PLIMMIN
 10
0.0
 20
0.0
  9
$PLIMMAX
 10
12.0
 20
9.0
  9
$UNITMODE
 70
     0
  9
$VISRETAIN
 70
     1
  9
$PLINEGEN
 70
     0
  9
$PSLTSCALE
 70
     1
  0
ENDSEC
  0
SECTION
  2
TABLES
  0
TABLE
  2
VPORT
 70
     1
  0
VPORT
  2
*ACTIVE
 70
     0
 10
0.0
 20
0.0
 11
1.0
 21
1.0
 12
649.43829269811454
 22
4681.2722571494896
 13
0.0
 23
0.0
 14
0.5
 24
0.5
 15
0.5
 25
0.5
 16
0.0
 26
0.0
 36
1.0
 17
0.0
 27
0.0
 37
0.0
 40
68.796665681679258
 41
1.336206896551724
 42
50.0
 43
0.0
 44
0.0
 50
0.0
 51
0.0
 71
     0
 72
   100
 73
     1
 74
     0
 75
     0
 76
     0
 77
     0
 78
     0
  0
ENDTAB
  0
TABLE
  2
LTYPE
 70
     1
  0
LTYPE
  2
CONTINUOUS
 70
     0
  3
Solid line
 72
    65
 73
     0
 40
0.0
  0
ENDTAB
  0
TABLE
  2
LAYER
 70
     2
  0
LAYER
  2
0
 70
     0
 62
    -7
  6
CONTINUOUS
  0
LAYER
  2
RIVERS
 70
     0
 62
     5
  6
CONTINUOUS
  0
ENDTAB
  0
TABLE
  2
STYLE
 70
     2
  0
STYLE
  2
STANDARD
 70
     0
 40
0.0
 41
1.0
 50
0.0
 71
     0
 42
0.2
  3
simplex.shx
  4

  0
STYLE
  2
ARIAL
 70
     0
 40
0.0
 41
1.0
 50
0.0
 71
     0
 42
0.2
  3
txt
  4

  0
ENDTAB
  0
TABLE
  2
VIEW
 70
     0
  0
ENDTAB
  0
TABLE
  2
UCS
 70
     0
  0
ENDTAB
  0
TABLE
  2
APPID
 70
     2
  0
APPID
  2
ACAD
 70
     0
  0
APPID
  2
ADE
 70
     0
  0
ENDTAB
  0
TABLE
  2
DIMSTYLE
 70
     1
  0
DIMSTYLE
  2
STANDARD
 70
     0
  3

  4

  5

  6

  7

 40
1.0
 41
0.18
 42
0.0625
 43
0.38
 44
0.18
 45
0.0
 46
0.0
 47
0.0
 48
0.0
140
0.18
141
0.09
142
0.0
143
25.399999999999999
144
1.0
145
0.0
146
1.0
147
0.09
 71
     0
 72
     0
 73
     1
 74
     1
 75
     0
 76
     0
 77
     0
 78
     0
170
     0
171
     2
172
     0
173
     0
174
     0
175
     0
176
     0
177
     0
178
     0
  0
ENDTAB
  0
ENDSEC
  0
SECTION
  2
BLOCKS
  0
BLOCK
  8
0
  2
$MODEL_SPACE
 70
     0
 10
0.0
 20
0.0
 30
0.0
  3
$MODEL_SPACE
  1

  0
ENDBLK
  5
15
  8
0
  0
BLOCK
 67
     1
  8
0
  2
$PAPER_SPACE
 70
     0
 10
0.0
 20
0.0
 30
0.0
  3
$PAPER_SPACE
  1

  0
ENDBLK
  5
1A
 67
     1
  8
0
  0
ENDSEC
  0
SECTION
  2
ENTITIES
  0
POLYLINE
  5
6C
  8
RIVERS
 66
     1
 10
0.0
 20
0.0
 30
0.0
  0
VERTEX
  5
BB
  8
RIVERS
 10
671.00000000000023
 20
4673.495472597433
 30
0.0
  0
VERTEX
  5
BC
  8
RIVERS
 10
670.81313748473042
 20
4673.5833430739858
 30
0.0
  0
VERTEX
  5
BD
  8
RIVERS
 10
670.75585702885689
 20
4673.6978193655632
 30
0.0
  0
VERTEX
  5
BE
  8
RIVERS
 10
670.85609770799431
 20
4673.855224181315
 30
0.0
  0
VERTEX
  5
BF
  8
RIVERS
 10
670.64129635439235
 20
4673.9410813659306
 30
0.0
  0
VERTEX
  5
C0
  8
RIVERS
 10
670.48377521938153
 20
4674.0555575212411
 30
0.0
  0
VERTEX
  5
C1
  8
RIVERS
 10
670.48377521938153
 20
4674.2272718904733
 30
0.0
  0
VERTEX
  5
C2
  8
RIVERS
 10
670.24033363784292
 20
4674.3274386285684
 30
0.0
  0
VERTEX
  5
C3
  8
RIVERS
 10
670.11145273076875
 20
4674.384676842491
 30
0.0
  0
VERTEX
  5
C4
  8
RIVERS
 10
669.86801091194775
 20
4674.6422483963379
 30
0.0
  0
VERTEX
  5
C5
  8
RIVERS
 10
669.52432865127162
 20
4674.6851769205132
 30
0.0
  0
VERTEX
  5
C6
  8
RIVERS
 10
669.06608571613106
 20
4674.8282723190496
 30
0.0
  0
VERTEX
  5
C7
  8
RIVERS
 10
668.96584503699364
 20
4675.042915212457
 30
0.0
  0
VERTEX
  5
C8
  8
RIVERS
 10
668.90856458112023
 20
4675.2861772128244
 30
0.0
  0
VERTEX
  5
C9
  8
RIVERS
 10
668.96584503699364
 20
4675.4722011355361
 30
0.0
  0
VERTEX
  5
CA
  8
RIVERS
 10
669.02312525558477
 20
4675.5866774271126
 30
0.0
  0
VERTEX
  5
CB
  8
RIVERS
 10
669.09472570678531
 20
4675.8728680879221
 30
0.0
  0
VERTEX
  5
CC
  8
RIVERS
 10
668.8942443485106
 20
4675.8728680879221
 30
0.0
  0
VERTEX
  5
CD
  8
RIVERS
 10
668.76536367871893
 20
4675.9873442432327
 30
0.0
  0
VERTEX
  5
CE
  8
RIVERS
 10
668.6078425437081
 20
4676.2306062436001
 30
0.0
  0
VERTEX
  5
CF
  8
RIVERS
 10
668.79400366937318
 20
4676.459558826753
 30
0.0
  0
VERTEX
  5
D0
  8
RIVERS
 10
668.49328163196105
 20
4676.5883445355439
 30
0.0
  0
VERTEX
  5
D1
  8
RIVERS
 10
668.27848027835921
 20
4677.0033210414103
 30
0.0
  0
VERTEX
  5
D2
  8
RIVERS
 10
668.27848027835921
 20
4677.3896783040482
 30
0.0
  0
VERTEX
  5
D3
  8
RIVERS
 10
668.53624209250745
 20
4677.6186307509352
 30
0.0
  0
VERTEX
  5
D4
  8
RIVERS
 10
668.72240321817253
 20
4677.8332737806068
 30
0.0
  0
VERTEX
  5
D5
  8
RIVERS
 10
668.7080832228454
 20
4678.1623929655907
 30
0.0
  0
VERTEX
  5
D6
  8
RIVERS
 10
668.65080276697188
 20
4678.2768692571672
 30
0.0
  0
VERTEX
  5
D7
  8
RIVERS
 10
668.47896139935153
 20
4678.502939816779
 30
0.0
  0
VERTEX
  5
D8
  8
RIVERS
 10
668.47896139935153
 20
4678.8177495845484
 30
0.0
  0
VERTEX
  5
D9
  8
RIVERS
 10
668.60784230642571
 20
4679.1039401090911
 30
0.0
  0
VERTEX
  5
DA
  8
RIVERS
 10
668.59352207381596
 20
4679.4330592940742
 30
0.0
  0
VERTEX
  5
DB
  8
RIVERS
 10
668.76536344143642
 20
4679.4759879545154
 30
0.0
  0
VERTEX
  5
DC
  8
RIVERS
 10
668.9944847903655
 20
4679.5189164786898
 30
0.0
  0
VERTEX
  5
DD
  8
RIVERS
 10
668.90856434383772
 20
4679.6906309841879
 30
0.0
  0
VERTEX
  5
DE
  8
RIVERS
 10
668.87992411590096
 20
4679.8480357999388
 30
0.0
  0
VERTEX
  5
DF
  8
RIVERS
 10
669.06608547884855
 20
4679.8194166929779
 30
0.0
  0
VERTEX
  5
E0
  8
RIVERS
 10
669.16632615798608
 20
4679.8909643241141
 30
0.0
  0
VERTEX
  5
E1
  8
RIVERS
 10
669.1376859300492
 20
4680.0197501691709
 30
0.0
  0
VERTEX
  5
E2
  8
RIVERS
 10
669.09472546950292
 20
4680.1771549849227
 30
0.0
  0
VERTEX
  5
E3
  8
RIVERS
 10
669.16632615798608
 20
4680.2343930625793
 30
0.0
  0
VERTEX
  5
E4
  8
RIVERS
 10
669.16632615798608
 20
4680.3774884611157
 30
0.0
  0
VERTEX
  5
E5
  8
RIVERS
 10
669.02312501830238
 20
4680.4633456457323
 30
0.0
  0
VERTEX
  5
E6
  8
RIVERS
 10
668.96584479971125
 20
4680.5921313545223
 30
0.0
  0
VERTEX
  5
E7
  8
RIVERS
 10
669.0374452509119
 20
4680.7352266167936
 30
0.0
  0
VERTEX
  5
E8
  8
RIVERS
 10
669.18064615331309
 20
4680.7638457237526
 30
0.0
  0
VERTEX
  5
E9
  8
RIVERS
 10
669.09472546950292
 20
4680.8640124618496
 30
0.0
  0
VERTEX
  5
EA
  8
RIVERS
 10
668.96584479971125
 20
4680.9355600929857
 30
0.0
  0
VERTEX
  5
EB
  8
RIVERS
 10
668.95152456710161
 20
4681.1072744622179
 30
0.0
  0
VERTEX
  5
EC
  8
RIVERS
 10
669.1376859300492
 20
4681.1788220933531
 30
0.0
  0
VERTEX
  5
ED
  8
RIVERS
 10
669.0374452509119
 20
4681.2503698607543
 30
0.0
  0
VERTEX
  5
EE
  8
RIVERS
 10
669.1376859300492
 20
4681.4507032006813
 30
0.0
  0
VERTEX
  5
EF
  8
RIVERS
 10
669.02312501830238
 20
4681.5508699387774
 30
0.0
  0
VERTEX
  5
F0
  8
RIVERS
 10
669.06608547884855
 20
4681.7655129684499
 30
0.0
  0
VERTEX
  5
F1
  8
RIVERS
 10
669.29520682777775
 20
4681.8227510461047
 30
0.0
  0
VERTEX
  5
F2
  8
RIVERS
 10
669.10904570211255
 20
4681.9801558618574
 30
0.0
  0
VERTEX
  5
F3
  8
RIVERS
 10
669.20928638124985
 20
4682.1089417069143
 30
0.0
  0
VERTEX
  5
F4
  8
RIVERS
 10
669.33816728832403
 20
4682.0946321534329
 30
0.0
  0
VERTEX
  5
F5
  8
RIVERS
 10
669.25224660451374
 20
4682.194798891529
 30
0.0
  0
VERTEX
  5
F6
  8
RIVERS
 10
669.30952706038727
 20
4682.3522037072817
 30
0.0
  0
VERTEX
  5
F7
  8
RIVERS
 10
669.42408773485181
 20
4682.3092750468404
 30
0.0
  0
VERTEX
  5
F8
  8
RIVERS
 10
669.49568818605235
 20
4682.2091084450103
 30
0.0
  0
VERTEX
  5
F9
  8
RIVERS
 10
669.58160886986275
 20
4682.3808228142407
 30
0.0
  0
VERTEX
  5
FA
  8
RIVERS
 10
669.52432841398922
 20
4682.5096085230334
 30
0.0
  0
VERTEX
  5
FB
  8
RIVERS
 10
669.567288637253
 20
4682.6670133387843
 30
0.0
  0
VERTEX
  5
FC
  8
RIVERS
 10
669.76776999552783
 20
4682.5954657076491
 30
0.0
  0
VERTEX
  5
FD
  8
RIVERS
 10
669.86801067466524
 20
4682.6097752611304
 30
0.0
  0
VERTEX
  5
FE
  8
RIVERS
 10
669.86801067466524
 20
4682.9102753391517
 30
0.0
  0
VERTEX
  5
FF
  8
RIVERS
 10
669.83937068401076
 20
4683.0390611842076
 30
0.0
  0
VERTEX
  5
100
  8
RIVERS
 10
670.05417203761283
 20
4683.1678468929986
 30
0.0
  0
VERTEX
  5
101
  8
RIVERS
 10
670.06849203293996
 20
4683.4254185831132
 30
0.0
  0
VERTEX
  5
102
  8
RIVERS
 10
670.22601316795078
 20
4683.4969662142475
 30
0.0
  0
VERTEX
  5
103
  8
RIVERS
 10
670.22601316795078
 20
4683.7259186611363
 30
0.0
  0
VERTEX
  5
104
  8
RIVERS
 10
670.08281226554948
 20
4683.7116091076559
 30
0.0
  0
VERTEX
  5
105
  8
RIVERS
 10
670.19737294001413
 20
4683.8547045061941
 30
0.0
  0
VERTEX
  5
106
  8
RIVERS
 10
670.06849203293996
 20
4683.8976330303676
 30
0.0
  0
VERTEX
  5
107
  8
RIVERS
 10
670.18305294468701
 20
4684.112276060041
 30
0.0
  0
VERTEX
  5
108
  8
RIVERS
 10
670.28329362382442
 20
4684.3698476138889
 30
0.0
  0
VERTEX
  5
109
  8
RIVERS
 10
670.38353430296161
 20
4684.4843237692003
 30
0.0
  0
VERTEX
  5
10A
  8
RIVERS
 10
670.29761361915143
 20
4684.670347691911
 30
0.0
  0
VERTEX
  5
10B
  8
RIVERS
 10
670.52673520536291
 20
4684.839180173868
 30
0.0
  0
VERTEX
  5
10C
  8
RIVERS
 10
670.48377474481663
 20
4684.9679660189249
 30
0.0
  0
VERTEX
  5
10D
  8
RIVERS
 10
670.49809497742615
 20
4685.0538232035397
 30
0.0
  0
VERTEX
  5
10E
  8
RIVERS
 10
670.6126556518908
 20
4685.1110612811963
 30
0.0
  0
VERTEX
  5
10F
  8
RIVERS
 10
670.88473746136606
 20
4685.0681327570201
 30
0.0
  0
VERTEX
  5
110
  8
RIVERS
 10
671.00000000000023
 20
4685.103571937485
 30
0.0
  0
SEQEND
  5
111
  8
RIVERS
  0
POLYLINE
  5
6D
  8
RIVERS
 66
     1
 10
0.0
 20
0.0
 30
0.0
  0
VERTEX
  5
112
  8
RIVERS
 10
670.27780551700755
 20
4671.0
 30
0.0
  0
VERTEX
  5
113
  8
RIVERS
 10
670.2832938611067
 20
4671.0219369527231
 30
0.0
  0
VERTEX
  5
114
  8
RIVERS
 10
670.29761385643394
 20
4671.0791751666447
 30
0.0
  0
VERTEX
  5
115
  8
RIVERS
 10
670.36921430763448
 20
4671.0791751666447
 30
0.0
  0
VERTEX
  5
116
  8
RIVERS
 10
670.48377521938153
 20
4671.0934847201252
 30
0.0
  0
VERTEX
  5
117
  8
RIVERS
 10
670.59833589384596
 20
4671.1507227977809
 30
0.0
  0
VERTEX
  5
118
  8
RIVERS
 10
670.59833589384596
 20
4671.2365799823956
 30
0.0
  0
VERTEX
  5
119
  8
RIVERS
 10
670.54105567525505
 20
4671.3796752446679
 30
0.0
  0
VERTEX
  5
11A
  8
RIVERS
 10
670.55537567058207
 20
4671.4512228758031
 30
0.0
  0
VERTEX
  5
11B
  8
RIVERS
 10
670.64129635439235
 20
4671.5370800604196
 30
0.0
  0
VERTEX
  5
11C
  8
RIVERS
 10
670.82745748005755
 20
4671.58000872086
 30
0.0
  0
VERTEX
  5
11D
  8
RIVERS
 10
670.91337816386761
 20
4671.5943182743404
 30
0.0
  0
VERTEX
  5
11E
  8
RIVERS
 10
670.94201839180448
 20
4671.6515563519961
 30
0.0
  0
VERTEX
  5
11F
  8
RIVERS
 10
670.89905793125808
 20
4671.7374135366117
 30
0.0
  0
VERTEX
  5
120
  8
RIVERS
 10
670.7988172521209
 20
4671.8089611677469
 30
0.0
  0
VERTEX
  5
121
  8
RIVERS
 10
670.77017702418402
 20
4671.8948183523626
 30
0.0
  0
VERTEX
  5
122
  8
RIVERS
 10
670.85609770799431
 20
4672.0665327215938
 30
0.0
  0
VERTEX
  5
123
  8
RIVERS
 10
670.99999999999989
 20
4672.1107777815887
 30
0.0
  0
SEQEND
  5
124
  8
RIVERS
  0
POLYLINE
  5
6E
  8
RIVERS
 66
     1
 10
0.0
 20
0.0
 30
0.0
  0
VERTEX
  5
125
  8
RIVERS
 10
664.87079731000983
 20
4690.2671627295567
 30
0.0
  0
VERTEX
  5
126
  8
RIVERS
 10
665.2410953738987
 20
4690.1141865608361
 30
0.0
  0
VERTEX
  5
127
  8
RIVERS
 10
665.63926408970292
 20
4689.888724292151
 30
0.0
  0
VERTEX
  5
128
  8
RIVERS
 10
666.13697468785506
 20
4689.8621991830978
 30
0.0
  0
VERTEX
  5
129
  8
RIVERS
 10
666.38914802594797
 20
4689.8091492375243
 30
0.0
  0
VERTEX
  5
12A
  8
RIVERS
 10
666.48072409946212
 20
4689.663261887199
 30
0.0
  0
VERTEX
  5
12B
  8
RIVERS
 10
666.71962528148811
 20
4689.4908494278197
 30
0.0
  0
VERTEX
  5
12C
  8
RIVERS
 10
667.06470466117787
 20
4689.4643244550343
 30
0.0
  0
VERTEX
  5
12D
  8
RIVERS
 10
667.23724435102304
 20
4689.3449620774936
 30
0.0
  0
VERTEX
  5
12E
  8
RIVERS
 10
667.59559612406201
 20
4689.2057058340988
 30
0.0
  0
VERTEX
  5
12F
  8
RIVERS
 10
667.90085856098665
 20
4689.1194996725417
 30
0.0
  0
VERTEX
  5
130
  8
RIVERS
 10
668.26584641205932
 20
4689.0200308883277
 30
0.0
  0
VERTEX
  5
131
  8
RIVERS
 10
668.61092602903148
 20
4688.9470872131642
 30
0.0
  0
VERTEX
  5
132
  8
RIVERS
 10
669.06881992170111
 20
4688.7879372401803
 30
0.0
  0
VERTEX
  5
133
  8
RIVERS
 10
669.4868968716055
 20
4688.7415185378031
 30
0.0
  0
VERTEX
  5
134
  8
RIVERS
 10
669.85188472267805
 20
4688.7017310786232
 30
0.0
  0
VERTEX
  5
135
  8
RIVERS
 10
670.21687257375049
 20
4688.6685748626387
 30
0.0
  0
VERTEX
  5
136
  8
RIVERS
 10
670.36950379221287
 20
4688.6221561602633
 30
0.0
  0
VERTEX
  5
137
  8
RIVERS
 10
670.61504105227232
 20
4688.5094248896539
 30
0.0
  0
VERTEX
  5
138
  8
RIVERS
 10
671.0
 20
4688.4768253346756
 30
0.0
  0
SEQEND
  5
139
  8
RIVERS
  0
POLYLINE
  5
6F
  8
RIVERS
 66
     1
 10
0.0
 20
0.0
 30
0.0
  0
VERTEX
  5
13A
  8
RIVERS
 10
646.39679534987192
 20
4693.7076357404067
 30
0.0
  0
VERTEX
  5
13B
  8
RIVERS
 10
646.32501714478485
 20
4693.843928200833
 30
0.0
  0
VERTEX
  5
13C
  8
RIVERS
 10
646.22494854402885
 20
4694.0510791505494
 30
0.0
  0
VERTEX
  5
13D
  8
RIVERS
 10
646.21698414156674
 20
4694.1261943530726
 30
0.0
  0
VERTEX
  5
13E
  8
RIVERS
 10
646.22821578457251
 20
4694.2591338662032
 30
0.0
  0
VERTEX
  5
13F
  8
RIVERS
 10
646.16018312588756
 20
4694.3993332941373
 30
0.0
  0
VERTEX
  5
140
  8
RIVERS
 10
646.06924673250865
 20
4694.5364976207829
 30
0.0
  0
VERTEX
  5
141
  8
RIVERS
 10
645.90954532801197
 20
4694.6671074815413
 30
0.0
  0
VERTEX
  5
142
  8
RIVERS
 10
645.77866239713501
 20
4694.9437876945249
 30
0.0
  0
VERTEX
  5
143
  8
RIVERS
 10
645.75986586948727
 20
4695.2904595267764
 30
0.0
  0
VERTEX
  5
144
  8
RIVERS
 10
645.69421763146624
 20
4695.5595838862619
 30
0.0
  0
VERTEX
  5
145
  8
RIVERS
 10
645.71127234918606
 20
4695.779413311473
 30
0.0
  0
VERTEX
  5
146
  8
RIVERS
 10
645.74735073760996
 20
4696.0047479653886
 30
0.0
  0
VERTEX
  5
147
  8
RIVERS
 10
645.76215055605326
 20
4696.2104939747323
 30
0.0
  0
VERTEX
  5
148
  8
RIVERS
 10
645.66590821225236
 20
4696.4177256350004
 30
0.0
  0
VERTEX
  5
149
  8
RIVERS
 10
645.62238367802502
 20
4696.6844623414727
 30
0.0
  0
SEQEND
  5
14A
  8
RIVERS
  0
POLYLINE
  5
70
  8
RIVERS
 66
     1
 10
0.0
 20
0.0
 30
0.0
  0
VERTEX
  5
14B
  8
RIVERS
 10
653.15122340161827
 20
4702.0
 30
0.0
  0
VERTEX
  5
14C
  8
RIVERS
 10
653.25224603535253
 20
4701.9263351461068
 30
0.0
  0
VERTEX
  5
14D
  8
RIVERS
 10
653.19252085848711
 20
4701.6876102547612
 30
0.0
  0
VERTEX
  5
14E
  8
RIVERS
 10
653.07970634550736
 20
4701.4090979042358
 30
0.0
  0
VERTEX
  5
14F
  8
RIVERS
 10
653.03988964002485
 20
4701.1438481763707
 30
0.0
  0
VERTEX
  5
150
  8
RIVERS
 10
652.86071363486406
 20
4700.7857607712203
 30
0.0
  0
VERTEX
  5
151
  8
RIVERS
 10
652.78107974933357
 20
4700.5875488186466
 30
0.0
  0
VERTEX
  5
152
  8
RIVERS
 10
652.84080516348149
 20
4700.4615551979095
 30
0.0
  0
VERTEX
  5
153
  8
RIVERS
 10
652.97352791056119
 20
4700.2294615497631
 30
0.0
  0
VERTEX
  5
154
  8
RIVERS
 10
652.97352791056119
 20
4700.0504178471856
 30
0.0
  0
VERTEX
  5
155
  8
RIVERS
 10
652.90053034034679
 20
4699.5132870119933
 30
0.0
  0
VERTEX
  5
156
  8
RIVERS
 10
652.96689183252784
 20
4699.2811933638441
 30
0.0
  0
VERTEX
  5
157
  8
RIVERS
 10
653.0465254807757
 20
4698.9628935541396
 30
0.0
  0
VERTEX
  5
158
  8
RIVERS
 10
652.94034728311192
 20
4698.8833184995137
 30
0.0
  0
VERTEX
  5
159
  8
RIVERS
 10
652.68817394501912
 20
4698.8037435811539
 30
0.0
  0
VERTEX
  5
15A
  8
RIVERS
 10
652.62844853087131
 20
4698.5517562034174
 30
0.0
  0
VERTEX
  5
15B
  8
RIVERS
 10
652.63508460890466
 20
4698.3793438803032
 30
0.0
  0
VERTEX
  5
15C
  8
RIVERS
 10
652.38954734884533
 20
4698.153881475353
 30
0.0
  0
VERTEX
  5
15D
  8
RIVERS
 10
652.33645825001349
 20
4697.9416815567947
 30
0.0
  0
VERTEX
  5
15E
  8
RIVERS
 10
652.40281974219454
 20
4697.7228503950391
 30
0.0
  0
VERTEX
  5
15F
  8
RIVERS
 10
652.44927276299313
 20
4697.4576006671732
 30
0.0
  0
VERTEX
  5
160
  8
RIVERS
 10
652.49572578379161
 20
4697.2268425609991
 30
0.0
  0
VERTEX
  5
161
  8
RIVERS
 10
652.6749015516699
 20
4697.0544302378858
 30
0.0
  0
VERTEX
  5
162
  8
RIVERS
 10
652.90716665566265
 20
4696.7626554009676
 30
0.0
  0
VERTEX
  5
163
  8
RIVERS
 10
653.09961457960765
 20
4696.5172992664257
 30
0.0
  0
VERTEX
  5
164
  8
RIVERS
 10
653.25224603535253
 20
4696.2454181590983
 30
0.0
  0
VERTEX
  5
165
  8
RIVERS
 10
653.38496878243211
 20
4695.9403808357883
 30
0.0
  0
VERTEX
  5
166
  8
RIVERS
 10
653.57741694365973
 20
4695.6088185396893
 30
0.0
  0
VERTEX
  5
167
  8
RIVERS
 10
653.63050604249167
 20
4695.3236749459684
 30
0.0
  0
VERTEX
  5
168
  8
RIVERS
 10
653.75659271153813
 20
4695.1181062706064
 30
0.0
  0
VERTEX
  5
169
  8
RIVERS
 10
654.16139750537582
 20
4694.8992751088508
 30
0.0
  0
VERTEX
  5
16A
  8
RIVERS
 10
654.44675170820028
 20
4694.8594876496709
 30
0.0
  0
VERTEX
  5
16B
  8
RIVERS
 10
654.55956598389753
 20
4694.7533877585256
 30
0.0
  0
VERTEX
  5
16C
  8
RIVERS
 10
654.61265508272936
 20
4694.6008690287372
 30
0.0
  0
VERTEX
  5
16D
  8
RIVERS
 10
654.73210567374247
 20
4694.3754066237852
 30
0.0
  0
VERTEX
  5
16E
  8
RIVERS
 10
654.82501171533954
 20
4694.1698380846892
 30
0.0
  0
VERTEX
  5
16F
  8
RIVERS
 10
654.93119015028583
 20
4693.9191862489242
 30
0.0
  0
VERTEX
  5
170
  8
RIVERS
 10
655.10372984013077
 20
4693.5942551960234
 30
0.0
  0
VERTEX
  5
171
  8
RIVERS
 10
655.1435465456135
 20
4693.3886866569273
 30
0.0
  0
VERTEX
  5
172
  8
RIVERS
 10
655.34263078487436
 20
4693.1565930087791
 30
0.0
  0
VERTEX
  5
173
  8
RIVERS
 10
655.6346210657324
 20
4692.8382931990736
 30
0.0
  0
VERTEX
  5
174
  8
RIVERS
 10
655.79919470946095
 20
4692.6791432260889
 30
0.0
  0
VERTEX
  5
175
  8
RIVERS
 10
655.90537290712473
 20
4692.6658807396961
 30
0.0
  0
VERTEX
  5
176
  8
RIVERS
 10
656.15091016718429
 20
4692.7719806308423
 30
0.0
  0
VERTEX
  5
177
  8
RIVERS
 10
656.43626437000864
 20
4692.7587181444487
 30
0.0
  0
VERTEX
  5
178
  8
RIVERS
 10
656.72161857283345
 20
4692.7786118740387
 30
0.0
  0
VERTEX
  5
179
  8
RIVERS
 10
656.93397496816101
 20
4692.8382931990736
 30
0.0
  0
VERTEX
  5
17A
  8
RIVERS
 10
657.0401534031073
 20
4692.7786118740387
 30
0.0
  0
VERTEX
  5
17B
  8
RIVERS
 10
657.06669795252333
 20
4692.6725119828916
 30
0.0
  0
VERTEX
  5
17C
  8
RIVERS
 10
657.03351708779155
 20
4692.5067309029764
 30
0.0
  0
VERTEX
  5
17D
  8
RIVERS
 10
657.00697253837541
 20
4692.1950622002032
 30
0.0
  0
VERTEX
  5
17E
  8
RIVERS
 10
656.94724736151034
 20
4692.0226498770908
 30
0.0
  0
VERTEX
  5
17F
  8
RIVERS
 10
656.89415826267816
 20
4691.8900248768914
 30
0.0
  0
VERTEX
  5
180
  8
RIVERS
 10
656.88752194736253
 20
4691.7574000129589
 30
0.0
  0
VERTEX
  5
181
  8
RIVERS
 10
657.01360885369127
 20
4691.7043500673863
 30
0.0
  0
VERTEX
  5
182
  8
RIVERS
 10
657.28569066316686
 20
4691.6115125263668
 30
0.0
  0
VERTEX
  5
183
  8
RIVERS
 10
657.48477490242772
 20
4691.4059439872708
 30
0.0
  0
VERTEX
  5
184
  8
RIVERS
 10
657.61086157147406
 20
4691.2666877438751
 30
0.0
  0
VERTEX
  5
185
  8
RIVERS
 10
657.85639883153351
 20
4691.2136377983034
 30
0.0
  0
VERTEX
  5
186
  8
RIVERS
 10
658.00903004999589
 20
4691.1420296651131
 30
0.0
  0
VERTEX
  5
187
  8
RIVERS
 10
658.08202762021028
 20
4691.0491922603596
 30
0.0
  0
VERTEX
  5
188
  8
RIVERS
 10
658.29438425282035
 20
4690.9165672601612
 30
0.0
  0
VERTEX
  5
189
  8
RIVERS
 10
658.58637453367839
 20
4690.8038361258186
 30
0.0
  0
VERTEX
  5
18A
  8
RIVERS
 10
658.9115454419856
 20
4690.8436235849977
 30
0.0
  0
VERTEX
  5
18B
  8
RIVERS
 10
659.11062968124656
 20
4690.9895110715897
 30
0.0
  0
VERTEX
  5
18C
  8
RIVERS
 10
659.26989721502491
 20
4691.0624547467532
 30
0.0
  0
VERTEX
  5
18D
  8
RIVERS
 10
659.36943933465534
 20
4690.9961423147861
 30
0.0
  0
VERTEX
  5
18E
  8
RIVERS
 10
659.36943933465534
 20
4690.8436235849977
 30
0.0
  0
VERTEX
  5
18F
  8
RIVERS
 10
659.37607541268858
 20
4690.6181611800457
 30
0.0
  0
VERTEX
  5
190
  8
RIVERS
 10
659.50216231901754
 20
4690.5982674504558
 30
0.0
  0
VERTEX
  5
191
  8
RIVERS
 10
659.67470200886237
 20
4690.6645800186889
 30
0.0
  0
VERTEX
  5
192
  8
RIVERS
 10
659.86051385477413
 20
4690.6712112618861
 30
0.0
  0
VERTEX
  5
193
  8
RIVERS
 10
659.9998729171698
 20
4690.604898693653
 30
0.0
  0
VERTEX
  5
194
  8
RIVERS
 10
660.15914021366552
 20
4690.4855363161132
 30
0.0
  0
VERTEX
  5
195
  8
RIVERS
 10
660.40467771100748
 20
4690.4523801001296
 30
0.0
  0
VERTEX
  5
196
  8
RIVERS
 10
660.63030649968425
 20
4690.4391176137369
 30
0.0
  0
VERTEX
  5
197
  8
RIVERS
 10
660.92229678054218
 20
4690.3462802089834
 30
0.0
  0
VERTEX
  5
198
  8
RIVERS
 10
661.10810862645394
 20
4690.339648965788
 30
0.0
  0
VERTEX
  5
199
  8
RIVERS
 10
661.58458078514059
 20
4690.319755236198
 30
0.0
  0
VERTEX
  5
19A
  8
RIVERS
 10
662.03583836249425
 20
4690.3728051817707
 30
0.0
  0
VERTEX
  5
19B
  8
RIVERS
 10
662.40746252888266
 20
4690.3926989113597
 30
0.0
  0
VERTEX
  5
19C
  8
RIVERS
 10
662.89853704900145
 20
4690.359542695378
 30
0.0
  0
VERTEX
  5
19D
  8
RIVERS
 10
663.39624764715381
 20
4690.2600740474281
 30
0.0
  0
VERTEX
  5
19E
  8
RIVERS
 10
663.66169337859583
 20
4690.2468115610336
 30
0.0
  0
VERTEX
  5
19F
  8
RIVERS
 10
663.85646021054777
 20
4690.2403241290594
 30
0.0
  0
SEQEND
  5
1A0
  8
RIVERS
  0
POLYLINE
  5
71
  8
RIVERS
 66
     1
 10
0.0
 20
0.0
 30
0.0
  0
VERTEX
  5
1A1
  8
RIVERS
 10
663.85646021054777
 20
4690.2403241290594
 30
0.0
  0
VERTEX
  5
1A2
  8
RIVERS
 10
663.74132726412608
 20
4690.1804991290683
 30
0.0
  0
VERTEX
  5
1A3
  8
RIVERS
 10
663.64178490721315
 20
4689.8091492375243
 30
0.0
  0
VERTEX
  5
1A4
  8
RIVERS
 10
663.45597306130139
 20
4689.5438993733933
 30
0.0
  0
VERTEX
  5
1A5
  8
RIVERS
 10
663.25688882204065
 20
4689.3449620774936
 30
0.0
  0
VERTEX
  5
1A6
  8
RIVERS
 10
663.11089368161163
 20
4689.1659183749198
 30
0.0
  0
VERTEX
  5
1A7
  8
RIVERS
 10
662.90760107342544
 20
4688.9712400896433
 30
0.0
  0
VERTEX
  5
1A8
  8
RIVERS
 10
662.81695077249879
 20
4688.7876585823496
 30
0.0
  0
VERTEX
  5
1A9
  8
RIVERS
 10
662.75101384769505
 20
4688.6608314399937
 30
0.0
  0
VERTEX
  5
1AA
  8
RIVERS
 10
662.6685728668806
 20
4688.5332435181972
 30
0.0
  0
VERTEX
  5
1AB
  8
RIVERS
 10
662.56892520338897
 20
4688.3306239216017
 30
0.0
  0
VERTEX
  5
1AC
  8
RIVERS
 10
662.48577823169785
 20
4688.1340165479151
 30
0.0
  0
VERTEX
  5
1AD
  8
RIVERS
 10
662.43334261566031
 20
4688.0109490874329
 30
0.0
  0
VERTEX
  5
1AE
  8
RIVERS
 10
662.39066016094944
 20
4687.8871376685602
 30
0.0
  0
VERTEX
  5
1AF
  8
RIVERS
 10
662.3704886985422
 20
4687.7558386056353
 30
0.0
  0
VERTEX
  5
1B0
  8
RIVERS
 10
662.34283728170521
 20
4687.5900252510519
 30
0.0
  0
VERTEX
  5
1B1
  8
RIVERS
 10
662.34365525271869
 20
4687.484246656094
 30
0.0
  0
VERTEX
  5
1B2
  8
RIVERS
 10
662.37754285273854
 20
4687.2839632251853
 30
0.0
  0
VERTEX
  5
1B3
  8
RIVERS
 10
662.43017118995579
 20
4687.106197995603
 30
0.0
  0
VERTEX
  5
1B4
  8
RIVERS
 10
662.47077556195677
 20
4686.9606839434109
 30
0.0
  0
VERTEX
  5
1B5
  8
RIVERS
 10
662.51366948130385
 20
4686.7544046300418
 30
0.0
  0
VERTEX
  5
1B6
  8
RIVERS
 10
662.56405008350112
 20
4686.5721367213973
 30
0.0
  0
VERTEX
  5
1B7
  8
RIVERS
 10
662.54312697307989
 20
4686.4430877964978
 30
0.0
  0
VERTEX
  5
1B8
  8
RIVERS
 10
662.44196447912555
 20
4686.2629734249904
 30
0.0
  0
VERTEX
  5
1B9
  8
RIVERS
 10
662.35201422719308
 20
4686.146633790323
 30
0.0
  0
VERTEX
  5
1BA
  8
RIVERS
 10
662.24703485979262
 20
4686.0692952665268
 30
0.0
  0
VERTEX
  5
1BB
  8
RIVERS
 10
662.13681269975064
 20
4685.978449666748
 30
0.0
  0
VERTEX
  5
1BC
  8
RIVERS
 10
662.03557523197082
 20
4685.9153674639438
 30
0.0
  0
VERTEX
  5
1BD
  8
RIVERS
 10
661.92161453651818
 20
4685.8050140997066
 30
0.0
  0
VERTEX
  5
1BE
  8
RIVERS
 10
661.80692718432704
 20
4685.657900150597
 30
0.0
  0
VERTEX
  5
1BF
  8
RIVERS
 10
661.66221572390236
 20
4685.5355237823469
 30
0.0
  0
VERTEX
  5
1C0
  8
RIVERS
 10
661.51300158441563
 20
4685.4153951491162
 30
0.0
  0
VERTEX
  5
1C1
  8
RIVERS
 10
661.3195502698353
 20
4685.2562274374995
 30
0.0
  0
VERTEX
  5
1C2
  8
RIVERS
 10
661.15834004001601
 20
4685.124838021502
 30
0.0
  0
VERTEX
  5
1C3
  8
RIVERS
 10
660.98064690064973
 20
4684.959678752838
 30
0.0
  0
VERTEX
  5
1C4
  8
RIVERS
 10
660.8171798043827
 20
4684.8380405757616
 30
0.0
  0
VERTEX
  5
1C5
  8
RIVERS
 10
660.72487427646433
 20
4684.7605081253732
 30
0.0
  0
SEQEND
  5
1C6
  8
RIVERS
  0
POLYLINE
  5
72
  8
RIVERS
 66
     1
 10
0.0
 20
0.0
 30
0.0
  0
VERTEX
  5
1C7
  8
RIVERS
 10
663.85646021054777
 20
4690.2403241290594
 30
0.0
  0
VERTEX
  5
1C8
  8
RIVERS
 10
664.12622334929858
 20
4690.2733365338217
 30
0.0
  0
VERTEX
  5
1C9
  8
RIVERS
 10
664.49121120037125
 20
4690.2998615066081
 30
0.0
  0
VERTEX
  5
1CA
  8
RIVERS
 10
664.87079731000983
 20
4690.2671627295567
 30
0.0
  0
SEQEND
  5
1CB
  8
RIVERS
  0
POLYLINE
  5
73
  8
RIVERS
 66
     1
 10
0.0
 20
0.0
 30
0.0
  0
VERTEX
  5
1CC
  8
RIVERS
 10
627.60792223582712
 20
4699.5366435303422
 30
0.0
  0
VERTEX
  5
1CD
  8
RIVERS
 10
627.69803403939636
 20
4699.2665075802461
 30
0.0
  0
VERTEX
  5
1CE
  8
RIVERS
 10
627.98338824222105
 20
4699.0564016595954
 30
0.0
  0
VERTEX
  5
1CF
  8
RIVERS
 10
628.10353739274103
 20
4698.9213336845487
 30
0.0
  0
VERTEX
  5
1D0
  8
RIVERS
 10
628.23870509809501
 20
4698.6812127491767
 30
0.0
  0
VERTEX
  5
1D1
  8
RIVERS
 10
628.46398460701835
 20
4698.5461447741291
 30
0.0
  0
VERTEX
  5
1D2
  8
RIVERS
 10
628.77937615679355
 20
4698.4410919500697
 30
0.0
  0
VERTEX
  5
1D3
  8
RIVERS
 10
629.03469301266762
 20
4698.1709558637112
 30
0.0
  0
VERTEX
  5
1D4
  8
RIVERS
 10
629.36510287999454
 20
4698.1109256979989
 30
0.0
  0
VERTEX
  5
1D5
  8
RIVERS
 10
629.59038262620027
 20
4697.9758575866872
 30
0.0
  0
VERTEX
  5
1D6
  8
RIVERS
 10
629.71053153943785
 20
4697.7507442949418
 30
0.0
  0
VERTEX
  5
1D7
  8
RIVERS
 10
629.86071803690834
 20
4697.46560070122
 30
0.0
  0
VERTEX
  5
1D8
  8
RIVERS
 10
630.00919782402343
 20
4697.3765785603391
 30
0.0
  0
SEQEND
  5
1D9
  8
RIVERS
  0
POLYLINE
  5
74
  8
RIVERS
 66
     1
 10
0.0
 20
0.0
 30
0.0
  0
VERTEX
  5
1DA
  8
RIVERS
 10
630.03853863807615
 20
4697.3221286150028
 30
0.0
  0
VERTEX
  5
1DB
  8
RIVERS
 10
630.13105344761652
 20
4697.1504419565108
 30
0.0
  0
VERTEX
  5
1DC
  8
RIVERS
 10
630.17610934940114
 20
4696.9253286647654
 30
0.0
  0
VERTEX
  5
1DD
  8
RIVERS
 10
630.17610934940114
 20
4696.6852077293943
 30
0.0
  0
VERTEX
  5
1DE
  8
RIVERS
 10
630.13105344761652
 20
4696.2649961606239
 30
0.0
  0
VERTEX
  5
1DF
  8
RIVERS
 10
630.25120259813627
 20
4696.0098677178912
 30
0.0
  0
VERTEX
  5
1E0
  8
RIVERS
 10
630.34131440170574
 20
4695.9198222649284
 30
0.0
  0
VERTEX
  5
1E1
  8
RIVERS
 10
630.31127705475524
 20
4695.5026333460974
 30
0.0
  0
VERTEX
  5
1E2
  8
RIVERS
 10
630.50651921672795
 20
4695.1724670940257
 30
0.0
  0
VERTEX
  5
1E3
  8
RIVERS
 10
630.68674306114906
 20
4694.9323461586537
 30
0.0
  0
VERTEX
  5
1E4
  8
RIVERS
 10
630.88198522312177
 20
4694.677217715921
 30
0.0
  0
VERTEX
  5
1E5
  8
RIVERS
 10
630.98711581880775
 20
4694.4821194388969
 30
0.0
  0
VERTEX
  5
1E6
  8
RIVERS
 10
631.05626197035451
 20
4694.3143168152501
 30
0.0
  0
SEQEND
  5
1E7
  8
RIVERS
  0
POLYLINE
  5
75
  8
RIVERS
 66
     1
 10
0.0
 20
0.0
 30
0.0
  0
VERTEX
  5
1E8
  8
RIVERS
 10
630.00919782402343
 20
4697.3765785603391
 30
0.0
  0
VERTEX
  5
1E9
  8
RIVERS
 10
630.03853863807615
 20
4697.3221286150028
 30
0.0
  0
SEQEND
  5
1EA
  8
RIVERS
  0
POLYLINE
  5
76
  8
RIVERS
 66
     1
 10
0.0
 20
0.0
 30
0.0
  0
VERTEX
  5
1EB
  8
RIVERS
 10
631.05626197035451
 20
4694.3143168152501
 30
0.0
  0
VERTEX
  5
1EC
  8
RIVERS
 10
631.19737677289709
 20
4694.272013654514
 30
0.0
  0
VERTEX
  5
1ED
  8
RIVERS
 10
631.3926189348698
 20
4694.0619078701293
 30
0.0
  0
VERTEX
  5
1EE
  8
RIVERS
 10
631.60287988895925
 20
4693.7617566327799
 30
0.0
  0
VERTEX
  5
1EF
  8
RIVERS
 10
631.75306638642974
 20
4693.476613039059
 30
0.0
  0
VERTEX
  5
1F0
  8
RIVERS
 10
632.38384901141535
 20
4693.311529913025
 30
0.0
  0
VERTEX
  5
1F1
  8
RIVERS
 10
632.59410996550469
 20
4693.311529913025
 30
0.0
  0
VERTEX
  5
1F2
  8
RIVERS
 10
632.939538624948
 20
4693.1464467869891
 30
0.0
  0
VERTEX
  5
1F3
  8
RIVERS
 10
632.939538624948
 20
4693.0430831973963
 30
0.0
  0
SEQEND
  5
1F4
  8
RIVERS
  0
POLYLINE
  5
77
  8
RIVERS
 66
     1
 10
0.0
 20
0.0
 30
0.0
  0
VERTEX
  5
1F5
  8
RIVERS
 10
626.73684107251916
 20
4694.8873235003057
 30
0.0
  0
VERTEX
  5
1F6
  8
RIVERS
 10
626.94710202660849
 20
4695.1274444356768
 30
0.0
  0
VERTEX
  5
1F7
  8
RIVERS
 10
627.30754924088581
 20
4695.2625124107253
 30
0.0
  0
VERTEX
  5
1F8
  8
RIVERS
 10
627.63795934549523
 20
4695.0974292846886
 30
0.0
  0
VERTEX
  5
1F9
  8
RIVERS
 10
628.02844390672328
 20
4694.797278183607
 30
0.0
  0
VERTEX
  5
1FA
  8
RIVERS
 10
628.40390991311722
 20
4694.6622100722934
 30
0.0
  0
VERTEX
  5
1FB
  8
RIVERS
 10
628.83945037613
 20
4694.4521042879087
 30
0.0
  0
VERTEX
  5
1FC
  8
RIVERS
 10
629.22993517464045
 20
4694.2570060108856
 30
0.0
  0
VERTEX
  5
1FD
  8
RIVERS
 10
629.44019589144716
 20
4694.0318927191411
 30
0.0
  0
VERTEX
  5
1FE
  8
RIVERS
 10
629.86071779962595
 20
4693.7467491254201
 30
0.0
  0
VERTEX
  5
1FF
  8
RIVERS
 10
630.23618380601988
 20
4693.5666584920227
 30
0.0
  0
VERTEX
  5
200
  8
RIVERS
 10
630.44644476010922
 20
4693.3565525713739
 30
0.0
  0
VERTEX
  5
201
  8
RIVERS
 10
630.68674306114906
 20
4693.4315903807101
 30
0.0
  0
VERTEX
  5
202
  8
RIVERS
 10
630.73179896293368
 20
4693.7617566327799
 30
0.0
  0
VERTEX
  5
203
  8
RIVERS
 10
630.77685486471853
 20
4694.1369456794664
 30
0.0
  0
VERTEX
  5
204
  8
RIVERS
 10
631.05626197035451
 20
4694.3143168152501
 30
0.0
  0
SEQEND
  5
205
  8
RIVERS
  0
POLYLINE
  5
78
  8
RIVERS
 66
     1
 10
0.0
 20
0.0
 30
0.0
  0
VERTEX
  5
206
  8
RIVERS
 10
625.0
 20
4685.7716699430339
 30
0.0
  0
VERTEX
  5
207
  8
RIVERS
 10
625.19917729590793
 20
4685.724281898385
 30
0.0
  0
VERTEX
  5
208
  8
RIVERS
 10
625.40035721368963
 20
4685.5735083258296
 30
0.0
  0
VERTEX
  5
209
  8
RIVERS
 10
625.64344951547491
 20
4685.5064978037171
 30
0.0
  0
VERTEX
  5
20A
  8
RIVERS
 10
625.88654181725997
 20
4685.6405187116779
 30
0.0
  0
VERTEX
  5
20B
  8
RIVERS
 10
626.02066192063614
 20
4685.8415501417512
 30
0.0
  0
VERTEX
  5
20C
  8
RIVERS
 10
626.22184183841784
 20
4685.9336895926226
 30
0.0
  0
VERTEX
  5
20D
  8
RIVERS
 10
626.48169909380442
 20
4685.9001843996994
 30
0.0
  0
VERTEX
  5
20E
  8
RIVERS
 10
626.87567645256695
 20
4685.8499265421806
 30
0.0
  0
VERTEX
  5
20F
  8
RIVERS
 10
627.1439161847544
 20
4685.7745397559029
 30
0.0
  0
VERTEX
  5
210
  8
RIVERS
 10
627.41215615422414
 20
4685.7745397559029
 30
0.0
  0
VERTEX
  5
211
  8
RIVERS
 10
627.63010102560725
 20
4685.7996686846618
 30
0.0
  0
VERTEX
  5
212
  8
RIVERS
 10
627.79775103618613
 20
4685.9839474501414
 30
0.0
  0
VERTEX
  5
213
  8
RIVERS
 10
627.95701833268186
 20
4686.0342053076592
 30
0.0
  0
VERTEX
  5
214
  8
RIVERS
 10
628.09952091285868
 20
4686.1012158297717
 30
0.0
  0
VERTEX
  5
215
  8
RIVERS
 10
628.25040573255365
 20
4686.251989402328
 30
0.0
  0
VERTEX
  5
216
  8
RIVERS
 10
628.59408799322955
 20
4686.2771183310861
 30
0.0
  0
VERTEX
  5
217
  8
RIVERS
 10
628.88747539310157
 20
4686.2938709956807
 30
0.0
  0
VERTEX
  5
218
  8
RIVERS
 10
629.20601022337542
 20
4686.2603658027583
 30
0.0
  0
VERTEX
  5
219
  8
RIVERS
 10
629.38204271075494
 20
4686.2017315448093
 30
0.0
  0
VERTEX
  5
21A
  8
RIVERS
 10
629.64189996614164
 20
4685.9923238505708
 30
0.0
  0
VERTEX
  5
21B
  8
RIVERS
 10
629.76763735543454
 20
4685.8750554709404
 30
0.0
  0
VERTEX
  5
21C
  8
RIVERS
 10
629.91852241241213
 20
4685.8415501417512
 30
0.0
  0
VERTEX
  5
21D
  8
RIVERS
 10
630.06102475530645
 20
4685.9253133284583
 30
0.0
  0
VERTEX
  5
21E
  8
RIVERS
 10
630.14484976059578
 20
4685.9755711859762
 30
0.0
  0
VERTEX
  5
21F
  8
RIVERS
 10
630.38794206238094
 20
4685.916937064294
 30
0.0
  0
VERTEX
  5
220
  8
RIVERS
 10
630.6142694105647
 20
4685.8499265421806
 30
0.0
  0
VERTEX
  5
221
  8
RIVERS
 10
630.75677199074164
 20
4685.9001843996994
 30
0.0
  0
VERTEX
  5
222
  8
RIVERS
 10
630.86574442643314
 20
4686.1012158297717
 30
0.0
  0
VERTEX
  5
223
  8
RIVERS
 10
630.92442176403802
 20
4686.3525051173638
 30
0.0
  0
VERTEX
  5
224
  8
RIVERS
 10
631.15074934950417
 20
4686.4446445682352
 30
0.0
  0
VERTEX
  5
225
  8
RIVERS
 10
631.50281408698095
 20
4686.4530208324004
 30
0.0
  0
VERTEX
  5
226
  8
RIVERS
 10
631.8045839636535
 20
4686.5116550903494
 30
0.0
  0
VERTEX
  5
227
  8
RIVERS
 10
631.93870382974706
 20
4686.6289234699807
 30
0.0
  0
VERTEX
  5
228
  8
RIVERS
 10
632.17341365473158
 20
4686.8132022354594
 30
0.0
  0
VERTEX
  5
229
  8
RIVERS
 10
632.45673861811906
 20
4686.8885891580021
 30
0.0
  0
VERTEX
  5
22A
  8
RIVERS
 10
632.71659587350564
 20
4686.8885891580021
 30
0.0
  0
VERTEX
  5
22B
  8
RIVERS
 10
633.01836575017808
 20
4686.9137180867619
 30
0.0
  0
VERTEX
  5
22C
  8
RIVERS
 10
633.37043072493725
 20
4686.9053418225967
 30
0.0
  0
VERTEX
  5
22D
  8
RIVERS
 10
633.60514054992166
 20
4686.7880734429664
 30
0.0
  0
VERTEX
  5
22E
  8
RIVERS
 10
633.83146789810564
 20
4686.7713207783709
 30
0.0
  0
VERTEX
  5
22F
  8
RIVERS
 10
634.21706278006764
 20
4687.0142338017977
 30
0.0
  0
VERTEX
  5
230
  8
RIVERS
 10
634.48530251225486
 20
4687.3241573473379
 30
0.0
  0
VERTEX
  5
231
  8
RIVERS
 10
634.6780999532358
 20
4687.5670703707647
 30
0.0
  0
VERTEX
  5
232
  8
RIVERS
 10
635.09722474240061
 20
4687.7848544654335
 30
0.0
  0
VERTEX
  5
233
  8
RIVERS
 10
635.39899461907305
 20
4687.8686175158746
 30
0.0
  0
VERTEX
  5
234
  8
RIVERS
 10
635.72591192614777
 20
4687.8351123229513
 30
0.0
  0
VERTEX
  5
235
  8
RIVERS
 10
635.86477221757832
 20
4687.7830781476332
 30
0.0
  0
SEQEND
  5
236
  8
RIVERS
  0
POLYLINE
  5
79
  8
RIVERS
 66
     1
 10
0.0
 20
0.0
 30
0.0
  0
VERTEX
  5
237
  8
RIVERS
 10
640.24942404740045
 20
4699.6783428848503
 30
0.0
  0
VERTEX
  5
238
  8
RIVERS
 10
640.96193599915455
 20
4699.6427435577534
 30
0.0
  0
VERTEX
  5
239
  8
RIVERS
 10
641.54975863815866
 20
4699.8207401932414
 30
0.0
  0
VERTEX
  5
23A
  8
RIVERS
 10
641.94164031840057
 20
4699.9453377699501
 30
0.0
  0
VERTEX
  5
23B
  8
RIVERS
 10
642.35133479150431
 20
4699.891938847436
 30
0.0
  0
VERTEX
  5
23C
  8
RIVERS
 10
642.9391571932257
 20
4699.5893446352393
 30
0.0
  0
VERTEX
  5
23D
  8
RIVERS
 10
643.08165953612024
 20
4699.4647469222646
 30
0.0
  0
VERTEX
  5
23E
  8
RIVERS
 10
643.42010283777665
 20
4699.5537453081424
 30
0.0
  0
VERTEX
  5
23F
  8
RIVERS
 10
643.7051077608478
 20
4699.482546653946
 30
0.0
  0
VERTEX
  5
240
  8
RIVERS
 10
643.82979731088028
 20
4699.1977520371647
 30
0.0
  0
VERTEX
  5
241
  8
RIVERS
 10
644.04355106250432
 20
4698.6993615940646
 30
0.0
  0
VERTEX
  5
242
  8
RIVERS
 10
644.34636854115479
 20
4698.307768995991
 30
0.0
  0
VERTEX
  5
243
  8
RIVERS
 10
644.50668391419345
 20
4698.1653718238667
 30
0.0
  0
VERTEX
  5
244
  8
RIVERS
 10
644.47105832846989
 20
4697.7559796303758
 30
0.0
  0
VERTEX
  5
245
  8
RIVERS
 10
644.59574787850238
 20
4697.5601832632074
 30
0.0
  0
VERTEX
  5
246
  8
RIVERS
 10
644.8629400087118
 20
4697.3999863594008
 30
0.0
  0
VERTEX
  5
247
  8
RIVERS
 10
645.05888073019139
 20
4697.1685908013988
 30
0.0
  0
VERTEX
  5
248
  8
RIVERS
 10
645.30826006753887
 20
4696.7591986079087
 30
0.0
  0
VERTEX
  5
249
  8
RIVERS
 10
645.62238367802502
 20
4696.6844623414727
 30
0.0
  0
SEQEND
  5
24A
  8
RIVERS
  0
POLYLINE
  5
7A
  8
RIVERS
 66
     1
 10
0.0
 20
0.0
 30
0.0
  0
VERTEX
  5
24B
  8
RIVERS
 10
635.11933685581459
 20
4697.3465874368876
 30
0.0
  0
VERTEX
  5
24C
  8
RIVERS
 10
634.97683427563788
 20
4697.2397894555943
 30
0.0
  0
VERTEX
  5
24D
  8
RIVERS
 10
634.92339589705261
 20
4696.9905941659099
 30
0.0
  0
VERTEX
  5
24E
  8
RIVERS
 10
634.69182958984925
 20
4696.865996589202
 30
0.0
  0
VERTEX
  5
24F
  8
RIVERS
 10
634.40682466677811
 20
4696.6879999537141
 30
0.0
  0
VERTEX
  5
250
  8
RIVERS
 10
633.96150460795093
 20
4696.3320066827382
 30
0.0
  0
VERTEX
  5
251
  8
RIVERS
 10
633.80118947219466
 20
4696.0828115293207
 30
0.0
  0
VERTEX
  5
252
  8
RIVERS
 10
633.64087409915612
 20
4695.7624175854407
 30
0.0
  0
VERTEX
  5
253
  8
RIVERS
 10
633.62306130629429
 20
4695.1216298339496
 30
0.0
  0
VERTEX
  5
254
  8
RIVERS
 10
633.4983717562618
 20
4694.7300373721419
 30
0.0
  0
VERTEX
  5
255
  8
RIVERS
 10
633.51618454912364
 20
4694.4096434282628
 30
0.0
  0
VERTEX
  5
256
  8
RIVERS
 10
633.44493337767642
 20
4694.2138471973603
 30
0.0
  0
VERTEX
  5
257
  8
RIVERS
 10
633.08867728315818
 20
4694.196047465678
 30
0.0
  0
VERTEX
  5
258
  8
RIVERS
 10
633.01742611171085
 20
4694.0892494843847
 30
0.0
  0
VERTEX
  5
259
  8
RIVERS
 10
633.05305169743451
 20
4693.8044550038703
 30
0.0
  0
VERTEX
  5
25A
  8
RIVERS
 10
633.1064900760199
 20
4693.4840610599922
 30
0.0
  0
VERTEX
  5
25B
  8
RIVERS
 10
633.08867728315818
 20
4693.1814668477964
 30
0.0
  0
VERTEX
  5
25C
  8
RIVERS
 10
632.939538624948
 20
4693.0430831973963
 30
0.0
  0
SEQEND
  5
25D
  8
RIVERS
  0
POLYLINE
  5
7B
  8
RIVERS
 66
     1
 10
0.0
 20
0.0
 30
0.0
  0
VERTEX
  5
25E
  8
RIVERS
 10
661.47346568900502
 20
4697.5292957379997
 30
0.0
  0
VERTEX
  5
25F
  8
RIVERS
 10
661.6226043472152
 20
4697.1247897667399
 30
0.0
  0
VERTEX
  5
260
  8
RIVERS
 10
661.75043741502884
 20
4696.6777041119776
 30
0.0
  0
VERTEX
  5
261
  8
RIVERS
 10
661.81435394893572
 20
4696.3370674615689
 30
0.0
  0
VERTEX
  5
262
  8
RIVERS
 10
661.87827048284259
 20
4696.0815900418957
 30
0.0
  0
VERTEX
  5
263
  8
RIVERS
 10
662.02740914105277
 20
4695.9751410375438
 30
0.0
  0
VERTEX
  5
264
  8
RIVERS
 10
662.3043806297942
 20
4695.9325614903091
 30
0.0
  0
VERTEX
  5
265
  8
RIVERS
 10
662.49613023151483
 20
4695.804822712339
 30
0.0
  0
VERTEX
  5
266
  8
RIVERS
 10
662.4748246411184
 20
4695.6557941607516
 30
0.0
  0
VERTEX
  5
267
  8
RIVERS
 10
662.58135235581813
 20
4695.506765745431
 30
0.0
  0
VERTEX
  5
268
  8
RIVERS
 10
662.83701849144563
 20
4695.2938677367247
 30
0.0
  0
VERTEX
  5
269
  8
RIVERS
 10
663.05007344627995
 20
4695.017100543434
 30
0.0
  0
VERTEX
  5
26A
  8
RIVERS
 10
663.2418230480007
 20
4694.7403332138783
 30
0.0
  0
VERTEX
  5
26B
  8
RIVERS
 10
663.51879477402463
 20
4694.4848557942041
 30
0.0
  0
VERTEX
  5
26C
  8
RIVERS
 10
663.81707185316247
 20
4694.2932476953829
 30
0.0
  0
VERTEX
  5
26D
  8
RIVERS
 10
664.05143239839356
 20
4694.1229293701781
 30
0.0
  0
VERTEX
  5
26E
  8
RIVERS
 10
664.30709853402095
 20
4693.9526110449733
 30
0.0
  0
VERTEX
  5
26F
  8
RIVERS
 10
664.56276466964835
 20
4693.7610029461521
 30
0.0
  0
VERTEX
  5
270
  8
RIVERS
 10
664.69059773746221
 20
4693.5055253902128
 30
0.0
  0
VERTEX
  5
271
  8
RIVERS
 10
664.62668120355534
 20
4693.0797296453338
 30
0.0
  0
VERTEX
  5
272
  8
RIVERS
 10
664.66929214706568
 20
4692.8881215465117
 30
0.0
  0
VERTEX
  5
273
  8
RIVERS
 10
664.54145907925204
 20
4692.5687746697213
 30
0.0
  0
VERTEX
  5
274
  8
RIVERS
 10
664.37101506792783
 20
4692.3984563445156
 30
0.0
  0
VERTEX
  5
275
  8
RIVERS
 10
664.37101506792783
 20
4691.9726605996384
 30
0.0
  0
VERTEX
  5
276
  8
RIVERS
 10
664.32840412441726
 20
4691.5681546283768
 30
0.0
  0
VERTEX
  5
277
  8
RIVERS
 10
664.32840412441726
 20
4691.2488077515873
 30
0.0
  0
VERTEX
  5
278
  8
RIVERS
 10
664.52015348885561
 20
4690.9720404220279
 30
0.0
  0
VERTEX
  5
279
  8
RIVERS
 10
664.81843080527585
 20
4690.5462446771498
 30
0.0
  0
VERTEX
  5
27A
  8
RIVERS
 10
664.87079731000983
 20
4690.2671627295567
 30
0.0
  0
SEQEND
  5
27B
  8
RIVERS
  0
POLYLINE
  5
7C
  8
RIVERS
 66
     1
 10
0.0
 20
0.0
 30
0.0
  0
VERTEX
  5
27C
  8
RIVERS
 10
666.89641636083229
 20
4701.7985965044018
 30
0.0
  0
VERTEX
  5
27D
  8
RIVERS
 10
667.09899339762785
 20
4701.8188392109323
 30
0.0
  0
VERTEX
  5
27E
  8
RIVERS
 10
667.15976641375335
 20
4701.6771399926893
 30
0.0
  0
VERTEX
  5
27F
  8
RIVERS
 10
667.22053966716169
 20
4701.596169030302
 30
0.0
  0
VERTEX
  5
280
  8
RIVERS
 10
667.36234345054913
 20
4701.6973826992189
 30
0.0
  0
VERTEX
  5
281
  8
RIVERS
 10
667.56492048734458
 20
4701.5151979316488
 30
0.0
  0
VERTEX
  5
282
  8
RIVERS
 10
667.78775503799375
 20
4701.5759261875046
 30
0.0
  0
VERTEX
  5
283
  8
RIVERS
 10
668.03084757706142
 20
4701.4139842627319
 30
0.0
  0
VERTEX
  5
284
  8
RIVERS
 10
668.15239360931275
 20
4701.2115567886312
 30
0.0
  0
VERTEX
  5
285
  8
RIVERS
 10
668.47651691564215
 20
4701.0091291782646
 30
0.0
  0
VERTEX
  5
286
  8
RIVERS
 10
668.65883620130171
 20
4700.8269444106936
 30
0.0
  0
VERTEX
  5
287
  8
RIVERS
 10
668.76012448241704
 20
4700.7662161548378
 30
0.0
  0
VERTEX
  5
288
  8
RIVERS
 10
668.96270151921237
 20
4700.8269444106936
 30
0.0
  0
VERTEX
  5
289
  8
RIVERS
 10
669.06399003761021
 20
4700.7864589976334
 30
0.0
  0
VERTEX
  5
28A
  8
RIVERS
 10
669.26656707440588
 20
4700.6650024859191
 30
0.0
  0
VERTEX
  5
28B
  8
RIVERS
 10
669.48940162505505
 20
4700.7459734483073
 30
0.0
  0
VERTEX
  5
28C
  8
RIVERS
 10
669.59069014345266
 20
4700.5435459742057
 30
0.0
  0
VERTEX
  5
28D
  8
RIVERS
 10
669.71223641298661
 20
4700.3208756573094
 30
0.0
  0
VERTEX
  5
28E
  8
RIVERS
 10
670.15790575156734
 20
4700.1791764390646
 30
0.0
  0
VERTEX
  5
28F
  8
RIVERS
 10
670.34022503722679
 20
4700.0779626338826
 30
0.0
  0
VERTEX
  5
290
  8
RIVERS
 10
670.46177106947812
 20
4699.7945641973947
 30
0.0
  0
VERTEX
  5
291
  8
RIVERS
 10
670.64409035513756
 20
4699.5718938804976
 30
0.0
  0
VERTEX
  5
292
  8
RIVERS
 10
670.82640964079724
 20
4699.3087381505402
 30
0.0
  0
VERTEX
  5
293
  8
RIVERS
 10
670.84666739193324
 20
4699.2075243453573
 30
0.0
  0
VERTEX
  5
294
  8
RIVERS
 10
671.0
 20
4699.1500670228579
 30
0.0
  0
SEQEND
  5
295
  8
RIVERS
  0
POLYLINE
  5
7D
  8
RIVERS
 66
     1
 10
0.0
 20
0.0
 30
0.0
  0
VERTEX
  5
296
  8
RIVERS
 10
632.939538624948
 20
4693.0430831973963
 30
0.0
  0
VERTEX
  5
297
  8
RIVERS
 10
632.939538624948
 20
4692.7562503692088
 30
0.0
  0
VERTEX
  5
298
  8
RIVERS
 10
633.1047436772526
 20
4692.546144584825
 30
0.0
  0
VERTEX
  5
299
  8
RIVERS
 10
633.66043329078525
 20
4692.3360388004403
 30
0.0
  0
VERTEX
  5
29A
  8
RIVERS
 10
634.05091785201319
 20
4692.4260841171381
 30
0.0
  0
VERTEX
  5
29B
  8
RIVERS
 10
634.38132795662261
 20
4692.1859631817661
 30
0.0
  0
VERTEX
  5
29C
  8
RIVERS
 10
634.51649566197659
 20
4691.7657516129966
 30
0.0
  0
VERTEX
  5
29D
  8
RIVERS
 10
634.60660746554595
 20
4691.3155248932399
 30
0.0
  0
VERTEX
  5
29E
  8
RIVERS
 10
634.66668215944719
 20
4690.9553434901827
 30
0.0
  0
VERTEX
  5
29F
  8
RIVERS
 10
634.90698022320464
 20
4690.2950109860421
 30
0.0
  0
VERTEX
  5
2A0
  8
RIVERS
 10
635.22237177297984
 20
4689.9798522413321
 30
0.0
  0
VERTEX
  5
2A1
  8
RIVERS
 10
635.32750213138331
 20
4689.7097162912378
 30
0.0
  0
VERTEX
  5
2A2
  8
RIVERS
 10
635.31248357654908
 20
4689.4245726975169
 30
0.0
  0
VERTEX
  5
2A3
  8
RIVERS
 10
635.44367445953583
 20
4689.0
 30
0.0
  0
VERTEX
  5
2A4
  8
RIVERS
 10
635.45719220745355
 20
4688.9491100938158
 30
0.0
  0
VERTEX
  5
2A5
  8
RIVERS
 10
635.46070801211704
 20
4688.8179375907221
 30
0.0
  0
VERTEX
  5
2A6
  8
RIVERS
 10
635.51158554578785
 20
4688.6417110588727
 30
0.0
  0
VERTEX
  5
2A7
  8
RIVERS
 10
635.51792989186606
 20
4688.489653680117
 30
0.0
  0
VERTEX
  5
2A8
  8
RIVERS
 10
635.52112017080185
 20
4688.3137743757097
 30
0.0
  0
VERTEX
  5
2A9
  8
RIVERS
 10
635.54979621582186
 20
4688.1585737806699
 30
0.0
  0
VERTEX
  5
2AA
  8
RIVERS
 10
635.67100737803935
 20
4688.022073379695
 30
0.0
  0
VERTEX
  5
2AB
  8
RIVERS
 10
635.81275618847565
 20
4687.8407142654014
 30
0.0
  0
VERTEX
  5
2AC
  8
RIVERS
 10
635.86477221757832
 20
4687.7830781476332
 30
0.0
  0
SEQEND
  5
2AD
  8
RIVERS
  0
POLYLINE
  5
7E
  8
RIVERS
 66
     1
 10
0.0
 20
0.0
 30
0.0
  0
VERTEX
  5
2AE
  8
RIVERS
 10
634.99709226405628
 20
4700.1369458687714
 30
0.0
  0
VERTEX
  5
2AF
  8
RIVERS
 10
635.02712937372462
 20
4700.4370969698539
 30
0.0
  0
VERTEX
  5
2B0
  8
RIVERS
 10
634.98207347193988
 20
4700.7072330562141
 30
0.0
  0
VERTEX
  5
2B1
  8
RIVERS
 10
634.77181251785055
 20
4700.9323463479586
 30
0.0
  0
VERTEX
  5
2B2
  8
RIVERS
 10
634.53151445409321
 20
4701.0974294739945
 30
0.0
  0
VERTEX
  5
2B3
  8
RIVERS
 10
634.44140265052374
 20
4701.3225427657399
 30
0.0
  0
VERTEX
  5
2B4
  8
RIVERS
 10
634.29121615305326
 20
4701.5926788521001
 30
0.0
  0
VERTEX
  5
2B5
  8
RIVERS
 10
633.88571303699109
 20
4701.7727694854957
 30
0.0
  0
VERTEX
  5
2B6
  8
RIVERS
 10
633.4201352270278
 20
4701.7277468271477
 30
0.0
  0
VERTEX
  5
2B7
  8
RIVERS
 10
633.31500463134194
 20
4701.4876258917748
 30
0.0
  0
VERTEX
  5
2B8
  8
RIVERS
 10
633.10474391453499
 20
4701.442603233425
 30
0.0
  0
VERTEX
  5
2B9
  8
RIVERS
 10
633.04466922063375
 20
4701.2024824343198
 30
0.0
  0
VERTEX
  5
2BA
  8
RIVERS
 10
632.8043711568763
 20
4701.0674143230071
 30
0.0
  0
VERTEX
  5
2BB
  8
RIVERS
 10
632.72927790814094
 20
4700.8873236896097
 30
0.0
  0
VERTEX
  5
2BC
  8
RIVERS
 10
632.72927790814094
 20
4700.6622102615993
 30
0.0
  0
VERTEX
  5
2BD
  8
RIVERS
 10
632.59411020278696
 20
4700.5271422865517
 30
0.0
  0
VERTEX
  5
2BE
  8
RIVERS
 10
632.11351360070717
 20
4700.3020289948081
 30
0.0
  0
VERTEX
  5
2BF
  8
RIVERS
 10
631.93328999356845
 20
4700.0168854010853
 30
0.0
  0
VERTEX
  5
2C0
  8
RIVERS
 10
631.93328999356845
 20
4699.7617569583508
 30
0.0
  0
VERTEX
  5
2C1
  8
RIVERS
 10
631.90325288390034
 20
4699.6266888470391
 30
0.0
  0
VERTEX
  5
2C2
  8
RIVERS
 10
631.75306638642974
 20
4699.671711505388
 30
0.0
  0
VERTEX
  5
2C3
  8
RIVERS
 10
631.57284277929102
 20
4699.6416964906648
 30
0.0
  0
VERTEX
  5
2C4
  8
RIVERS
 10
631.39261917215231
 20
4699.3415452533181
 30
0.0
  0
VERTEX
  5
2C5
  8
RIVERS
 10
631.18235821806286
 20
4699.0714093032229
 30
0.0
  0
VERTEX
  5
2C6
  8
RIVERS
 10
631.03217172059237
 20
4698.8162808604902
 30
0.0
  0
VERTEX
  5
2C7
  8
RIVERS
 10
630.86696666828777
 20
4698.6061750761046
 30
0.0
  0
VERTEX
  5
2C8
  8
RIVERS
 10
630.64168715936444
 20
4698.4861146084186
 30
0.0
  0
VERTEX
  5
2C9
  8
RIVERS
 10
630.44644499739161
 20
4698.3360389897452
 30
0.0
  0
VERTEX
  5
2CA
  8
RIVERS
 10
630.2662211529705
 20
4698.0508953960252
 30
0.0
  0
VERTEX
  5
2CB
  8
RIVERS
 10
630.13105344761652
 20
4697.8107744606523
 30
0.0
  0
VERTEX
  5
2CC
  8
RIVERS
 10
630.01090429709643
 20
4697.5706535252793
 30
0.0
  0
VERTEX
  5
2CD
  8
RIVERS
 10
630.00919782402343
 20
4697.3765785603391
 30
0.0
  0
SEQEND
  5
2CE
  8
RIVERS
  0
POLYLINE
  5
7F
  8
RIVERS
 66
     1
 10
0.0
 20
0.0
 30
0.0
  0
VERTEX
  5
2CF
  8
RIVERS
 10
660.24811784879125
 20
4662.1928952331909
 30
0.0
  0
VERTEX
  5
2D0
  8
RIVERS
 10
660.29787808260824
 20
4662.3492396572929
 30
0.0
  0
VERTEX
  5
2D1
  8
RIVERS
 10
660.40836746386242
 20
4662.3993428375752
 30
0.0
  0
VERTEX
  5
2D2
  8
RIVERS
 10
660.49469934839067
 20
4662.4561083967919
 30
0.0
  0
VERTEX
  5
2D3
  8
RIVERS
 10
660.51805776019398
 20
4662.5616017723523
 30
0.0
  0
VERTEX
  5
2D4
  8
RIVERS
 10
660.50968736547532
 20
4662.6764931730449
 30
0.0
  0
VERTEX
  5
2D5
  8
RIVERS
 10
660.66197773568888
 20
4662.9060057863999
 30
0.0
  0
VERTEX
  5
2D6
  8
RIVERS
 10
660.7743948245984
 20
4662.9875852924079
 30
0.0
  0
VERTEX
  5
2D7
  8
RIVERS
 10
660.84215035073237
 20
4663.1514184617299
 30
0.0
  0
VERTEX
  5
2D8
  8
RIVERS
 10
660.88511275134545
 20
4663.2964644344011
 30
0.0
  0
VERTEX
  5
2D9
  8
RIVERS
 10
660.8207550610615
 20
4663.4304043661568
 30
0.0
  0
VERTEX
  5
2DA
  8
RIVERS
 10
660.92598398817574
 20
4663.5476394114276
 30
0.0
  0
VERTEX
  5
2DB
  8
RIVERS
 10
660.98108456129637
 20
4663.6390234772443
 30
0.0
  0
SEQEND
  5
2DC
  8
RIVERS
  0
POLYLINE
  5
80
  8
RIVERS
 66
     1
 10
0.0
 20
0.0
 30
0.0
  0
VERTEX
  5
2DD
  8
RIVERS
 10
648.78278706557637
 20
4662.7406208187685
 30
0.0
  0
VERTEX
  5
2DE
  8
RIVERS
 10
648.84500211475824
 20
4662.921782038632
 30
0.0
  0
VERTEX
  5
2DF
  8
RIVERS
 10
648.89558528792065
 20
4663.1110406357593
 30
0.0
  0
VERTEX
  5
2E0
  8
RIVERS
 10
648.86857522427874
 20
4663.3300375907493
 30
0.0
  0
VERTEX
  5
2E1
  8
RIVERS
 10
648.8431216902668
 20
4663.5476014488213
 30
0.0
  0
VERTEX
  5
2E2
  8
RIVERS
 10
648.84457479518505
 20
4663.7662762013033
 30
0.0
  0
VERTEX
  5
2E3
  8
RIVERS
 10
648.82588920617263
 20
4663.9287171173091
 30
0.0
  0
VERTEX
  5
2E4
  8
RIVERS
 10
648.75639358657372
 20
4664.1249969121363
 30
0.0
  0
VERTEX
  5
2E5
  8
RIVERS
 10
648.75590624299889
 20
4664.3181364062502
 30
0.0
  0
VERTEX
  5
2E6
  8
RIVERS
 10
648.86410825392556
 20
4664.52624488728
 30
0.0
  0
VERTEX
  5
2E7
  8
RIVERS
 10
648.97636269018108
 20
4664.7450022102976
 30
0.0
  0
VERTEX
  5
2E8
  8
RIVERS
 10
649.06582462919107
 20
4664.9718026676146
 30
0.0
  0
VERTEX
  5
2E9
  8
RIVERS
 10
649.18866619107598
 20
4665.188002378577
 30
0.0
  0
VERTEX
  5
2EA
  8
RIVERS
 10
649.28016476983908
 20
4665.3654739978547
 30
0.0
  0
VERTEX
  5
2EB
  8
RIVERS
 10
649.43319755825701
 20
4665.539496734641
 30
0.0
  0
VERTEX
  5
2EC
  8
RIVERS
 10
649.56103814499079
 20
4665.6346165704172
 30
0.0
  0
VERTEX
  5
2ED
  8
RIVERS
 10
649.68778145803992
 20
4665.7925802800528
 30
0.0
  0
VERTEX
  5
2EE
  8
RIVERS
 10
649.69043441517726
 20
4666.0547280501914
 30
0.0
  0
VERTEX
  5
2EF
  8
RIVERS
 10
649.7031807670952
 20
4666.3262767144661
 30
0.0
  0
VERTEX
  5
2F0
  8
RIVERS
 10
649.74000203901176
 20
4666.5224539307583
 30
0.0
  0
VERTEX
  5
2F1
  8
RIVERS
 10
649.8624043529519
 20
4666.8943610876313
 30
0.0
  0
VERTEX
  5
2F2
  8
RIVERS
 10
649.88181607133481
 20
4667.0044699183236
 30
0.0
  0
VERTEX
  5
2F3
  8
RIVERS
 10
649.99983737016498
 20
4667.156084076727
 30
0.0
  0
VERTEX
  5
2F4
  8
RIVERS
 10
650.14745273996709
 20
4667.4975876165463
 30
0.0
  0
VERTEX
  5
2F5
  8
RIVERS
 10
650.30910411789182
 20
4667.8980677539648
 30
0.0
  0
VERTEX
  5
2F6
  8
RIVERS
 10
650.42440266359938
 20
4668.260697449412
 30
0.0
  0
VERTEX
  5
2F7
  8
RIVERS
 10
650.53608079847163
 20
4668.6022146099567
 30
0.0
  0
VERTEX
  5
2F8
  8
RIVERS
 10
650.64961042402854
 20
4668.8988873722847
 30
0.0
  0
VERTEX
  5
2F9
  8
RIVERS
 10
650.61540040089392
 20
4669.1834709622581
 30
0.0
  0
VERTEX
  5
2FA
  8
RIVERS
 10
650.64098290871527
 20
4669.470523206478
 30
0.0
  0
VERTEX
  5
2FB
  8
RIVERS
 10
650.7015496646718
 20
4669.7081095592193
 30
0.0
  0
VERTEX
  5
2FC
  8
RIVERS
 10
650.82845727261156
 20
4669.9708953470972
 30
0.0
  0
VERTEX
  5
2FD
  8
RIVERS
 10
650.91169948037555
 20
4670.3846091800078
 30
0.0
  0
VERTEX
  5
2FE
  8
RIVERS
 10
650.90961389881511
 20
4670.7977948071666
 30
0.0
  0
VERTEX
  5
2FF
  8
RIVERS
 10
650.93516193173252
 20
4671.1582163345192
 30
0.0
  0
VERTEX
  5
300
  8
RIVERS
 10
650.99003716219647
 20
4671.4973882735303
 30
0.0
  0
VERTEX
  5
301
  8
RIVERS
 10
651.08376350598712
 20
4671.7060226481863
 30
0.0
  0
VERTEX
  5
302
  8
RIVERS
 10
651.17713038721286
 20
4671.8263299462642
 30
0.0
  0
VERTEX
  5
303
  8
RIVERS
 10
651.41932555284313
 20
4672.0820020085448
 30
0.0
  0
VERTEX
  5
304
  8
RIVERS
 10
651.61494316258506
 20
4672.3897002877593
 30
0.0
  0
VERTEX
  5
305
  8
RIVERS
 10
651.80616210440996
 20
4672.7724240472653
 30
0.0
  0
VERTEX
  5
306
  8
RIVERS
 10
651.87674388916764
 20
4673.1426820084998
 30
0.0
  0
VERTEX
  5
307
  8
RIVERS
 10
651.97965761623823
 20
4673.4597551195038
 30
0.0
  0
VERTEX
  5
308
  8
RIVERS
 10
652.15512895564655
 20
4673.867580236797
 30
0.0
  0
VERTEX
  5
309
  8
RIVERS
 10
652.31294392735265
 20
4674.2095192236102
 30
0.0
  0
VERTEX
  5
30A
  8
RIVERS
 10
652.53537967258967
 20
4674.4728932176758
 30
0.0
  0
VERTEX
  5
30B
  8
RIVERS
 10
652.77615926322051
 20
4674.6729129450741
 30
0.0
  0
VERTEX
  5
30C
  8
RIVERS
 10
653.04560214207663
 20
4674.8166369292539
 30
0.0
  0
VERTEX
  5
30D
  8
RIVERS
 10
653.21993803277599
 20
4675.0012305667524
 30
0.0
  0
VERTEX
  5
30E
  8
RIVERS
 10
653.42199221735348
 20
4675.2677796413154
 30
0.0
  0
VERTEX
  5
30F
  8
RIVERS
 10
653.60342820938001
 20
4675.6246724125067
 30
0.0
  0
VERTEX
  5
310
  8
RIVERS
 10
653.69233257146209
 20
4675.9060240951394
 30
0.0
  0
VERTEX
  5
311
  8
RIVERS
 10
653.84068687249419
 20
4676.1582627936577
 30
0.0
  0
VERTEX
  5
312
  8
RIVERS
 10
654.04529457225829
 20
4676.3617578459998
 30
0.0
  0
VERTEX
  5
313
  8
RIVERS
 10
654.19558082316723
 20
4676.467506939417
 30
0.0
  0
VERTEX
  5
314
  8
RIVERS
 10
654.27086286185374
 20
4676.594409376853
 30
0.0
  0
VERTEX
  5
315
  8
RIVERS
 10
654.38126526506164
 20
4676.7546305204796
 30
0.0
  0
VERTEX
  5
316
  8
RIVERS
 10
654.50739342766019
 20
4676.9431070259734
 30
0.0
  0
VERTEX
  5
317
  8
RIVERS
 10
654.64845372326454
 20
4677.1350163202724
 30
0.0
  0
VERTEX
  5
318
  8
RIVERS
 10
654.7379384560835
 20
4677.2645791881969
 30
0.0
  0
VERTEX
  5
319
  8
RIVERS
 10
654.94168687338936
 20
4677.5046884113008
 30
0.0
  0
VERTEX
  5
31A
  8
RIVERS
 10
655.02855985138228
 20
4677.514339116814
 30
0.0
  0
VERTEX
  5
31B
  8
RIVERS
 10
655.11243431919775
 20
4677.5704566855247
 30
0.0
  0
VERTEX
  5
31C
  8
RIVERS
 10
655.12554896065978
 20
4677.5946755384457
 30
0.0
  0
VERTEX
  5
31D
  8
RIVERS
 10
655.19711918832525
 20
4677.6228360766581
 30
0.0
  0
VERTEX
  5
31E
  8
RIVERS
 10
655.2904425420993
 20
4677.6978617994719
 30
0.0
  0
VERTEX
  5
31F
  8
RIVERS
 10
655.36730101605247
 20
4677.7703718259309
 30
0.0
  0
VERTEX
  5
320
  8
RIVERS
 10
655.39606144199797
 20
4677.894624891529
 30
0.0
  0
VERTEX
  5
321
  8
RIVERS
 10
655.43436731666657
 20
4678.0317857145574
 30
0.0
  0
VERTEX
  5
322
  8
RIVERS
 10
655.46830397946974
 20
4678.1141084254996
 30
0.0
  0
VERTEX
  5
323
  8
RIVERS
 10
655.52401093891467
 20
4678.2319672343774
 30
0.0
  0
VERTEX
  5
324
  8
RIVERS
 10
655.56216704163569
 20
4678.3600671324293
 30
0.0
  0
VERTEX
  5
325
  8
RIVERS
 10
655.61550111267957
 20
4678.522601952538
 30
0.0
  0
VERTEX
  5
326
  8
RIVERS
 10
655.63892800864357
 20
4678.7055436884502
 30
0.0
  0
VERTEX
  5
327
  8
RIVERS
 10
655.66666769856727
 20
4678.8509515540636
 30
0.0
  0
VERTEX
  5
328
  8
RIVERS
 10
655.72215816659127
 20
4678.9947194390252
 30
0.0
  0
SEQEND
  5
329
  8
RIVERS
  0
POLYLINE
  5
81
  8
RIVERS
 66
     1
 10
0.0
 20
0.0
 30
0.0
  0
VERTEX
  5
32A
  8
RIVERS
 10
645.62238367802502
 20
4696.6844623414727
 30
0.0
  0
VERTEX
  5
32B
  8
RIVERS
 10
645.64576151252493
 20
4696.9493870271053
 30
0.0
  0
VERTEX
  5
32C
  8
RIVERS
 10
645.68735012585296
 20
4697.0344793997101
 30
0.0
  0
VERTEX
  5
32D
  8
RIVERS
 10
645.64808712995307
 20
4697.2020814072321
 30
0.0
  0
VERTEX
  5
32E
  8
RIVERS
 10
645.60420172522902
 20
4697.4678368695622
 30
0.0
  0
VERTEX
  5
32F
  8
RIVERS
 10
645.59591448055573
 20
4697.5582570999059
 30
0.0
  0
VERTEX
  5
330
  8
RIVERS
 10
645.57332859187204
 20
4697.6611355814057
 30
0.0
  0
VERTEX
  5
331
  8
RIVERS
 10
645.51585998445398
 20
4697.8449413864873
 30
0.0
  0
VERTEX
  5
332
  8
RIVERS
 10
645.49711130638354
 20
4698.0078721743512
 30
0.0
  0
VERTEX
  5
333
  8
RIVERS
 10
645.56006515770298
 20
4698.2899171409917
 30
0.0
  0
VERTEX
  5
334
  8
RIVERS
 10
645.60336560375515
 20
4698.5358199197726
 30
0.0
  0
VERTEX
  5
335
  8
RIVERS
 10
645.58830866505195
 20
4698.7052085131136
 30
0.0
  0
SEQEND
  5
336
  8
RIVERS
  0
POLYLINE
  5
82
  8
RIVERS
 66
     1
 10
0.0
 20
0.0
 30
0.0
  0
VERTEX
  5
337
  8
RIVERS
 10
646.39679534987192
 20
4693.7076357404067
 30
0.0
  0
VERTEX
  5
338
  8
RIVERS
 10
646.22460283324369
 20
4693.6440321697237
 30
0.0
  0
VERTEX
  5
339
  8
RIVERS
 10
646.01836660312688
 20
4693.500599323479
 30
0.0
  0
VERTEX
  5
33A
  8
RIVERS
 10
645.97685274289347
 20
4693.2304904875009
 30
0.0
  0
VERTEX
  5
33B
  8
RIVERS
 10
645.95280214934439
 20
4693.0398611813553
 30
0.0
  0
VERTEX
  5
33C
  8
RIVERS
 10
645.82351555714865
 20
4692.6964456359892
 30
0.0
  0
VERTEX
  5
33D
  8
RIVERS
 10
645.56339388365313
 20
4692.4459692592191
 30
0.0
  0
VERTEX
  5
33E
  8
RIVERS
 10
645.39946170818064
 20
4692.2932208771754
 30
0.0
  0
VERTEX
  5
33F
  8
RIVERS
 10
645.12936286460445
 20
4692.0922975161957
 30
0.0
  0
VERTEX
  5
340
  8
RIVERS
 10
645.06967799426172
 20
4692.0432357238587
 30
0.0
  0
VERTEX
  5
341
  8
RIVERS
 10
644.98199612038354
 20
4691.9775532571985
 30
0.0
  0
VERTEX
  5
342
  8
RIVERS
 10
644.8404831256529
 20
4691.7915170601545
 30
0.0
  0
VERTEX
  5
343
  8
RIVERS
 10
644.71026185406174
 20
4691.6812167245371
 30
0.0
  0
VERTEX
  5
344
  8
RIVERS
 10
644.46104072288335
 20
4691.6143562072484
 30
0.0
  0
VERTEX
  5
345
  8
RIVERS
 10
644.31069660591618
 20
4691.6045750823187
 30
0.0
  0
VERTEX
  5
346
  8
RIVERS
 10
644.15692082089765
 20
4691.5552371340154
 30
0.0
  0
VERTEX
  5
347
  8
RIVERS
 10
644.03227145703113
 20
4691.4615662151982
 30
0.0
  0
VERTEX
  5
348
  8
RIVERS
 10
643.80996920419705
 20
4691.3159277750246
 30
0.0
  0
VERTEX
  5
349
  8
RIVERS
 10
643.57630776588417
 20
4691.1587021105188
 30
0.0
  0
VERTEX
  5
34A
  8
RIVERS
 10
643.2426338698931
 20
4690.9303615788303
 30
0.0
  0
VERTEX
  5
34B
  8
RIVERS
 10
642.92171827277434
 20
4690.7652566967918
 30
0.0
  0
VERTEX
  5
34C
  8
RIVERS
 10
642.59288149264069
 20
4690.6274840135238
 30
0.0
  0
VERTEX
  5
34D
  8
RIVERS
 10
642.48668268921108
 20
4690.601567555982
 30
0.0
  0
VERTEX
  5
34E
  8
RIVERS
 10
642.34981899415823
 20
4690.5823584496302
 30
0.0
  0
VERTEX
  5
34F
  8
RIVERS
 10
642.19267884422266
 20
4690.550836036894
 30
0.0
  0
VERTEX
  5
350
  8
RIVERS
 10
642.06943492816185
 20
4690.508176143122
 30
0.0
  0
VERTEX
  5
351
  8
RIVERS
 10
641.94357173247192
 20
4690.4725023146984
 30
0.0
  0
VERTEX
  5
352
  8
RIVERS
 10
641.79842816828784
 20
4690.4525734607087
 30
0.0
  0
VERTEX
  5
353
  8
RIVERS
 10
641.67176921200905
 20
4690.432828304688
 30
0.0
  0
VERTEX
  5
354
  8
RIVERS
 10
641.53543523221356
 20
4690.424461337383
 30
0.0
  0
VERTEX
  5
355
  8
RIVERS
 10
641.3698441840055
 20
4690.4094289843697
 30
0.0
  0
VERTEX
  5
356
  8
RIVERS
 10
641.23294881688935
 20
4690.3934068793806
 30
0.0
  0
VERTEX
  5
357
  8
RIVERS
 10
641.05896388012252
 20
4690.389127983638
 30
0.0
  0
VERTEX
  5
358
  8
RIVERS
 10
641.01753919681676
 20
4690.388078846544
 30
0.0
  0
VERTEX
  5
359
  8
RIVERS
 10
640.90978054427285
 20
4690.3908327324416
 30
0.0
  0
VERTEX
  5
35A
  8
RIVERS
 10
640.81158289581799
 20
4690.3936816345313
 30
0.0
  0
VERTEX
  5
35B
  8
RIVERS
 10
640.66003999125758
 20
4690.376239037505
 30
0.0
  0
VERTEX
  5
35C
  8
RIVERS
 10
640.56826068641715
 20
4690.3746894818132
 30
0.0
  0
VERTEX
  5
35D
  8
RIVERS
 10
640.41949304639752
 20
4690.3987095745679
 30
0.0
  0
VERTEX
  5
35E
  8
RIVERS
 10
640.28542757813125
 20
4690.4827973188521
 30
0.0
  0
VERTEX
  5
35F
  8
RIVERS
 10
640.18958712298263
 20
4690.5691773287144
 30
0.0
  0
VERTEX
  5
360
  8
RIVERS
 10
640.07297216975689
 20
4690.6292148917801
 30
0.0
  0
VERTEX
  5
361
  8
RIVERS
 10
639.95384562191668
 20
4690.6854027155614
 30
0.0
  0
VERTEX
  5
362
  8
RIVERS
 10
639.8420662009454
 20
4690.7078780034353
 30
0.0
  0
VERTEX
  5
363
  8
RIVERS
 10
639.69418300329164
 20
4690.7070458199723
 30
0.0
  0
VERTEX
  5
364
  8
RIVERS
 10
639.58204727160887
 20
4690.637085399494
 30
0.0
  0
VERTEX
  5
365
  8
RIVERS
 10
639.47857780822858
 20
4690.5289633100247
 30
0.0
  0
VERTEX
  5
366
  8
RIVERS
 10
639.43282038667235
 20
4690.4507380646464
 30
0.0
  0
VERTEX
  5
367
  8
RIVERS
 10
639.38919687037651
 20
4690.3502228129637
 30
0.0
  0
VERTEX
  5
368
  8
RIVERS
 10
639.35147465126283
 20
4690.233192163907
 30
0.0
  0
VERTEX
  5
369
  8
RIVERS
 10
639.30740376707377
 20
4690.113548569635
 30
0.0
  0
VERTEX
  5
36A
  8
RIVERS
 10
639.27103869586972
 20
4689.9882443858614
 30
0.0
  0
VERTEX
  5
36B
  8
RIVERS
 10
639.25705231274549
 20
4689.8561505035323
 30
0.0
  0
VERTEX
  5
36C
  8
RIVERS
 10
639.25886791377025
 20
4689.7376003872423
 30
0.0
  0
VERTEX
  5
36D
  8
RIVERS
 10
639.25765487374838
 20
4689.6030835920737
 30
0.0
  0
VERTEX
  5
36E
  8
RIVERS
 10
639.23717413405802
 20
4689.4830369707979
 30
0.0
  0
VERTEX
  5
36F
  8
RIVERS
 10
639.19757772060245
 20
4689.3621629168683
 30
0.0
  0
VERTEX
  5
370
  8
RIVERS
 10
639.09045488472805
 20
4689.2367930135633
 30
0.0
  0
VERTEX
  5
371
  8
RIVERS
 10
638.98993804944291
 20
4689.1522864062426
 30
0.0
  0
VERTEX
  5
372
  8
RIVERS
 10
638.87626780629626
 20
4689.1084467281153
 30
0.0
  0
VERTEX
  5
373
  8
RIVERS
 10
638.7542163434166
 20
4689.074085706713
 30
0.0
  0
VERTEX
  5
374
  8
RIVERS
 10
638.68649981203021
 20
4688.9923308890238
 30
0.0
  0
VERTEX
  5
375
  8
RIVERS
 10
638.66756372523889
 20
4688.983856188278
 30
0.0
  0
VERTEX
  5
376
  8
RIVERS
 10
638.58072909430132
 20
4688.9293471497313
 30
0.0
  0
VERTEX
  5
377
  8
RIVERS
 10
638.47885113511029
 20
4688.855573672523
 30
0.0
  0
VERTEX
  5
378
  8
RIVERS
 10
638.40953029554021
 20
4688.7502667155286
 30
0.0
  0
VERTEX
  5
379
  8
RIVERS
 10
638.37000313932162
 20
4688.6432525146729
 30
0.0
  0
VERTEX
  5
37A
  8
RIVERS
 10
638.31392072642416
 20
4688.5140042725943
 30
0.0
  0
VERTEX
  5
37B
  8
RIVERS
 10
638.30678792696278
 20
4688.3531031912944
 30
0.0
  0
VERTEX
  5
37C
  8
RIVERS
 10
638.30147087993942
 20
4688.2368980604506
 30
0.0
  0
VERTEX
  5
37D
  8
RIVERS
 10
638.30633585016483
 20
4688.0863417592627
 30
0.0
  0
VERTEX
  5
37E
  8
RIVERS
 10
638.28895592830895
 20
4687.950850488045
 30
0.0
  0
VERTEX
  5
37F
  8
RIVERS
 10
638.29116597084123
 20
4687.8450226898867
 30
0.0
  0
VERTEX
  5
380
  8
RIVERS
 10
638.29047151595546
 20
4687.7496481804174
 30
0.0
  0
VERTEX
  5
381
  8
RIVERS
 10
638.20751076798183
 20
4687.6131441202233
 30
0.0
  0
VERTEX
  5
382
  8
RIVERS
 10
638.12367829218022
 20
4687.5615938333804
 30
0.0
  0
VERTEX
  5
383
  8
RIVERS
 10
638.02491099670124
 20
4687.5056813749843
 30
0.0
  0
VERTEX
  5
384
  8
RIVERS
 10
637.96750111995721
 20
4687.3987973844178
 30
0.0
  0
VERTEX
  5
385
  8
RIVERS
 10
637.89077255026496
 20
4687.299505588554
 30
0.0
  0
VERTEX
  5
386
  8
RIVERS
 10
637.80213301774666
 20
4687.2017908262633
 30
0.0
  0
VERTEX
  5
387
  8
RIVERS
 10
637.7073481138076
 20
4687.078785613322
 30
0.0
  0
VERTEX
  5
388
  8
RIVERS
 10
637.61543515471351
 20
4686.9408564315609
 30
0.0
  0
VERTEX
  5
389
  8
RIVERS
 10
637.55946125039202
 20
4686.8265104565862
 30
0.0
  0
VERTEX
  5
38A
  8
RIVERS
 10
637.5022032856541
 20
4686.7404896399676
 30
0.0
  0
VERTEX
  5
38B
  8
RIVERS
 10
637.41664186427522
 20
4686.6561652163537
 30
0.0
  0
VERTEX
  5
38C
  8
RIVERS
 10
637.29353180197973
 20
4686.5318759429974
 30
0.0
  0
VERTEX
  5
38D
  8
RIVERS
 10
637.2571178869614
 20
4686.5018685515897
 30
0.0
  0
SEQEND
  5
38E
  8
RIVERS
  0
POLYLINE
  5
83
  8
RIVERS
 66
     1
 10
0.0
 20
0.0
 30
0.0
  0
VERTEX
  5
38F
  8
RIVERS
 10
646.39679534987192
 20
4693.7076357404067
 30
0.0
  0
VERTEX
  5
390
  8
RIVERS
 10
646.46186862162244
 20
4693.7077324008187
 30
0.0
  0
VERTEX
  5
391
  8
RIVERS
 10
646.70643122072454
 20
4693.6069842934094
 30
0.0
  0
VERTEX
  5
392
  8
RIVERS
 10
646.80356733806366
 20
4693.5388540130552
 30
0.0
  0
VERTEX
  5
393
  8
RIVERS
 10
647.04448105117547
 20
4693.369125666386
 30
0.0
  0
VERTEX
  5
394
  8
RIVERS
 10
647.33517895807734
 20
4693.1379241231234
 30
0.0
  0
VERTEX
  5
395
  8
RIVERS
 10
647.72334178198741
 20
4693.0044774781009
 30
0.0
  0
VERTEX
  5
396
  8
RIVERS
 10
648.07833871608784
 20
4692.9915499522313
 30
0.0
  0
VERTEX
  5
397
  8
RIVERS
 10
648.26870398325855
 20
4692.8590349379247
 30
0.0
  0
VERTEX
  5
398
  8
RIVERS
 10
648.31438193125939
 20
4692.7502636248164
 30
0.0
  0
VERTEX
  5
399
  8
RIVERS
 10
648.52092908867155
 20
4692.5160110304068
 30
0.0
  0
VERTEX
  5
39A
  8
RIVERS
 10
648.70363088827412
 20
4692.3233629991846
 30
0.0
  0
VERTEX
  5
39B
  8
RIVERS
 10
648.87569887971551
 20
4692.1509064435822
 30
0.0
  0
VERTEX
  5
39C
  8
RIVERS
 10
649.02999171592035
 20
4691.9742469817784
 30
0.0
  0
VERTEX
  5
39D
  8
RIVERS
 10
649.2115635677842
 20
4691.8351665479231
 30
0.0
  0
VERTEX
  5
39E
  8
RIVERS
 10
649.44866197759961
 20
4691.7253290865119
 30
0.0
  0
VERTEX
  5
39F
  8
RIVERS
 10
649.69193320785757
 20
4691.6858010903798
 30
0.0
  0
VERTEX
  5
3A0
  8
RIVERS
 10
649.82898396297674
 20
4691.600648953282
 30
0.0
  0
VERTEX
  5
3A1
  8
RIVERS
 10
650.07474127051103
 20
4691.5037540063431
 30
0.0
  0
VERTEX
  5
3A2
  8
RIVERS
 10
650.29049135345144
 20
4691.438125753125
 30
0.0
  0
VERTEX
  5
3A3
  8
RIVERS
 10
650.50032170126622
 20
4691.350680859573
 30
0.0
  0
VERTEX
  5
3A4
  8
RIVERS
 10
650.71511920743285
 20
4691.2697206750181
 30
0.0
  0
VERTEX
  5
3A5
  8
RIVERS
 10
650.96522489241454
 20
4691.2086450737288
 30
0.0
  0
VERTEX
  5
3A6
  8
RIVERS
 10
651.08229940005572
 20
4691.1026557765899
 30
0.0
  0
VERTEX
  5
3A7
  8
RIVERS
 10
651.31619033382071
 20
4690.9634029679719
 30
0.0
  0
VERTEX
  5
3A8
  8
RIVERS
 10
651.59735843803981
 20
4691.0025095389674
 30
0.0
  0
VERTEX
  5
3A9
  8
RIVERS
 10
651.91599795613934
 20
4691.0194387702431
 30
0.0
  0
VERTEX
  5
3AA
  8
RIVERS
 10
652.13784514517033
 20
4690.9067276286514
 30
0.0
  0
VERTEX
  5
3AB
  8
RIVERS
 10
652.36008493330655
 20
4690.7149136064727
 30
0.0
  0
VERTEX
  5
3AC
  8
RIVERS
 10
652.50660169167213
 20
4690.6044414142998
 30
0.0
  0
VERTEX
  5
3AD
  8
RIVERS
 10
652.59151073585485
 20
4690.4505621232602
 30
0.0
  0
VERTEX
  5
3AE
  8
RIVERS
 10
652.61839444128213
 20
4690.3208783361297
 30
0.0
  0
VERTEX
  5
3AF
  8
RIVERS
 10
652.79202622806804
 20
4690.113203622499
 30
0.0
  0
VERTEX
  5
3B0
  8
RIVERS
 10
653.06952897774136
 20
4689.893102387673
 30
0.0
  0
VERTEX
  5
3B1
  8
RIVERS
 10
653.27331627497892
 20
4689.7604636462474
 30
0.0
  0
VERTEX
  5
3B2
  8
RIVERS
 10
653.45021883061872
 20
4689.6309664549417
 30
0.0
  0
VERTEX
  5
3B3
  8
RIVERS
 10
653.72906870380677
 20
4689.5079060335283
 30
0.0
  0
VERTEX
  5
3B4
  8
RIVERS
 10
653.99052373763914
 20
4689.466090257145
 30
0.0
  0
VERTEX
  5
3B5
  8
RIVERS
 10
654.17747398981987
 20
4689.4427912154106
 30
0.0
  0
VERTEX
  5
3B6
  8
RIVERS
 10
654.32442811900944
 20
4689.4861183374587
 30
0.0
  0
VERTEX
  5
3B7
  8
RIVERS
 10
654.46631261436892
 20
4689.5280393908097
 30
0.0
  0
VERTEX
  5
3B8
  8
RIVERS
 10
654.59429639911923
 20
4689.5644992990728
 30
0.0
  0
VERTEX
  5
3B9
  8
RIVERS
 10
654.72767292373442
 20
4689.5398299679318
 30
0.0
  0
VERTEX
  5
3BA
  8
RIVERS
 10
654.87808540238404
 20
4689.4479472061212
 30
0.0
  0
VERTEX
  5
3BB
  8
RIVERS
 10
654.988691206976
 20
4689.315477901082
 30
0.0
  0
VERTEX
  5
3BC
  8
RIVERS
 10
655.11156327191372
 20
4689.2024683295567
 30
0.0
  0
VERTEX
  5
3BD
  8
RIVERS
 10
655.25873947597506
 20
4689.1373071796543
 30
0.0
  0
VERTEX
  5
3BE
  8
RIVERS
 10
655.46773321749185
 20
4689.1005315645107
 30
0.0
  0
VERTEX
  5
3BF
  8
RIVERS
 10
655.57173912250175
 20
4689.0763874017302
 30
0.0
  0
VERTEX
  5
3C0
  8
RIVERS
 10
655.66068360288978
 20
4689.0
 30
0.0
  0
VERTEX
  5
3C1
  8
RIVERS
 10
655.7056245191668
 20
4688.9729051322838
 30
0.0
  0
VERTEX
  5
3C2
  8
RIVERS
 10
655.79644032165595
 20
4688.9091957572391
 30
0.0
  0
VERTEX
  5
3C3
  8
RIVERS
 10
655.90676052439301
 20
4688.8469992902519
 30
0.0
  0
VERTEX
  5
3C4
  8
RIVERS
 10
656.03283842174244
 20
4688.7795614724273
 30
0.0
  0
VERTEX
  5
3C5
  8
RIVERS
 10
656.16868005365041
 20
4688.6948751596001
 30
0.0
  0
VERTEX
  5
3C6
  8
RIVERS
 10
656.26024173693622
 20
4688.6379181210432
 30
0.0
  0
VERTEX
  5
3C7
  8
RIVERS
 10
656.35330142963414
 20
4688.5847130747379
 30
0.0
  0
VERTEX
  5
3C8
  8
RIVERS
 10
656.42760019987372
 20
4688.5404984879124
 30
0.0
  0
VERTEX
  5
3C9
  8
RIVERS
 10
656.52216703341105
 20
4688.4767915158754
 30
0.0
  0
VERTEX
  5
3CA
  8
RIVERS
 10
656.61073173666978
 20
4688.413830905236
 30
0.0
  0
VERTEX
  5
3CB
  8
RIVERS
 10
656.7262976156569
 20
4688.3606402769738
 30
0.0
  0
VERTEX
  5
3CC
  8
RIVERS
 10
656.8381042933712
 20
4688.3202007512691
 30
0.0
  0
VERTEX
  5
3CD
  8
RIVERS
 10
656.91990031969272
 20
4688.2834930325553
 30
0.0
  0
VERTEX
  5
3CE
  8
RIVERS
 10
657.06474779032635
 20
4688.1935610434766
 30
0.0
  0
VERTEX
  5
3CF
  8
RIVERS
 10
657.21484862683349
 20
4688.1006315937721
 30
0.0
  0
VERTEX
  5
3D0
  8
RIVERS
 10
657.33116375082727
 20
4688.0489418585312
 30
0.0
  0
VERTEX
  5
3D1
  8
RIVERS
 10
657.4700033239651
 20
4687.9687587053659
 30
0.0
  0
VERTEX
  5
3D2
  8
RIVERS
 10
657.60809557450204
 20
4687.8840738343433
 30
0.0
  0
VERTEX
  5
3D3
  8
RIVERS
 10
657.7169100782038
 20
4687.830128674459
 30
0.0
  0
VERTEX
  5
3D4
  8
RIVERS
 10
657.8384901025056
 20
4687.7574365295577
 30
0.0
  0
VERTEX
  5
3D5
  8
RIVERS
 10
657.97956155081602
 20
4687.7065128603754
 30
0.0
  0
VERTEX
  5
3D6
  8
RIVERS
 10
658.07938655624105
 20
4687.6323063656127
 30
0.0
  0
VERTEX
  5
3D7
  8
RIVERS
 10
658.17247124021412
 20
4687.540090596407
 30
0.0
  0
VERTEX
  5
3D8
  8
RIVERS
 10
658.24751781365615
 20
4687.4996275212297
 30
0.0
  0
VERTEX
  5
3D9
  8
RIVERS
 10
658.36908870653042
 20
4687.4411892943144
 30
0.0
  0
VERTEX
  5
3DA
  8
RIVERS
 10
658.48469159182866
 20
4687.3302327879101
 30
0.0
  0
VERTEX
  5
3DB
  8
RIVERS
 10
658.57175732447263
 20
4687.2650205974387
 30
0.0
  0
VERTEX
  5
3DC
  8
RIVERS
 10
658.66633617304615
 20
4687.1825584701601
 30
0.0
  0
VERTEX
  5
3DD
  8
RIVERS
 10
658.73545559003514
 20
4687.0258095876789
 30
0.0
  0
VERTEX
  5
3DE
  8
RIVERS
 10
658.8113230180993
 20
4686.875066680288
 30
0.0
  0
VERTEX
  5
3DF
  8
RIVERS
 10
658.93522575124689
 20
4686.6898450457447
 30
0.0
  0
VERTEX
  5
3E0
  8
RIVERS
 10
658.95698413433354
 20
4686.6861079521404
 30
0.0
  0
VERTEX
  5
3E1
  8
RIVERS
 10
659.08159045535047
 20
4686.5736568005332
 30
0.0
  0
VERTEX
  5
3E2
  8
RIVERS
 10
659.19191402229751
 20
4686.5062088900786
 30
0.0
  0
VERTEX
  5
3E3
  8
RIVERS
 10
659.29922667177561
 20
4686.454513387619
 30
0.0
  0
VERTEX
  5
3E4
  8
RIVERS
 10
659.38254233457428
 20
4686.3877983817229
 30
0.0
  0
VERTEX
  5
3E5
  8
RIVERS
 10
659.47410401785999
 20
4686.330841343166
 30
0.0
  0
VERTEX
  5
3E6
  8
RIVERS
 10
659.52815683246831
 20
4686.2716096559088
 30
0.0
  0
VERTEX
  5
3E7
  8
RIVERS
 10
659.58672962779076
 20
4686.1831228100837
 30
0.0
  0
VERTEX
  5
3E8
  8
RIVERS
 10
659.57927850944748
 20
4686.1035961458483
 30
0.0
  0
VERTEX
  5
3E9
  8
RIVERS
 10
659.54781310277292
 20
4686.0360574017213
 30
0.0
  0
VERTEX
  5
3EA
  8
RIVERS
 10
659.51036286747171
 20
4685.9422575954432
 30
0.0
  0
VERTEX
  5
3EB
  8
RIVERS
 10
659.50441456455508
 20
4685.8589808613606
 30
0.0
  0
VERTEX
  5
3EC
  8
RIVERS
 10
659.51873672794352
 20
4685.7524607110208
 30
0.0
  0
VERTEX
  5
3ED
  8
RIVERS
 10
659.55181789138453
 20
4685.6399509260382
 30
0.0
  0
VERTEX
  5
3EE
  8
RIVERS
 10
659.63814879706513
 20
4685.5507316562571
 30
0.0
  0
VERTEX
  5
3EF
  8
RIVERS
 10
659.72223725434128
 20
4685.4487574391078
 30
0.0
  0
VERTEX
  5
3F0
  8
RIVERS
 10
659.79429309557509
 20
4685.3925381111239
 30
0.0
  0
VERTEX
  5
3F1
  8
RIVERS
 10
659.85061383046423
 20
4685.3063004421238
 30
0.0
  0
VERTEX
  5
3F2
  8
RIVERS
 10
659.90167158745123
 20
4685.2380643579454
 30
0.0
  0
VERTEX
  5
3F3
  8
RIVERS
 10
659.97524706516208
 20
4685.1518377427792
 30
0.0
  0
VERTEX
  5
3F4
  8
RIVERS
 10
660.04432034441231
 20
4685.0671086564216
 30
0.0
  0
VERTEX
  5
3F5
  8
RIVERS
 10
660.11713840689185
 20
4684.9921346537994
 30
0.0
  0
VERTEX
  5
3F6
  8
RIVERS
 10
660.17494994217134
 20
4684.9209020701946
 30
0.0
  0
VERTEX
  5
3F7
  8
RIVERS
 10
660.23349438200853
 20
4684.8766773907391
 30
0.0
  0
VERTEX
  5
3F8
  8
RIVERS
 10
660.28225249901914
 20
4684.8849608981391
 30
0.0
  0
VERTEX
  5
3F9
  8
RIVERS
 10
660.33325114202819
 20
4684.9090001777458
 30
0.0
  0
VERTEX
  5
3FA
  8
RIVERS
 10
660.37149291526339
 20
4684.9382827305953
 30
0.0
  0
VERTEX
  5
3FB
  8
RIVERS
 10
660.42021594836854
 20
4685.0013312912988
 30
0.0
  0
VERTEX
  5
3FC
  8
RIVERS
 10
660.47495793280279
 20
4685.037376273267
 30
0.0
  0
VERTEX
  5
3FD
  8
RIVERS
 10
660.55523528385004
 20
4685.0291754293157
 30
0.0
  0
VERTEX
  5
3FE
  8
RIVERS
 10
660.62578686785298
 20
4684.978956789806
 30
0.0
  0
VERTEX
  5
3FF
  8
RIVERS
 10
660.70762374529727
 20
4684.8784815432718
 30
0.0
  0
VERTEX
  5
400
  8
RIVERS
 10
660.72487427646433
 20
4684.7605081253732
 30
0.0
  0
SEQEND
  5
401
  8
RIVERS
  0
POLYLINE
  5
84
  8
RIVERS
 66
     1
 10
0.0
 20
0.0
 30
0.0
  0
VERTEX
  5
402
  8
RIVERS
 10
629.22437797726843
 20
4664.6053548677228
 30
0.0
  0
VERTEX
  5
403
  8
RIVERS
 10
629.13116022586291
 20
4664.5298994191971
 30
0.0
  0
VERTEX
  5
404
  8
RIVERS
 10
629.00551275595865
 20
4664.415361502749
 30
0.0
  0
VERTEX
  5
405
  8
RIVERS
 10
628.93058909149215
 20
4664.2983292922563
 30
0.0
  0
VERTEX
  5
406
  8
RIVERS
 10
628.86453989234565
 20
4664.1888383227488
 30
0.0
  0
VERTEX
  5
407
  8
RIVERS
 10
628.77463416943385
 20
4664.0791178137479
 30
0.0
  0
VERTEX
  5
408
  8
RIVERS
 10
628.72319402705432
 20
4664.001081993867
 30
0.0
  0
VERTEX
  5
409
  8
RIVERS
 10
628.61080804336564
 20
4663.9030745534728
 30
0.0
  0
VERTEX
  5
40A
  8
RIVERS
 10
628.50401318893967
 20
4663.84389134907
 30
0.0
  0
VERTEX
  5
40B
  8
RIVERS
 10
628.44504615179153
 20
4663.7732389617731
 30
0.0
  0
VERTEX
  5
40C
  8
RIVERS
 10
628.38659557850565
 20
4663.6489093960063
 30
0.0
  0
VERTEX
  5
40D
  8
RIVERS
 10
628.24437459389208
 20
4663.5521060639794
 30
0.0
  0
VERTEX
  5
40E
  8
RIVERS
 10
628.21961523234575
 20
4663.4907298361186
 30
0.0
  0
VERTEX
  5
40F
  8
RIVERS
 10
628.18609617522679
 20
4663.4098841053874
 30
0.0
  0
VERTEX
  5
410
  8
RIVERS
 10
628.02539460283504
 20
4663.3740409608881
 30
0.0
  0
VERTEX
  5
411
  8
RIVERS
 10
627.88837739958763
 20
4663.3563197487056
 30
0.0
  0
VERTEX
  5
412
  8
RIVERS
 10
627.77695163855344
 20
4663.313494865738
 30
0.0
  0
VERTEX
  5
413
  8
RIVERS
 10
627.70585549246505
 20
4663.2636021669887
 30
0.0
  0
VERTEX
  5
414
  8
RIVERS
 10
627.63438634469833
 20
4663.2524763193587
 30
0.0
  0
VERTEX
  5
415
  8
RIVERS
 10
627.63057317253856
 20
4663.183845774879
 30
0.0
  0
VERTEX
  5
416
  8
RIVERS
 10
627.61398628558902
 20
4663.0479896413426
 30
0.0
  0
VERTEX
  5
417
  8
RIVERS
 10
627.57590805295365
 20
4662.9760470683696
 30
0.0
  0
VERTEX
  5
418
  8
RIVERS
 10
627.49850346668245
 20
4662.9618817703949
 30
0.0
  0
VERTEX
  5
419
  8
RIVERS
 10
627.37897696214372
 20
4662.9860816294231
 30
0.0
  0
VERTEX
  5
41A
  8
RIVERS
 10
627.28641816280651
 20
4662.9971204257663
 30
0.0
  0
VERTEX
  5
41B
  8
RIVERS
 10
627.24633243357334
 20
4662.9788406850439
 30
0.0
  0
VERTEX
  5
41C
  8
RIVERS
 10
627.15886361983326
 20
4662.9258081124217
 30
0.0
  0
VERTEX
  5
41D
  8
RIVERS
 10
627.06608962721998
 20
4662.9592123997936
 30
0.0
  0
VERTEX
  5
41E
  8
RIVERS
 10
626.93776038845328
 20
4662.9684158541586
 30
0.0
  0
VERTEX
  5
41F
  8
RIVERS
 10
626.83053514747564
 20
4662.9539636318159
 30
0.0
  0
VERTEX
  5
420
  8
RIVERS
 10
626.77892285047528
 20
4662.8938202047602
 30
0.0
  0
VERTEX
  5
421
  8
RIVERS
 10
626.75258637888339
 20
4662.8413758270926
 30
0.0
  0
VERTEX
  5
422
  8
RIVERS
 10
626.68313907393258
 20
4662.7750961144739
 30
0.0
  0
VERTEX
  5
423
  8
RIVERS
 10
626.60199304659375
 20
4662.6848451083424
 30
0.0
  0
VERTEX
  5
424
  8
RIVERS
 10
626.47690410522875
 20
4662.6672386659093
 30
0.0
  0
VERTEX
  5
425
  8
RIVERS
 10
626.33541380377551
 20
4662.6494744150723
 30
0.0
  0
VERTEX
  5
426
  8
RIVERS
 10
626.23855406085295
 20
4662.6425777799341
 30
0.0
  0
VERTEX
  5
427
  8
RIVERS
 10
626.16877679287904
 20
4662.6105918202284
 30
0.0
  0
VERTEX
  5
428
  8
RIVERS
 10
626.12450488980812
 20
4662.5624483861457
 30
0.0
  0
VERTEX
  5
429
  8
RIVERS
 10
625.99287894274414
 20
4662.4493441175591
 30
0.0
  0
VERTEX
  5
42A
  8
RIVERS
 10
625.89795496532736
 20
4662.3962398138456
 30
0.0
  0
VERTEX
  5
42B
  8
RIVERS
 10
625.80721716174855
 20
4662.3729992034932
 30
0.0
  0
VERTEX
  5
42C
  8
RIVERS
 10
625.68205648929165
 20
4662.3628479247354
 30
0.0
  0
VERTEX
  5
42D
  8
RIVERS
 10
625.56582766702843
 20
4662.3542737560228
 30
0.0
  0
VERTEX
  5
42E
  8
RIVERS
 10
625.43949157864097
 20
4662.3113054108699
 30
0.0
  0
VERTEX
  5
42F
  8
RIVERS
 10
625.30899800885243
 20
4662.2354913068857
 30
0.0
  0
VERTEX
  5
430
  8
RIVERS
 10
625.25580860180617
 20
4662.1842797300233
 30
0.0
  0
VERTEX
  5
431
  8
RIVERS
 10
625.12720775886805
 20
4662.0667310556664
 30
0.0
  0
VERTEX
  5
432
  8
RIVERS
 10
625.05163851457382
 20
4662.0167953182627
 30
0.0
  0
VERTEX
  5
433
  8
RIVERS
 10
625.00000000000023
 20
4661.9975670761442
 30
0.0
  0
SEQEND
  5
434
  8
RIVERS
  0
POLYLINE
  5
85
  8
RIVERS
 66
     1
 10
0.0
 20
0.0
 30
0.0
  0
VERTEX
  5
435
  8
RIVERS
 10
639.82001959292563
 20
4668.5440849791094
 30
0.0
  0
VERTEX
  5
436
  8
RIVERS
 10
639.859288561688
 20
4668.4922718350508
 30
0.0
  0
VERTEX
  5
437
  8
RIVERS
 10
639.86906683876703
 20
4668.4058780137138
 30
0.0
  0
VERTEX
  5
438
  8
RIVERS
 10
639.82277406685807
 20
4668.2578066939277
 30
0.0
  0
VERTEX
  5
439
  8
RIVERS
 10
639.78215850152253
 20
4668.1396134137221
 30
0.0
  0
VERTEX
  5
43A
  8
RIVERS
 10
639.73003071463779
 20
4667.9780654144442
 30
0.0
  0
VERTEX
  5
43B
  8
RIVERS
 10
639.68940080308391
 20
4667.8613631669741
 30
0.0
  0
VERTEX
  5
43C
  8
RIVERS
 10
639.65469198381595
 20
4667.7491914025832
 30
0.0
  0
VERTEX
  5
43D
  8
RIVERS
 10
639.56996232381175
 20
4667.566453328207
 30
0.0
  0
VERTEX
  5
43E
  8
RIVERS
 10
639.48167674960098
 20
4667.4433278708048
 30
0.0
  0
VERTEX
  5
43F
  8
RIVERS
 10
639.41842311508594
 20
4667.3532490192947
 30
0.0
  0
VERTEX
  5
440
  8
RIVERS
 10
639.34180757082663
 20
4667.2570769208778
 30
0.0
  0
VERTEX
  5
441
  8
RIVERS
 10
639.29061131415972
 20
4667.1536935444974
 30
0.0
  0
VERTEX
  5
442
  8
RIVERS
 10
639.29577303084875
 20
4667.0821670118567
 30
0.0
  0
VERTEX
  5
443
  8
RIVERS
 10
639.32037555797058
 20
4667.004862849114
 30
0.0
  0
VERTEX
  5
444
  8
RIVERS
 10
639.26629765936195
 20
4666.8910135511487
 30
0.0
  0
VERTEX
  5
445
  8
RIVERS
 10
639.21224845319011
 20
4666.7741821877134
 30
0.0
  0
VERTEX
  5
446
  8
RIVERS
 10
639.1462996775723
 20
4666.6542539890588
 30
0.0
  0
VERTEX
  5
447
  8
RIVERS
 10
639.17481677436081
 20
4666.4800613909556
 30
0.0
  0
VERTEX
  5
448
  8
RIVERS
 10
639.12284679587844
 20
4666.3021120315907
 30
0.0
  0
VERTEX
  5
449
  8
RIVERS
 10
639.09544967810325
 20
4666.2049223256454
 30
0.0
  0
VERTEX
  5
44A
  8
RIVERS
 10
639.06207408316823
 20
4666.1091662675617
 30
0.0
  0
VERTEX
  5
44B
  8
RIVERS
 10
639.02422539002725
 20
4666.0133671708227
 30
0.0
  0
VERTEX
  5
44C
  8
RIVERS
 10
639.01476370373121
 20
4665.9118765212907
 30
0.0
  0
VERTEX
  5
44D
  8
RIVERS
 10
639.01417648275492
 20
4665.8179271127474
 30
0.0
  0
VERTEX
  5
44E
  8
RIVERS
 10
638.99604117819626
 20
4665.6880207639351
 30
0.0
  0
VERTEX
  5
44F
  8
RIVERS
 10
638.94926063486184
 20
4665.5906445571509
 30
0.0
  0
VERTEX
  5
450
  8
RIVERS
 10
638.88686679947261
 20
4665.5661854922118
 30
0.0
  0
VERTEX
  5
451
  8
RIVERS
 10
638.83797833601159
 20
4665.5329093468281
 30
0.0
  0
VERTEX
  5
452
  8
RIVERS
 10
638.74563472995044
 20
4665.5215826521398
 30
0.0
  0
VERTEX
  5
453
  8
RIVERS
 10
638.64848806266002
 20
4665.5445066717093
 30
0.0
  0
VERTEX
  5
454
  8
RIVERS
 10
638.53210143199419
 20
4665.5523338630856
 30
0.0
  0
VERTEX
  5
455
  8
RIVERS
 10
638.42371512130444
 20
4665.5035735416132
 30
0.0
  0
VERTEX
  5
456
  8
RIVERS
 10
638.34216739985015
 20
4665.455071452071
 30
0.0
  0
VERTEX
  5
457
  8
RIVERS
 10
638.28463401056365
 20
4665.3903975419344
 30
0.0
  0
VERTEX
  5
458
  8
RIVERS
 10
638.25709343060453
 20
4665.3081181633424
 30
0.0
  0
VERTEX
  5
459
  8
RIVERS
 10
638.16770417155521
 20
4665.1447204758688
 30
0.0
  0
VERTEX
  5
45A
  8
RIVERS
 10
638.13880167482625
 20
4665.0490074564404
 30
0.0
  0
VERTEX
  5
45B
  8
RIVERS
 10
638.056207653407
 20
4664.9542690058843
 30
0.0
  0
VERTEX
  5
45C
  8
RIVERS
 10
637.95833030295648
 20
4664.898153944263
 30
0.0
  0
VERTEX
  5
45D
  8
RIVERS
 10
637.83646731277508
 20
4664.8552286377662
 30
0.0
  0
VERTEX
  5
45E
  8
RIVERS
 10
637.76236040877916
 20
4664.8082893120509
 30
0.0
  0
VERTEX
  5
45F
  8
RIVERS
 10
637.71856193091537
 20
4664.7109417977026
 30
0.0
  0
VERTEX
  5
460
  8
RIVERS
 10
637.68824013254289
 20
4664.6077592683787
 30
0.0
  0
VERTEX
  5
461
  8
RIVERS
 10
637.61690107471986
 20
4664.4281323754376
 30
0.0
  0
VERTEX
  5
462
  8
RIVERS
 10
637.5834394024746
 20
4664.3413225137656
 30
0.0
  0
VERTEX
  5
463
  8
RIVERS
 10
637.53237226177339
 20
4664.2245198427672
 30
0.0
  0
VERTEX
  5
464
  8
RIVERS
 10
637.43806517174755
 20
4664.1073011314338
 30
0.0
  0
VERTEX
  5
465
  8
RIVERS
 10
637.36612357275169
 20
4663.9902976133781
 30
0.0
  0
VERTEX
  5
466
  8
RIVERS
 10
637.31055464140786
 20
4663.8764339691943
 30
0.0
  0
VERTEX
  5
467
  8
RIVERS
 10
637.25958792423535
 20
4663.7491940690479
 30
0.0
  0
VERTEX
  5
468
  8
RIVERS
 10
637.2512586152144
 20
4663.6849935841183
 30
0.0
  0
VERTEX
  5
469
  8
RIVERS
 10
637.25948847468464
 20
4663.6045495475018
 30
0.0
  0
VERTEX
  5
46A
  8
RIVERS
 10
637.252607159744
 20
4663.5448365069969
 30
0.0
  0
VERTEX
  5
46B
  8
RIVERS
 10
637.19365446881397
 20
4663.4726930869656
 30
0.0
  0
VERTEX
  5
46C
  8
RIVERS
 10
637.12713184446045
 20
4663.4124061977254
 30
0.0
  0
VERTEX
  5
46D
  8
RIVERS
 10
637.04307548274278
 20
4663.3146713354809
 30
0.0
  0
VERTEX
  5
46E
  8
RIVERS
 10
636.98760697492764
 20
4663.19037046215
 30
0.0
  0
VERTEX
  5
46F
  8
RIVERS
 10
636.97962197514835
 20
4663.0903851915718
 30
0.0
  0
VERTEX
  5
470
  8
RIVERS
 10
636.98808137411277
 20
4662.9860846311913
 30
0.0
  0
VERTEX
  5
471
  8
RIVERS
 10
636.97370185684031
 20
4662.9307729578022
 30
0.0
  0
VERTEX
  5
472
  8
RIVERS
 10
637.0234377211649
 20
4662.7209964211088
 30
0.0
  0
VERTEX
  5
473
  8
RIVERS
 10
637.01956813810978
 20
4662.5032482568777
 30
0.0
  0
VERTEX
  5
474
  8
RIVERS
 10
637.02557628168427
 20
4662.3437507928529
 30
0.0
  0
VERTEX
  5
475
  8
RIVERS
 10
637.024301416203
 20
4662.1662892049144
 30
0.0
  0
VERTEX
  5
476
  8
RIVERS
 10
637.02286874231936
 20
4662.0052289770611
 30
0.0
  0
VERTEX
  5
477
  8
RIVERS
 10
637.00919218974843
 20
4661.8768566996387
 30
0.0
  0
VERTEX
  5
478
  8
RIVERS
 10
636.99273441876437
 20
4661.7275812714861
 30
0.0
  0
VERTEX
  5
479
  8
RIVERS
 10
636.96278562207044
 20
4661.5856318910437
 30
0.0
  0
VERTEX
  5
47A
  8
RIVERS
 10
636.96218405487582
 20
4661.4931735152359
 30
0.0
  0
VERTEX
  5
47B
  8
RIVERS
 10
636.98132554267841
 20
4661.2085440711908
 30
0.0
  0
VERTEX
  5
47C
  8
RIVERS
 10
636.98396427288549
 20
4661.089275798583
 30
0.0
  0
VERTEX
  5
47D
  8
RIVERS
 10
637.08436558379628
 20
4661.0380508494791
 30
0.0
  0
VERTEX
  5
47E
  8
RIVERS
 10
637.13668181947617
 20
4660.8700519218137
 30
0.0
  0
VERTEX
  5
47F
  8
RIVERS
 10
637.1406537740163
 20
4660.7671993555132
 30
0.0
  0
VERTEX
  5
480
  8
RIVERS
 10
637.1491275191994
 20
4660.6614077623972
 30
0.0
  0
VERTEX
  5
481
  8
RIVERS
 10
637.17899218653906
 20
4660.5021398378667
 30
0.0
  0
VERTEX
  5
482
  8
RIVERS
 10
637.23087803566716
 20
4660.3788718922624
 30
0.0
  0
VERTEX
  5
483
  8
RIVERS
 10
637.28393930072582
 20
4660.2884210130496
 30
0.0
  0
VERTEX
  5
484
  8
RIVERS
 10
637.31323011932955
 20
4660.1887943979318
 30
0.0
  0
VERTEX
  5
485
  8
RIVERS
 10
637.33085090798215
 20
4660.0622144238341
 30
0.0
  0
VERTEX
  5
486
  8
RIVERS
 10
637.35225630750767
 20
4660.0
 30
0.0
  0
SEQEND
  5
487
  8
RIVERS
  0
POLYLINE
  5
86
  8
RIVERS
 66
     1
 10
0.0
 20
0.0
 30
0.0
  0
VERTEX
  5
488
  8
RIVERS
 10
629.22437797726843
 20
4664.6053548677228
 30
0.0
  0
VERTEX
  5
489
  8
RIVERS
 10
629.04664318140544
 20
4664.6407642752074
 30
0.0
  0
VERTEX
  5
48A
  8
RIVERS
 10
628.79002479828648
 20
4664.6560180305523
 30
0.0
  0
VERTEX
  5
48B
  8
RIVERS
 10
628.54986084537825
 20
4664.6687472997219
 30
0.0
  0
VERTEX
  5
48C
  8
RIVERS
 10
628.40004409727896
 20
4664.7539797040508
 30
0.0
  0
VERTEX
  5
48D
  8
RIVERS
 10
628.22498238151343
 20
4664.9442704631283
 30
0.0
  0
VERTEX
  5
48E
  8
RIVERS
 10
628.16253607494832
 20
4665.1019237704168
 30
0.0
  0
VERTEX
  5
48F
  8
RIVERS
 10
628.01799028376445
 20
4665.3198688370676
 30
0.0
  0
VERTEX
  5
490
  8
RIVERS
 10
627.88570518651204
 20
4665.417501687697
 30
0.0
  0
VERTEX
  5
491
  8
RIVERS
 10
627.76206256638295
 20
4665.525799906387
 30
0.0
  0
VERTEX
  5
492
  8
RIVERS
 10
627.66190512364994
 20
4665.6466630357781
 30
0.0
  0
VERTEX
  5
493
  8
RIVERS
 10
627.54743948994508
 20
4665.7462776612447
 30
0.0
  0
VERTEX
  5
494
  8
RIVERS
 10
627.39783652438018
 20
4665.8776910124316
 30
0.0
  0
VERTEX
  5
495
  8
RIVERS
 10
627.30767839007365
 20
4665.9601029158521
 30
0.0
  0
VERTEX
  5
496
  8
RIVERS
 10
627.26117671645011
 20
4666.0258466065288
 30
0.0
  0
VERTEX
  5
497
  8
RIVERS
 10
627.21744622560072
 20
4666.0991144375912
 30
0.0
  0
VERTEX
  5
498
  8
RIVERS
 10
627.16366710819102
 20
4666.1586990212181
 30
0.0
  0
VERTEX
  5
499
  8
RIVERS
 10
627.01806880840309
 20
4666.252985063672
 30
0.0
  0
VERTEX
  5
49A
  8
RIVERS
 10
626.94548344104351
 20
4666.3463090317546
 30
0.0
  0
VERTEX
  5
49B
  8
RIVERS
 10
626.85032565252357
 20
4666.4479465481618
 30
0.0
  0
VERTEX
  5
49C
  8
RIVERS
 10
626.73743063265636
 20
4666.5446255264542
 30
0.0
  0
VERTEX
  5
49D
  8
RIVERS
 10
626.62610622662658
 20
4666.6383688575715
 30
0.0
  0
VERTEX
  5
49E
  8
RIVERS
 10
626.46282001362522
 20
4666.7798308353194
 30
0.0
  0
VERTEX
  5
49F
  8
RIVERS
 10
626.3584030064809
 20
4666.8931287082232
 30
0.0
  0
VERTEX
  5
4A0
  8
RIVERS
 10
626.22954694960413
 20
4666.9744715930419
 30
0.0
  0
VERTEX
  5
4A1
  8
RIVERS
 10
626.02950347277101
 20
4667.0985334702764
 30
0.0
  0
VERTEX
  5
4A2
  8
RIVERS
 10
625.88319799724741
 20
4667.1644991455196
 30
0.0
  0
VERTEX
  5
4A3
  8
RIVERS
 10
625.70650814747626
 20
4667.2519682233224
 30
0.0
  0
VERTEX
  5
4A4
  8
RIVERS
 10
625.54688946941724
 20
4667.3145870903909
 30
0.0
  0
VERTEX
  5
4A5
  8
RIVERS
 10
625.41025437351925
 20
4667.3540085927661
 30
0.0
  0
VERTEX
  5
4A6
  8
RIVERS
 10
625.22376259378825
 20
4667.4188641333058
 30
0.0
  0
VERTEX
  5
4A7
  8
RIVERS
 10
625.01654861740144
 20
4667.4250560484916
 30
0.0
  0
VERTEX
  5
4A8
  8
RIVERS
 10
625.0
 20
4667.4241468869659
 30
0.0
  0
SEQEND
  5
4A9
  8
RIVERS
  0
POLYLINE
  5
87
  8
RIVERS
 66
     1
 10
0.0
 20
0.0
 30
0.0
  0
VERTEX
  5
4AA
  8
RIVERS
 10
639.82001959292563
 20
4668.5440849791094
 30
0.0
  0
VERTEX
  5
4AB
  8
RIVERS
 10
639.76214189439759
 20
4668.5151958546212
 30
0.0
  0
VERTEX
  5
4AC
  8
RIVERS
 10
639.6845794997239
 20
4668.5174319167354
 30
0.0
  0
VERTEX
  5
4AD
  8
RIVERS
 10
639.61300992842837
 20
4668.5167432982507
 30
0.0
  0
VERTEX
  5
4AE
  8
RIVERS
 10
639.54032232607585
 20
4668.4772734824319
 30
0.0
  0
VERTEX
  5
4AF
  8
RIVERS
 10
639.49774230279775
 20
4668.4082699362734
 30
0.0
  0
VERTEX
  5
4B0
  8
RIVERS
 10
639.4787175326984
 20
4668.3708076170506
 30
0.0
  0
VERTEX
  5
4B1
  8
RIVERS
 10
639.42073941064154
 20
4668.3523557217086
 30
0.0
  0
VERTEX
  5
4B2
  8
RIVERS
 10
639.38213036792547
 20
4668.3355813599428
 30
0.0
  0
VERTEX
  5
4B3
  8
RIVERS
 10
639.32277598288056
 20
4668.3051868565008
 30
0.0
  0
VERTEX
  5
4B4
  8
RIVERS
 10
639.27718520169515
 20
4668.2391366833763
 30
0.0
  0
VERTEX
  5
4B5
  8
RIVERS
 10
639.22844020041816
 20
4668.1909502106391
 30
0.0
  0
VERTEX
  5
4B6
  8
RIVERS
 10
639.21540825369686
 20
4668.1505632108192
 30
0.0
  0
VERTEX
  5
4B7
  8
RIVERS
 10
639.18887093504748
 20
4668.1189932914458
 30
0.0
  0
VERTEX
  5
4B8
  8
RIVERS
 10
639.10690717325986
 20
4668.1137311512293
 30
0.0
  0
VERTEX
  5
4B9
  8
RIVERS
 10
638.99516579542103
 20
4668.1037089884367
 30
0.0
  0
VERTEX
  5
4BA
  8
RIVERS
 10
638.93573967928387
 20
4668.08076964867
 30
0.0
  0
VERTEX
  5
4BB
  8
RIVERS
 10
638.90177588939457
 20
4668.0461459327353
 30
0.0
  0
VERTEX
  5
4BC
  8
RIVERS
 10
638.86837160202299
 20
4667.9533719401206
 30
0.0
  0
VERTEX
  5
4BD
  8
RIVERS
 10
638.86292393494386
 20
4667.8996373767759
 30
0.0
  0
VERTEX
  5
4BE
  8
RIVERS
 10
638.86797088188575
 20
4667.8400391060177
 30
0.0
  0
VERTEX
  5
4BF
  8
RIVERS
 10
638.86249452237018
 20
4667.7892866081429
 30
0.0
  0
VERTEX
  5
4C0
  8
RIVERS
 10
638.84047334058187
 20
4667.7532866292204
 30
0.0
  0
VERTEX
  5
4C1
  8
RIVERS
 10
638.80798623720943
 20
4667.7201682922378
 30
0.0
  0
VERTEX
  5
4C2
  8
RIVERS
 10
638.75878215694377
 20
4667.7196948670307
 30
0.0
  0
VERTEX
  5
4C3
  8
RIVERS
 10
638.70370002304708
 20
4667.7102178605383
 30
0.0
  0
VERTEX
  5
4C4
  8
RIVERS
 10
638.66058918968827
 20
4667.6963825255871
 30
0.0
  0
VERTEX
  5
4C5
  8
RIVERS
 10
638.61750704876636
 20
4667.679565125165
 30
0.0
  0
VERTEX
  5
4C6
  8
RIVERS
 10
638.54319929771293
 20
4667.6535002577448
 30
0.0
  0
VERTEX
  5
4C7
  8
RIVERS
 10
638.48414618325421
 20
4667.5917940668596
 30
0.0
  0
VERTEX
  5
4C8
  8
RIVERS
 10
638.44568060272206
 20
4667.5601093777404
 30
0.0
  0
VERTEX
  5
4C9
  8
RIVERS
 10
638.40599656760435
 20
4667.5000807204297
 30
0.0
  0
VERTEX
  5
4CA
  8
RIVERS
 10
638.36770314169314
 20
4667.4505036384871
 30
0.0
  0
VERTEX
  5
4CB
  8
RIVERS
 10
638.32800476035686
 20
4667.3919660139109
 30
0.0
  0
VERTEX
  5
4CC
  8
RIVERS
 10
638.19657966035049
 20
4667.257987287031
 30
0.0
  0
VERTEX
  5
4CD
  8
RIVERS
 10
638.07093219044623
 20
4667.143449370581
 30
0.0
  0
VERTEX
  5
4CE
  8
RIVERS
 10
638.043032955027
 20
4667.0984458103731
 30
0.0
  0
VERTEX
  5
4CF
  8
RIVERS
 10
638.03308349730526
 20
4667.047650273842
 30
0.0
  0
VERTEX
  5
4D0
  8
RIVERS
 10
638.01732771704462
 20
4666.9803959923511
 30
0.0
  0
VERTEX
  5
4D1
  8
RIVERS
 10
638.0087688685295
 20
4666.9400520311874
 30
0.0
  0
VERTEX
  5
4D2
  8
RIVERS
 10
638.0019736308991
 20
4666.871392794269
 30
0.0
  0
VERTEX
  5
4D3
  8
RIVERS
 10
637.98772322959223
 20
4666.8026618262611
 30
0.0
  0
VERTEX
  5
4D4
  8
RIVERS
 10
637.94953022720972
 20
4666.7426475151697
 30
0.0
  0
VERTEX
  5
4D5
  8
RIVERS
 10
637.90217583513925
 20
4666.7049126177981
 30
0.0
  0
VERTEX
  5
4D6
  8
RIVERS
 10
637.83834835188827
 20
4666.6744750756998
 30
0.0
  0
VERTEX
  5
4D7
  8
RIVERS
 10
637.79688635966716
 20
4666.6442527268791
 30
0.0
  0
VERTEX
  5
4D8
  8
RIVERS
 10
637.77037773345455
 20
4666.6097007420349
 30
0.0
  0
VERTEX
  5
4D9
  8
RIVERS
 10
637.70979054760539
 20
4666.5524533031394
 30
0.0
  0
VERTEX
  5
4DA
  8
RIVERS
 10
637.65500968429524
 20
4666.5116646092029
 30
0.0
  0
VERTEX
  5
4DB
  8
RIVERS
 10
637.57896701479365
 20
4666.5109329520646
 30
0.0
  0
VERTEX
  5
4DC
  8
RIVERS
 10
637.4983508235573
 20
4666.5205954854191
 30
0.0
  0
VERTEX
  5
4DD
  8
RIVERS
 10
637.3670825579751
 20
4666.5252971491409
 30
0.0
  0
VERTEX
  5
4DE
  8
RIVERS
 10
637.2777927484766
 20
4666.5065439832142
 30
0.0
  0
VERTEX
  5
4DF
  8
RIVERS
 10
637.24384330480564
 20
4666.4704292345432
 30
0.0
  0
VERTEX
  5
4E0
  8
RIVERS
 10
637.19948532442436
 20
4666.4312319968731
 30
0.0
  0
VERTEX
  5
4E1
  8
RIVERS
 10
637.1803888232331
 20
4666.4012248413273
 30
0.0
  0
VERTEX
  5
4E2
  8
RIVERS
 10
637.15101290129678
 20
4666.3547159021637
 30
0.0
  0
VERTEX
  5
4E3
  8
RIVERS
 10
637.11874099120053
 20
4666.2992320741523
 30
0.0
  0
VERTEX
  5
4E4
  8
RIVERS
 10
637.06874884290107
 20
4666.2256836986962
 30
0.0
  0
VERTEX
  5
4E5
  8
RIVERS
 10
637.02003253406087
 20
4666.1745151604873
 30
0.0
  0
VERTEX
  5
4E6
  8
RIVERS
 10
636.96955261433584
 20
4666.1516618980322
 30
0.0
  0
VERTEX
  5
4E7
  8
RIVERS
 10
636.86404794558769
 20
4666.1133674981429
 30
0.0
  0
VERTEX
  5
4E8
  8
RIVERS
 10
636.80138153204905
 20
4666.1172380551761
 30
0.0
  0
VERTEX
  5
4E9
  8
RIVERS
 10
636.73828473195817
 20
4666.1658395942704
 30
0.0
  0
VERTEX
  5
4EA
  8
RIVERS
 10
636.72740277004061
 20
4666.2119611855351
 30
0.0
  0
VERTEX
  5
4EB
  8
RIVERS
 10
636.74196878815235
 20
4666.2478894333672
 30
0.0
  0
VERTEX
  5
4EC
  8
RIVERS
 10
636.70549538402145
 20
4666.3191146954214
 30
0.0
  0
VERTEX
  5
4ED
  8
RIVERS
 10
636.6585847507431
 20
4666.3902395339464
 30
0.0
  0
VERTEX
  5
4EE
  8
RIVERS
 10
636.60295746054749
 20
4666.4374217713948
 30
0.0
  0
VERTEX
  5
4EF
  8
RIVERS
 10
636.5594592792919
 20
4666.4638443202984
 30
0.0
  0
VERTEX
  5
4F0
  8
RIVERS
 10
636.52206869116162
 20
4666.4754139267206
 30
0.0
  0
VERTEX
  5
4F1
  8
RIVERS
 10
636.48036281322766
 20
4666.4705391343987
 30
0.0
  0
VERTEX
  5
4F2
  8
RIVERS
 10
636.44345999652296
 20
4666.4314136278208
 30
0.0
  0
VERTEX
  5
4F3
  8
RIVERS
 10
636.41408407458675
 20
4666.384904688658
 30
0.0
  0
VERTEX
  5
4F4
  8
RIVERS
 10
636.38658653328287
 20
4666.2981522118598
 30
0.0
  0
VERTEX
  5
4F5
  8
RIVERS
 10
636.381253635951
 20
4666.2324893866316
 30
0.0
  0
VERTEX
  5
4F6
  8
RIVERS
 10
636.38922526348995
 20
4666.1788839392511
 30
0.0
  0
VERTEX
  5
4F7
  8
RIVERS
 10
636.3850821283072
 20
4666.1445471476836
 30
0.0
  0
VERTEX
  5
4F8
  8
RIVERS
 10
636.33336940777804
 20
4666.0948409497742
 30
0.0
  0
VERTEX
  5
4F9
  8
RIVERS
 10
636.28426575104106
 20
4666.08393029542
 30
0.0
  0
VERTEX
  5
4FA
  8
RIVERS
 10
636.21560651412415
 20
4666.0907255330512
 30
0.0
  0
VERTEX
  5
4FB
  8
RIVERS
 10
636.14654558309212
 20
4666.1392696872699
 30
0.0
  0
VERTEX
  5
4FC
  8
RIVERS
 10
636.05291179135315
 20
4666.1070541880699
 30
0.0
  0
VERTEX
  5
4FD
  8
RIVERS
 10
635.98951469465408
 20
4666.0318856639124
 30
0.0
  0
VERTEX
  5
4FE
  8
RIVERS
 10
635.92438267950695
 20
4665.9820503500368
 30
0.0
  0
VERTEX
  5
4FF
  8
RIVERS
 10
635.86776647421982
 20
4665.9770320955322
 30
0.0
  0
VERTEX
  5
500
  8
RIVERS
 10
635.799035506211
 20
4665.9912824968387
 30
0.0
  0
VERTEX
  5
501
  8
RIVERS
 10
635.69160941817563
 20
4665.9977047327911
 30
0.0
  0
VERTEX
  5
502
  8
RIVERS
 10
635.60524428927386
 20
4665.9849443902413
 30
0.0
  0
VERTEX
  5
503
  8
RIVERS
 10
635.53976796488519
 20
4665.9708938620133
 30
0.0
  0
VERTEX
  5
504
  8
RIVERS
 10
635.50148888519243
 20
4665.9198257473336
 30
0.0
  0
VERTEX
  5
505
  8
RIVERS
 10
635.46339630633872
 20
4665.8493742070959
 30
0.0
  0
VERTEX
  5
506
  8
RIVERS
 10
635.43594180368984
 20
4665.7581486320914
 30
0.0
  0
VERTEX
  5
507
  8
RIVERS
 10
635.40851599347775
 20
4665.6639409916161
 30
0.0
  0
VERTEX
  5
508
  8
RIVERS
 10
635.32253821247298
 20
4665.6109227652132
 30
0.0
  0
VERTEX
  5
509
  8
RIVERS
 10
635.22857445771081
 20
4665.6130010189236
 30
0.0
  0
VERTEX
  5
50A
  8
RIVERS
 10
635.08255367317781
 20
4665.6011578603739
 30
0.0
  0
VERTEX
  5
50B
  8
RIVERS
 10
634.97084098777555
 20
4665.5881536321112
 30
0.0
  0
VERTEX
  5
50C
  8
RIVERS
 10
634.83537220213714
 20
4665.5644826352072
 30
0.0
  0
VERTEX
  5
50D
  8
RIVERS
 10
634.69412578639651
 20
4665.5213708278698
 30
0.0
  0
VERTEX
  5
50E
  8
RIVERS
 10
634.58097945313261
 20
4665.5023881224479
 30
0.0
  0
VERTEX
  5
50F
  8
RIVERS
 10
634.50125272743696
 20
4665.419606626212
 30
0.0
  0
VERTEX
  5
510
  8
RIVERS
 10
634.43497398879606
 20
4665.3339721804696
 30
0.0
  0
VERTEX
  5
511
  8
RIVERS
 10
634.37622214492387
 20
4665.240954302144
 30
0.0
  0
VERTEX
  5
512
  8
RIVERS
 10
634.30098286365273
 20
4665.1567248118281
 30
0.0
  0
VERTEX
  5
513
  8
RIVERS
 10
634.24754957089374
 20
4665.1308607914652
 30
0.0
  0
VERTEX
  5
514
  8
RIVERS
 10
634.15182220524673
 20
4665.1612543209294
 30
0.0
  0
VERTEX
  5
515
  8
RIVERS
 10
634.01598041792977
 20
4665.1763501751429
 30
0.0
  0
VERTEX
  5
516
  8
RIVERS
 10
633.89113536227774
 20
4665.1333961762093
 30
0.0
  0
VERTEX
  5
517
  8
RIVERS
 10
633.71361638946382
 20
4665.1406351726318
 30
0.0
  0
VERTEX
  5
518
  8
RIVERS
 10
633.5461616441188
 20
4665.186741443702
 30
0.0
  0
VERTEX
  5
519
  8
RIVERS
 10
633.37854909037128
 20
4665.24924907486
 30
0.0
  0
VERTEX
  5
51A
  8
RIVERS
 10
633.28295084068975
 20
4665.2662233097062
 30
0.0
  0
VERTEX
  5
51B
  8
RIVERS
 10
633.16533140922002
 20
4665.247197565629
 30
0.0
  0
VERTEX
  5
51C
  8
RIVERS
 10
633.09070804136161
 20
4665.2539354183864
 30
0.0
  0
VERTEX
  5
51D
  8
RIVERS
 10
633.01287306853851
 20
4665.284501102471
 30
0.0
  0
VERTEX
  5
51E
  8
RIVERS
 10
632.93641435870336
 20
4665.3270093946567
 30
0.0
  0
VERTEX
  5
51F
  8
RIVERS
 10
632.85684446743221
 20
4665.3829082890243
 30
0.0
  0
VERTEX
  5
520
  8
RIVERS
 10
632.77542488796553
 20
4665.4760686555564
 30
0.0
  0
VERTEX
  5
521
  8
RIVERS
 10
632.70326712171573
 20
4665.5365123792217
 30
0.0
  0
VERTEX
  5
522
  8
RIVERS
 10
632.64928867265758
 20
4665.5673076028006
 30
0.0
  0
VERTEX
  5
523
  8
RIVERS
 10
632.54481595765606
 20
4665.5767405966599
 30
0.0
  0
VERTEX
  5
524
  8
RIVERS
 10
632.48361188441595
 20
4665.5836075653824
 30
0.0
  0
VERTEX
  5
525
  8
RIVERS
 10
632.38553368690771
 20
4665.5483669620562
 30
0.0
  0
VERTEX
  5
526
  8
RIVERS
 10
632.24995013152193
 20
4665.5366242270329
 30
0.0
  0
VERTEX
  5
527
  8
RIVERS
 10
632.12156350788166
 20
4665.5517918123396
 30
0.0
  0
VERTEX
  5
528
  8
RIVERS
 10
631.99310515314949
 20
4665.5744145613226
 30
0.0
  0
VERTEX
  5
529
  8
RIVERS
 10
631.89327769097474
 20
4665.5659982010138
 30
0.0
  0
VERTEX
  5
52A
  8
RIVERS
 10
631.72790217331931
 20
4665.5509864761543
 30
0.0
  0
VERTEX
  5
52B
  8
RIVERS
 10
631.66721456394146
 20
4665.504176266405
 30
0.0
  0
VERTEX
  5
52C
  8
RIVERS
 10
631.54725864682882
 20
4665.4180253568011
 30
0.0
  0
VERTEX
  5
52D
  8
RIVERS
 10
631.49859972286231
 20
4665.3608926876514
 30
0.0
  0
VERTEX
  5
52E
  8
RIVERS
 10
631.38440708963344
 20
4665.2956736212163
 30
0.0
  0
VERTEX
  5
52F
  8
RIVERS
 10
631.29505989526115
 20
4665.2828845862286
 30
0.0
  0
VERTEX
  5
530
  8
RIVERS
 10
631.14469512848791
 20
4665.2575790944047
 30
0.0
  0
VERTEX
  5
531
  8
RIVERS
 10
631.02860976840861
 20
4665.2340945983424
 30
0.0
  0
VERTEX
  5
532
  8
RIVERS
 10
630.90178688257356
 20
4665.0867396154972
 30
0.0
  0
VERTEX
  5
533
  8
RIVERS
 10
630.87900632518836
 20
4664.9746826208529
 30
0.0
  0
VERTEX
  5
534
  8
RIVERS
 10
630.72059917376225
 20
4664.8553559893944
 30
0.0
  0
VERTEX
  5
535
  8
RIVERS
 10
630.54805541679809
 20
4664.810451878735
 30
0.0
  0
VERTEX
  5
536
  8
RIVERS
 10
630.34286674805935
 20
4664.7488307911826
 30
0.0
  0
VERTEX
  5
537
  8
RIVERS
 10
630.12341333179529
 20
4664.6199697683578
 30
0.0
  0
VERTEX
  5
538
  8
RIVERS
 10
629.94166514648805
 20
4664.6018181696254
 30
0.0
  0
VERTEX
  5
539
  8
RIVERS
 10
629.83825307766995
 20
4664.6559964917624
 30
0.0
  0
VERTEX
  5
53A
  8
RIVERS
 10
629.70995253134015
 20
4664.6622178806556
 30
0.0
  0
VERTEX
  5
53B
  8
RIVERS
 10
629.51479939763351
 20
4664.6424461332217
 30
0.0
  0
VERTEX
  5
53C
  8
RIVERS
 10
629.38368894045368
 20
4664.6307464368574
 30
0.0
  0
VERTEX
  5
53D
  8
RIVERS
 10
629.22437797726843
 20
4664.6053548677228
 30
0.0
  0
SEQEND
  5
53E
  8
RIVERS
  0
POLYLINE
  5
88
  8
RIVERS
 66
     1
 10
0.0
 20
0.0
 30
0.0
  0
VERTEX
  5
53F
  8
RIVERS
 10
635.86477221757832
 20
4687.7830781476332
 30
0.0
  0
VERTEX
  5
540
  8
RIVERS
 10
635.94137508081496
 20
4687.6981987032959
 30
0.0
  0
VERTEX
  5
541
  8
RIVERS
 10
636.03640236284195
 20
4687.6498169936749
 30
0.0
  0
VERTEX
  5
542
  8
RIVERS
 10
636.22348732433215
 20
4687.55456550286
 30
0.0
  0
VERTEX
  5
543
  8
RIVERS
 10
636.37640558005785
 20
4687.4744658488744
 30
0.0
  0
VERTEX
  5
544
  8
RIVERS
 10
636.48156062504552
 20
4687.3842818353569
 30
0.0
  0
VERTEX
  5
545
  8
RIVERS
 10
636.57593685561699
 20
4687.2464865231077
 30
0.0
  0
VERTEX
  5
546
  8
RIVERS
 10
636.61087763149135
 20
4687.1329688725309
 30
0.0
  0
VERTEX
  5
547
  8
RIVERS
 10
636.59092958880296
 20
4687.0541279180252
 30
0.0
  0
VERTEX
  5
548
  8
RIVERS
 10
636.53640250776175
 20
4686.93381018535
 30
0.0
  0
VERTEX
  5
549
  8
RIVERS
 10
636.4984957885448
 20
4686.8446678541623
 30
0.0
  0
VERTEX
  5
54A
  8
RIVERS
 10
636.51570575589983
 20
4686.7521435878234
 30
0.0
  0
VERTEX
  5
54B
  8
RIVERS
 10
636.58816262011794
 20
4686.6741201068562
 30
0.0
  0
VERTEX
  5
54C
  8
RIVERS
 10
636.70544564508339
 20
4686.6121635939789
 30
0.0
  0
VERTEX
  5
54D
  8
RIVERS
 10
636.82440336133845
 20
4686.5755300843202
 30
0.0
  0
VERTEX
  5
54E
  8
RIVERS
 10
636.9552937421347
 20
4686.5402999945109
 30
0.0
  0
VERTEX
  5
54F
  8
RIVERS
 10
637.09976977704662
 20
4686.5288158743524
 30
0.0
  0
VERTEX
  5
550
  8
RIVERS
 10
637.18614867196561
 20
4686.5207353910591
 30
0.0
  0
VERTEX
  5
551
  8
RIVERS
 10
637.2571178869614
 20
4686.5018685515897
 30
0.0
  0
SEQEND
  5
552
  8
RIVERS
  0
POLYLINE
  5
89
  8
RIVERS
 66
     1
 10
0.0
 20
0.0
 30
0.0
  0
VERTEX
  5
553
  8
RIVERS
 10
625.0
 20
4678.8951914711924
 30
0.0
  0
VERTEX
  5
554
  8
RIVERS
 10
625.07556247385628
 20
4678.8980749781558
 30
0.0
  0
VERTEX
  5
555
  8
RIVERS
 10
625.15159658866276
 20
4678.9019922645521
 30
0.0
  0
VERTEX
  5
556
  8
RIVERS
 10
625.20516879423644
 20
4678.8911700467042
 30
0.0
  0
VERTEX
  5
557
  8
RIVERS
 10
625.26189506695232
 20
4678.9041697545108
 30
0.0
  0
VERTEX
  5
558
  8
RIVERS
 10
625.30543716728334
 20
4678.948561880954
 30
0.0
  0
VERTEX
  5
559
  8
RIVERS
 10
625.36848242514168
 20
4679.0106956667742
 30
0.0
  0
VERTEX
  5
55A
  8
RIVERS
 10
625.44036053468665
 20
4679.0578620803453
 30
0.0
  0
VERTEX
  5
55B
  8
RIVERS
 10
625.51809104249787
 20
4679.0900828233807
 30
0.0
  0
VERTEX
  5
55C
  8
RIVERS
 10
625.60027052872522
 20
4679.119290560423
 30
0.0
  0
VERTEX
  5
55D
  8
RIVERS
 10
625.68404875023884
 20
4679.1633897137108
 30
0.0
  0
VERTEX
  5
55E
  8
RIVERS
 10
625.7752889561624
 20
4679.2089248394232
 30
0.0
  0
VERTEX
  5
55F
  8
RIVERS
 10
625.86622533807349
 20
4679.2127336172416
 30
0.0
  0
VERTEX
  5
560
  8
RIVERS
 10
625.92421396949055
 20
4679.1944277132698
 30
0.0
  0
VERTEX
  5
561
  8
RIVERS
 10
625.9641571175182
 20
4679.1538986189344
 30
0.0
  0
VERTEX
  5
562
  8
RIVERS
 10
626.01142118880705
 20
4679.0954325497814
 30
0.0
  0
VERTEX
  5
563
  8
RIVERS
 10
626.03047946117294
 20
4679.0520749140296
 30
0.0
  0
VERTEX
  5
564
  8
RIVERS
 10
626.10340291226726
 20
4679.0381311816127
 30
0.0
  0
VERTEX
  5
565
  8
RIVERS
 10
626.20346511902017
 20
4679.0672087083649
 30
0.0
  0
VERTEX
  5
566
  8
RIVERS
 10
626.30772673446484
 20
4679.0589980147806
 30
0.0
  0
VERTEX
  5
567
  8
RIVERS
 10
626.42238738430967
 20
4679.0462406850629
 30
0.0
  0
VERTEX
  5
568
  8
RIVERS
 10
626.5280307178889
 20
4679.0231168735172
 30
0.0
  0
VERTEX
  5
569
  8
RIVERS
 10
626.61595409380629
 20
4679.0224766729189
 30
0.0
  0
VERTEX
  5
56A
  8
RIVERS
 10
626.73950184962609
 20
4679.0022031045037
 30
0.0
  0
VERTEX
  5
56B
  8
RIVERS
 10
626.81515618441688
 20
4678.9539624560321
 30
0.0
  0
VERTEX
  5
56C
  8
RIVERS
 10
626.87598420810616
 20
4678.9162619031094
 30
0.0
  0
VERTEX
  5
56D
  8
RIVERS
 10
627.00083772605763
 20
4678.870643629758
 30
0.0
  0
VERTEX
  5
56E
  8
RIVERS
 10
627.09909503122992
 20
4678.8565154327616
 30
0.0
  0
VERTEX
  5
56F
  8
RIVERS
 10
627.23350840832654
 20
4678.8957749767624
 30
0.0
  0
VERTEX
  5
570
  8
RIVERS
 10
627.31859239197172
 20
4678.9145294251148
 30
0.0
  0
VERTEX
  5
571
  8
RIVERS
 10
627.42114676355402
 20
4678.8765250481802
 30
0.0
  0
VERTEX
  5
572
  8
RIVERS
 10
627.55051436506699
 20
4678.8368351290983
 30
0.0
  0
VERTEX
  5
573
  8
RIVERS
 10
627.66656758390423
 20
4678.8106549081276
 30
0.0
  0
VERTEX
  5
574
  8
RIVERS
 10
627.76790300021582
 20
4678.8099170498117
 30
0.0
  0
VERTEX
  5
575
  8
RIVERS
 10
627.86946628453666
 20
4678.8404739524158
 30
0.0
  0
VERTEX
  5
576
  8
RIVERS
 10
627.96364354045079
 20
4678.8800264695701
 30
0.0
  0
VERTEX
  5
577
  8
RIVERS
 10
628.04725899910056
 20
4678.9017722222034
 30
0.0
  0
VERTEX
  5
578
  8
RIVERS
 10
628.14724524985047
 20
4678.9204181619798
 30
0.0
  0
VERTEX
  5
579
  8
RIVERS
 10
628.22782600079131
 20
4678.9347344827738
 30
0.0
  0
VERTEX
  5
57A
  8
RIVERS
 10
628.3503392659195
 20
4678.9770612870561
 30
0.0
  0
VERTEX
  5
57B
  8
RIVERS
 10
628.5129041876512
 20
4678.9937612641043
 30
0.0
  0
VERTEX
  5
57C
  8
RIVERS
 10
628.65446487428756
 20
4678.9912402059226
 30
0.0
  0
VERTEX
  5
57D
  8
RIVERS
 10
628.80020326790066
 20
4678.9484504739858
 30
0.0
  0
VERTEX
  5
57E
  8
RIVERS
 10
628.93867499254031
 20
4678.9310488504143
 30
0.0
  0
VERTEX
  5
57F
  8
RIVERS
 10
629.06817280434439
 20
4678.909241651857
 30
0.0
  0
VERTEX
  5
580
  8
RIVERS
 10
629.1797987464804
 20
4678.8890548903018
 30
0.0
  0
VERTEX
  5
581
  8
RIVERS
 10
629.28721442906749
 20
4678.904666122372
 30
0.0
  0
VERTEX
  5
582
  8
RIVERS
 10
629.36963263416169
 20
4678.9666588470436
 30
0.0
  0
VERTEX
  5
583
  8
RIVERS
 10
629.47274039948104
 20
4679.0046560323426
 30
0.0
  0
VERTEX
  5
584
  8
RIVERS
 10
629.56252293126693
 20
4679.0546726890416
 30
0.0
  0
VERTEX
  5
585
  8
RIVERS
 10
629.66740304559403
 20
4679.1314049179546
 30
0.0
  0
VERTEX
  5
586
  8
RIVERS
 10
629.75414001881336
 20
4679.1725019161086
 30
0.0
  0
VERTEX
  5
587
  8
RIVERS
 10
629.85574670656467
 20
4679.2090197255529
 30
0.0
  0
VERTEX
  5
588
  8
RIVERS
 10
629.93353146866366
 20
4679.2486916021417
 30
0.0
  0
VERTEX
  5
589
  8
RIVERS
 10
629.98464406198059
 20
4679.3094219681134
 30
0.0
  0
VERTEX
  5
58A
  8
RIVERS
 10
630.05368277925345
 20
4679.3759830306344
 30
0.0
  0
VERTEX
  5
58B
  8
RIVERS
 10
630.15850863929256
 20
4679.445264125995
 30
0.0
  0
VERTEX
  5
58C
  8
RIVERS
 10
630.2794448708496
 20
4679.4756799674506
 30
0.0
  0
VERTEX
  5
58D
  8
RIVERS
 10
630.43467801846248
 20
4679.5088266926014
 30
0.0
  0
VERTEX
  5
58E
  8
RIVERS
 10
630.50199864101546
 20
4679.5441038450617
 30
0.0
  0
VERTEX
  5
58F
  8
RIVERS
 10
630.57823892211616
 20
4679.5763354389537
 30
0.0
  0
VERTEX
  5
590
  8
RIVERS
 10
630.69186508126927
 20
4679.6261784819326
 30
0.0
  0
VERTEX
  5
591
  8
RIVERS
 10
630.77713352949354
 20
4679.6702667843647
 30
0.0
  0
VERTEX
  5
592
  8
RIVERS
 10
630.88631071023065
 20
4679.7231228333367
 30
0.0
  0
VERTEX
  5
593
  8
RIVERS
 10
630.97891093257351
 20
4679.7507643876661
 30
0.0
  0
VERTEX
  5
594
  8
RIVERS
 10
631.09230922371751
 20
4679.769312669725
 30
0.0
  0
VERTEX
  5
595
  8
RIVERS
 10
631.26541424099833
 20
4679.8008389578754
 30
0.0
  0
VERTEX
  5
596
  8
RIVERS
 10
631.39706418182584
 20
4679.869924737799
 30
0.0
  0
VERTEX
  5
597
  8
RIVERS
 10
631.49281847131112
 20
4679.9213882177792
 30
0.0
  0
VERTEX
  5
598
  8
RIVERS
 10
631.5781628755384
 20
4679.9759081071834
 30
0.0
  0
VERTEX
  5
599
  8
RIVERS
 10
631.65160716779701
 20
4680.0334952568701
 30
0.0
  0
VERTEX
  5
59A
  8
RIVERS
 10
631.75623771239964
 20
4680.0759522714416
 30
0.0
  0
VERTEX
  5
59B
  8
RIVERS
 10
631.83543674520604
 20
4680.1051817101988
 30
0.0
  0
VERTEX
  5
59C
  8
RIVERS
 10
631.89823243333956
 20
4680.1330402816793
 30
0.0
  0
VERTEX
  5
59D
  8
RIVERS
 10
632.0970293829987
 20
4680.2135595866957
 30
0.0
  0
VERTEX
  5
59E
  8
RIVERS
 10
632.25845130546281
 20
4680.2779576693356
 30
0.0
  0
VERTEX
  5
59F
  8
RIVERS
 10
632.38958040512603
 20
4680.2755125671583
 30
0.0
  0
VERTEX
  5
5A0
  8
RIVERS
 10
632.50111954040153
 20
4680.243403991919
 30
0.0
  0
VERTEX
  5
5A1
  8
RIVERS
 10
632.61872809109457
 20
4680.2261542803553
 30
0.0
  0
VERTEX
  5
5A2
  8
RIVERS
 10
632.72772080725258
 20
4680.2536764752494
 30
0.0
  0
VERTEX
  5
5A3
  8
RIVERS
 10
632.84571998881916
 20
4680.2900749252622
 30
0.0
  0
VERTEX
  5
5A4
  8
RIVERS
 10
632.95033968256405
 20
4680.3310417131233
 30
0.0
  0
VERTEX
  5
5A5
  8
RIVERS
 10
633.04621333148293
 20
4680.3988976869186
 30
0.0
  0
VERTEX
  5
5A6
  8
RIVERS
 10
633.17179385689258
 20
4680.4531246031693
 30
0.0
  0
VERTEX
  5
5A7
  8
RIVERS
 10
633.28974963502867
 20
4680.483562146338
 30
0.0
  0
VERTEX
  5
5A8
  8
RIVERS
 10
633.39434762705855
 20
4680.5215484807786
 30
0.0
  0
VERTEX
  5
5A9
  8
RIVERS
 10
633.48435802685378
 20
4680.6028598984003
 30
0.0
  0
VERTEX
  5
5AA
  8
RIVERS
 10
633.55213438542535
 20
4680.7007265726979
 30
0.0
  0
VERTEX
  5
5AB
  8
RIVERS
 10
633.63929454209085
 20
4680.7999424125601
 30
0.0
  0
VERTEX
  5
5AC
  8
RIVERS
 10
633.72045038848398
 20
4680.8932407490092
 30
0.0
  0
VERTEX
  5
5AD
  8
RIVERS
 10
633.78662801176949
 20
4680.9762160070613
 30
0.0
  0
VERTEX
  5
5AE
  8
RIVERS
 10
633.86907876943644
 20
4681.0426794118648
 30
0.0
  0
VERTEX
  5
5AF
  8
RIVERS
 10
633.96171154435206
 20
4681.0747916463251
 30
0.0
  0
VERTEX
  5
5B0
  8
RIVERS
 10
634.08422480948025
 20
4681.1171184506056
 30
0.0
  0
VERTEX
  5
5B1
  8
RIVERS
 10
634.20102673749113
 20
4681.1937638726577
 30
0.0
  0
VERTEX
  5
5B2
  8
RIVERS
 10
634.25522829280476
 20
4681.2693748040183
 30
0.0
  0
VERTEX
  5
5B3
  8
RIVERS
 10
634.26185110195968
 20
4681.3602352299258
 30
0.0
  0
VERTEX
  5
5B4
  8
RIVERS
 10
634.27443481795638
 20
4681.4510522524051
 30
0.0
  0
VERTEX
  5
5B5
  8
RIVERS
 10
634.29903800535487
 20
4681.5551945084153
 30
0.0
  0
VERTEX
  5
5B6
  8
RIVERS
 10
634.33683621599596
 20
4681.6294345724982
 30
0.0
  0
VERTEX
  5
5B7
  8
RIVERS
 10
634.38215066533485
 20
4681.7125617425572
 30
0.0
  0
VERTEX
  5
5B8
  8
RIVERS
 10
634.47798091082325
 20
4681.7744568095104
 30
0.0
  0
VERTEX
  5
5B9
  8
RIVERS
 10
634.54808667136058
 20
4681.7828881794658
 30
0.0
  0
VERTEX
  5
5BA
  8
RIVERS
 10
634.69747827156505
 20
4681.8324708018636
 30
0.0
  0
VERTEX
  5
5BB
  8
RIVERS
 10
634.86691557217614
 20
4681.9743064191598
 30
0.0
  0
VERTEX
  5
5BC
  8
RIVERS
 10
634.998793381013
 20
4682.0746869600043
 30
0.0
  0
VERTEX
  5
5BD
  8
RIVERS
 10
635.10380370563121
 20
4682.1693019094419
 30
0.0
  0
VERTEX
  5
5BE
  8
RIVERS
 10
635.1937164477082
 20
4682.237201286669
 30
0.0
  0
VERTEX
  5
5BF
  8
RIVERS
 10
635.2747203820951
 20
4682.3096364491721
 30
0.0
  0
VERTEX
  5
5C0
  8
RIVERS
 10
635.35744241120176
 20
4682.4133555217359
 30
0.0
  0
VERTEX
  5
5C1
  8
RIVERS
 10
635.42517536634307
 20
4682.5052612891941
 30
0.0
  0
VERTEX
  5
5C2
  8
RIVERS
 10
635.48832913277727
 20
4682.58229734212
 30
0.0
  0
VERTEX
  5
5C3
  8
RIVERS
 10
635.53653722867637
 20
4682.6534809967789
 30
0.0
  0
VERTEX
  5
5C4
  8
RIVERS
 10
635.546064535249
 20
4682.7338881339983
 30
0.0
  0
VERTEX
  5
5C5
  8
RIVERS
 10
635.5826003871889
 20
4682.8394338098587
 30
0.0
  0
VERTEX
  5
5C6
  8
RIVERS
 10
635.6116091495735
 20
4682.9346021530346
 30
0.0
  0
VERTEX
  5
5C7
  8
RIVERS
 10
635.64823180837425
 20
4683.0520696425792
 30
0.0
  0
VERTEX
  5
5C8
  8
RIVERS
 10
635.68021017332205
 20
4683.1457260573279
 30
0.0
  0
VERTEX
  5
5C9
  8
RIVERS
 10
635.70167014443598
 20
4683.2275366143976
 30
0.0
  0
VERTEX
  5
5CA
  8
RIVERS
 10
635.72927548697055
 20
4683.3346376221152
 30
0.0
  0
VERTEX
  5
5CB
  8
RIVERS
 10
635.7717288423222
 20
4683.4341789877044
 30
0.0
  0
VERTEX
  5
5CC
  8
RIVERS
 10
635.79020836001496
 20
4683.5160112464882
 30
0.0
  0
VERTEX
  5
5CD
  8
RIVERS
 10
635.8339349249253
 20
4683.5857372270102
 30
0.0
  0
VERTEX
  5
5CE
  8
RIVERS
 10
635.86119304001716
 20
4683.6451509799917
 30
0.0
  0
VERTEX
  5
5CF
  8
RIVERS
 10
635.90498471007277
 20
4683.7238183207764
 30
0.0
  0
VERTEX
  5
5D0
  8
RIVERS
 10
635.96844230051943
 20
4683.8425807215954
 30
0.0
  0
VERTEX
  5
5D1
  8
RIVERS
 10
636.04397361665599
 20
4683.9821194894994
 30
0.0
  0
VERTEX
  5
5D2
  8
RIVERS
 10
636.12063708120263
 20
4684.0724699251014
 30
0.0
  0
VERTEX
  5
5D3
  8
RIVERS
 10
636.13165461448557
 20
4684.1528662114624
 30
0.0
  0
VERTEX
  5
5D4
  8
RIVERS
 10
636.1174251005516
 20
4684.2453687760872
 30
0.0
  0
VERTEX
  5
5D5
  8
RIVERS
 10
636.08530201523433
 20
4684.3365113242917
 30
0.0
  0
VERTEX
  5
5D6
  8
RIVERS
 10
636.08136302712467
 20
4684.4095649856781
 30
0.0
  0
VERTEX
  5
5D7
  8
RIVERS
 10
636.08354770872086
 20
4684.5049286442891
 30
0.0
  0
VERTEX
  5
5D8
  8
RIVERS
 10
636.14368846916125
 20
4684.5775157187991
 30
0.0
  0
VERTEX
  5
5D9
  8
RIVERS
 10
636.1799856022343
 20
4684.6502764070301
 30
0.0
  0
VERTEX
  5
5DA
  8
RIVERS
 10
636.21634784045284
 20
4684.7319784555229
 30
0.0
  0
VERTEX
  5
5DB
  8
RIVERS
 10
636.23771015384852
 20
4684.8003769721981
 30
0.0
  0
VERTEX
  5
5DC
  8
RIVERS
 10
636.27251706021104
 20
4684.8731485112858
 30
0.0
  0
VERTEX
  5
5DD
  8
RIVERS
 10
636.33402868792825
 20
4684.9293322411231
 30
0.0
  0
VERTEX
  5
5DE
  8
RIVERS
 10
636.42983723170164
 20
4684.9882468546557
 30
0.0
  0
VERTEX
  5
5DF
  8
RIVERS
 10
636.51379991779424
 20
4685.0576798620223
 30
0.0
  0
VERTEX
  5
5E0
  8
RIVERS
 10
636.5963808857523
 20
4685.1420259873512
 30
0.0
  0
VERTEX
  5
5E1
  8
RIVERS
 10
636.67147816758529
 20
4685.2219556868367
 30
0.0
  0
VERTEX
  5
5E2
  8
RIVERS
 10
636.70034586882127
 20
4685.2977510827768
 30
0.0
  0
VERTEX
  5
5E3
  8
RIVERS
 10
636.72343712779434
 20
4685.3989237362248
 30
0.0
  0
VERTEX
  5
5E4
  8
RIVERS
 10
636.78397936996555
 20
4685.5266491990214
 30
0.0
  0
VERTEX
  5
5E5
  8
RIVERS
 10
636.82964104674716
 20
4685.6574636238129
 30
0.0
  0
VERTEX
  5
5E6
  8
RIVERS
 10
636.83058507135752
 20
4685.7871133476237
 30
0.0
  0
VERTEX
  5
5E7
  8
RIVERS
 10
636.81811705557345
 20
4685.9168607291531
 30
0.0
  0
VERTEX
  5
5E8
  8
RIVERS
 10
636.83111310415848
 20
4686.0643063666284
 30
0.0
  0
VERTEX
  5
5E9
  8
RIVERS
 10
636.90060755745014
 20
4686.1934569509904
 30
0.0
  0
VERTEX
  5
5EA
  8
RIVERS
 10
636.99818845023128
 20
4686.2911066081369
 30
0.0
  0
VERTEX
  5
5EB
  8
RIVERS
 10
637.1359403590493
 20
4686.3795219318663
 30
0.0
  0
VERTEX
  5
5EC
  8
RIVERS
 10
637.21108104431255
 20
4686.465412538193
 30
0.0
  0
VERTEX
  5
5ED
  8
RIVERS
 10
637.21107019345504
 20
4686.4639223114827
 30
0.0
  0
VERTEX
  5
5EE
  8
RIVERS
 10
637.2571178869614
 20
4686.5018685515897
 30
0.0
  0
SEQEND
  5
5EF
  8
RIVERS
  0
POLYLINE
  5
8A
  8
RIVERS
 66
     1
 10
0.0
 20
0.0
 30
0.0
  0
VERTEX
  5
5F0
  8
RIVERS
 10
657.5791734529322
 20
4681.8147957376495
 30
0.0
  0
VERTEX
  5
5F1
  8
RIVERS
 10
657.44767211059025
 20
4681.8212173432812
 30
0.0
  0
VERTEX
  5
5F2
  8
RIVERS
 10
657.31580977485635
 20
4681.8571416269087
 30
0.0
  0
VERTEX
  5
5F3
  8
RIVERS
 10
657.17642633486139
 20
4681.8893524972282
 30
0.0
  0
VERTEX
  5
5F4
  8
RIVERS
 10
657.07906680108704
 20
4681.9236028602536
 30
0.0
  0
VERTEX
  5
5F5
  8
RIVERS
 10
656.97431060953659
 20
4681.978897230787
 30
0.0
  0
VERTEX
  5
5F6
  8
RIVERS
 10
656.87186543029543
 20
4682.0461838859746
 30
0.0
  0
VERTEX
  5
5F7
  8
RIVERS
 10
656.79118054348498
 20
4682.1141114039747
 30
0.0
  0
VERTEX
  5
5F8
  8
RIVERS
 10
656.69924228357536
 20
4682.1820954885579
 30
0.0
  0
VERTEX
  5
5F9
  8
RIVERS
 10
656.60668955859387
 20
4682.277091439686
 30
0.0
  0
VERTEX
  5
5FA
  8
RIVERS
 10
656.53734855141715
 20
4682.362967788059
 30
0.0
  0
VERTEX
  5
5FB
  8
RIVERS
 10
656.48972635450934
 20
4682.441232525639
 30
0.0
  0
VERTEX
  5
5FC
  8
RIVERS
 10
656.38775256346776
 20
4682.6022972899873
 30
0.0
  0
VERTEX
  5
5FD
  8
RIVERS
 10
656.29154676286544
 20
4682.7168179433475
 30
0.0
  0
VERTEX
  5
5FE
  8
RIVERS
 10
656.25144567021835
 20
4682.7987960942373
 30
0.0
  0
VERTEX
  5
5FF
  8
RIVERS
 10
656.18709980197377
 20
4682.8336307534892
 30
0.0
  0
VERTEX
  5
600
  8
RIVERS
 10
656.12714969201238
 20
4682.8474364896556
 30
0.0
  0
VERTEX
  5
601
  8
RIVERS
 10
656.02969588059796
 20
4682.8629312308494
 30
0.0
  0
VERTEX
  5
602
  8
RIVERS
 10
655.92470210939484
 20
4682.8709614343652
 30
0.0
  0
VERTEX
  5
603
  8
RIVERS
 10
655.81927111508298
 20
4682.9412640734699
 30
0.0
  0
VERTEX
  5
604
  8
RIVERS
 10
655.69515992105119
 20
4683.0266654876787
 30
0.0
  0
VERTEX
  5
605
  8
RIVERS
 10
655.58069605941523
 20
4683.0910115810639
 30
0.0
  0
VERTEX
  5
606
  8
RIVERS
 10
655.45925390758396
 20
4683.1103781220027
 30
0.0
  0
VERTEX
  5
607
  8
RIVERS
 10
655.36709692354975
 20
4683.1348491639374
 30
0.0
  0
VERTEX
  5
608
  8
RIVERS
 10
655.27827711804707
 20
4683.1412867649078
 30
0.0
  0
VERTEX
  5
609
  8
RIVERS
 10
655.26683539146029
 20
4683.2108436193967
 30
0.0
  0
VERTEX
  5
60A
  8
RIVERS
 10
655.24714377184534
 20
4683.3351695001456
 30
0.0
  0
VERTEX
  5
60B
  8
RIVERS
 10
655.20877760410337
 20
4683.4191537706847
 30
0.0
  0
VERTEX
  5
60C
  8
RIVERS
 10
655.13137632028395
 20
4683.4357818868148
 30
0.0
  0
VERTEX
  5
60D
  8
RIVERS
 10
655.0349175504017
 20
4683.4372842883049
 30
0.0
  0
VERTEX
  5
60E
  8
RIVERS
 10
654.90746741337546
 20
4683.4279306329918
 30
0.0
  0
VERTEX
  5
60F
  8
RIVERS
 10
654.82321283370516
 20
4683.4073639209464
 30
0.0
  0
VERTEX
  5
610
  8
RIVERS
 10
654.8037464716997
 20
4683.5168569219504
 30
0.0
  0
VERTEX
  5
611
  8
RIVERS
 10
654.78733095254995
 20
4683.6169168487831
 30
0.0
  0
VERTEX
  5
612
  8
RIVERS
 10
654.74229294199972
 20
4683.6189451679556
 30
0.0
  0
VERTEX
  5
613
  8
RIVERS
 10
654.70034404013268
 20
4683.6238922850298
 30
0.0
  0
VERTEX
  5
614
  8
RIVERS
 10
654.66253327913671
 20
4683.6422507476891
 30
0.0
  0
VERTEX
  5
615
  8
RIVERS
 10
654.64242102652645
 20
4683.6751393333197
 30
0.0
  0
VERTEX
  5
616
  8
RIVERS
 10
654.64425186741039
 20
4683.7397243291234
 30
0.0
  0
VERTEX
  5
617
  8
RIVERS
 10
654.66494257176657
 20
4683.8067810570319
 30
0.0
  0
VERTEX
  5
618
  8
RIVERS
 10
654.68621395366631
 20
4683.867808589509
 30
0.0
  0
VERTEX
  5
619
  8
RIVERS
 10
654.66326805854283
 20
4683.9067902371162
 30
0.0
  0
VERTEX
  5
61A
  8
RIVERS
 10
654.58706585900757
 20
4683.9495363578653
 30
0.0
  0
VERTEX
  5
61B
  8
RIVERS
 10
654.40560343978734
 20
4683.9644511071601
 30
0.0
  0
VERTEX
  5
61C
  8
RIVERS
 10
654.17335644826142
 20
4683.9642704661237
 30
0.0
  0
VERTEX
  5
61D
  8
RIVERS
 10
653.95950096556317
 20
4683.9500398140817
 30
0.0
  0
VERTEX
  5
61E
  8
RIVERS
 10
653.73428009243923
 20
4683.9060676729732
 30
0.0
  0
VERTEX
  5
61F
  8
RIVERS
 10
653.419345108622
 20
4683.8789189717036
 30
0.0
  0
VERTEX
  5
620
  8
RIVERS
 10
653.11307548446337
 20
4683.8658048712559
 30
0.0
  0
VERTEX
  5
621
  8
RIVERS
 10
652.84949987183393
 20
4683.8740282450481
 30
0.0
  0
VERTEX
  5
622
  8
RIVERS
 10
652.65288995306275
 20
4683.8848628413516
 30
0.0
  0
VERTEX
  5
623
  8
RIVERS
 10
652.43857564724465
 20
4683.9074731948458
 30
0.0
  0
VERTEX
  5
624
  8
RIVERS
 10
652.2914245135737
 20
4683.9131477856008
 30
0.0
  0
VERTEX
  5
625
  8
RIVERS
 10
652.2022000463727
 20
4683.9472439568781
 30
0.0
  0
VERTEX
  5
626
  8
RIVERS
 10
652.08310635701969
 20
4683.9881995886399
 30
0.0
  0
VERTEX
  5
627
  8
RIVERS
 10
651.89832653045505
 20
4683.9656287883126
 30
0.0
  0
VERTEX
  5
628
  8
RIVERS
 10
651.75577823943615
 20
4683.9215678389492
 30
0.0
  0
VERTEX
  5
629
  8
RIVERS
 10
651.57623038942324
 20
4683.8184283995552
 30
0.0
  0
VERTEX
  5
62A
  8
RIVERS
 10
651.45814538036075
 20
4683.7624000933747
 30
0.0
  0
VERTEX
  5
62B
  8
RIVERS
 10
651.31273627931989
 20
4683.7499870978281
 30
0.0
  0
VERTEX
  5
62C
  8
RIVERS
 10
651.17353256315414
 20
4683.7178568062482
 30
0.0
  0
VERTEX
  5
62D
  8
RIVERS
 10
650.97382988283584
 20
4683.6461039758378
 30
0.0
  0
VERTEX
  5
62E
  8
RIVERS
 10
650.76942967295065
 20
4683.5677199836018
 30
0.0
  0
VERTEX
  5
62F
  8
RIVERS
 10
650.58181255100885
 20
4683.4715736164389
 30
0.0
  0
VERTEX
  5
630
  8
RIVERS
 10
650.40699527673326
 20
4683.3232045668674
 30
0.0
  0
VERTEX
  5
631
  8
RIVERS
 10
650.28860269228085
 20
4683.2032996755124
 30
0.0
  0
VERTEX
  5
632
  8
RIVERS
 10
650.15418388686953
 20
4683.0748299900752
 30
0.0
  0
VERTEX
  5
633
  8
RIVERS
 10
650.0193121369997
 20
4682.9568954300112
 30
0.0
  0
VERTEX
  5
634
  8
RIVERS
 10
649.86966655530875
 20
4682.7950357581276
 30
0.0
  0
VERTEX
  5
635
  8
RIVERS
 10
649.73399170789548
 20
4682.6222577616163
 30
0.0
  0
VERTEX
  5
636
  8
RIVERS
 10
649.58632233615697
 20
4682.4505713749877
 30
0.0
  0
VERTEX
  5
637
  8
RIVERS
 10
649.41923371225039
 20
4682.2831934400092
 30
0.0
  0
VERTEX
  5
638
  8
RIVERS
 10
649.25837176206619
 20
4682.0968491973217
 30
0.0
  0
VERTEX
  5
639
  8
RIVERS
 10
649.09127360663445
 20
4681.8761085136966
 30
0.0
  0
VERTEX
  5
63A
  8
RIVERS
 10
648.91318150270945
 20
4681.6917558911482
 30
0.0
  0
VERTEX
  5
63B
  8
RIVERS
 10
648.73178152296509
 20
4681.5232804676261
 30
0.0
  0
VERTEX
  5
63C
  8
RIVERS
 10
648.46503609785725
 20
4681.3136320722733
 30
0.0
  0
VERTEX
  5
63D
  8
RIVERS
 10
648.19262338772296
 20
4681.11616980087
 30
0.0
  0
VERTEX
  5
63E
  8
RIVERS
 10
648.03960606367048
 20
4680.9679343630442
 30
0.0
  0
VERTEX
  5
63F
  8
RIVERS
 10
647.90219871515205
 20
4680.8666067014819
 30
0.0
  0
VERTEX
  5
640
  8
RIVERS
 10
647.74722646999442
 20
4680.7289489667237
 30
0.0
  0
VERTEX
  5
641
  8
RIVERS
 10
647.59688788786139
 20
4680.5956694288207
 30
0.0
  0
VERTEX
  5
642
  8
RIVERS
 10
647.45937409510555
 20
4680.4905868256428
 30
0.0
  0
VERTEX
  5
643
  8
RIVERS
 10
647.32854945205588
 20
4680.4093655380311
 30
0.0
  0
VERTEX
  5
644
  8
RIVERS
 10
647.16607685519023
 20
4680.3252834403984
 30
0.0
  0
VERTEX
  5
645
  8
RIVERS
 10
647.07142738474363
 20
4680.2475462180473
 30
0.0
  0
VERTEX
  5
646
  8
RIVERS
 10
647.03627630261724
 20
4680.1741350833299
 30
0.0
  0
VERTEX
  5
647
  8
RIVERS
 10
647.02189965317075
 20
4679.9851414920277
 30
0.0
  0
VERTEX
  5
648
  8
RIVERS
 10
646.98636537178959
 20
4679.8982125674929
 30
0.0
  0
VERTEX
  5
649
  8
RIVERS
 10
646.96671416809647
 20
4679.7882856386132
 30
0.0
  0
VERTEX
  5
64A
  8
RIVERS
 10
646.97624506477439
 20
4679.6737735030638
 30
0.0
  0
VERTEX
  5
64B
  8
RIVERS
 10
646.99406400051714
 20
4679.5334722983553
 30
0.0
  0
VERTEX
  5
64C
  8
RIVERS
 10
647.01872698655961
 20
4679.3959834473089
 30
0.0
  0
VERTEX
  5
64D
  8
RIVERS
 10
647.02705982911687
 20
4679.2657218458189
 30
0.0
  0
VERTEX
  5
64E
  8
RIVERS
 10
646.96378966192754
 20
4679.0488021961501
 30
0.0
  0
VERTEX
  5
64F
  8
RIVERS
 10
646.85581034842517
 20
4678.8985384391508
 30
0.0
  0
VERTEX
  5
650
  8
RIVERS
 10
646.80409494549133
 20
4678.8240936824322
 30
0.0
  0
VERTEX
  5
651
  8
RIVERS
 10
646.73729003088783
 20
4678.7741276178549
 30
0.0
  0
VERTEX
  5
652
  8
RIVERS
 10
646.63093820131962
 20
4678.7343017220765
 30
0.0
  0
VERTEX
  5
653
  8
RIVERS
 10
646.46292017385099
 20
4678.693217558498
 30
0.0
  0
VERTEX
  5
654
  8
RIVERS
 10
646.31541888709523
 20
4678.6335135874288
 30
0.0
  0
VERTEX
  5
655
  8
RIVERS
 10
646.19572545714868
 20
4678.5737729173288
 30
0.0
  0
VERTEX
  5
656
  8
RIVERS
 10
646.05666123139008
 20
4678.4935367953622
 30
0.0
  0
VERTEX
  5
657
  8
RIVERS
 10
645.9568517553929
 20
4678.3663407879103
 30
0.0
  0
VERTEX
  5
658
  8
RIVERS
 10
645.86213476553985
 20
4678.2066819717784
 30
0.0
  0
VERTEX
  5
659
  8
RIVERS
 10
645.80009497760375
 20
4678.0755334364922
 30
0.0
  0
VERTEX
  5
65A
  8
RIVERS
 10
645.80872721324238
 20
4678.004195441943
 30
0.0
  0
VERTEX
  5
65B
  8
RIVERS
 10
645.8195223898116
 20
4677.9389097763842
 30
0.0
  0
VERTEX
  5
65C
  8
RIVERS
 10
645.79926477241179
 20
4677.8385338612834
 30
0.0
  0
VERTEX
  5
65D
  8
RIVERS
 10
645.77249103133727
 20
4677.6733555393321
 30
0.0
  0
VERTEX
  5
65E
  8
RIVERS
 10
645.73095865984783
 20
4677.5380413606345
 30
0.0
  0
VERTEX
  5
65F
  8
RIVERS
 10
645.70412260827402
 20
4677.4736754475871
 30
0.0
  0
VERTEX
  5
660
  8
RIVERS
 10
645.62672836630645
 20
4677.4190564191676
 30
0.0
  0
VERTEX
  5
661
  8
RIVERS
 10
645.5581612564572
 20
4677.3773643530012
 30
0.0
  0
VERTEX
  5
662
  8
RIVERS
 10
645.445135050109
 20
4677.3402476028768
 30
0.0
  0
VERTEX
  5
663
  8
RIVERS
 10
645.3302187194646
 20
4677.3279286484567
 30
0.0
  0
VERTEX
  5
664
  8
RIVERS
 10
645.22950761316895
 20
4677.2729471920229
 30
0.0
  0
VERTEX
  5
665
  8
RIVERS
 10
645.10210466844478
 20
4677.1927236732872
 30
0.0
  0
VERTEX
  5
666
  8
RIVERS
 10
645.03827263337848
 20
4677.136810773115
 30
0.0
  0
VERTEX
  5
667
  8
RIVERS
 10
644.9785404284446
 20
4677.0591437785752
 30
0.0
  0
VERTEX
  5
668
  8
RIVERS
 10
644.96956516475166
 20
4676.9589432318689
 30
0.0
  0
VERTEX
  5
669
  8
RIVERS
 10
644.96108485099376
 20
4676.8753018284942
 30
0.0
  0
VERTEX
  5
66A
  8
RIVERS
 10
644.98397299431565
 20
4676.8064424379872
 30
0.0
  0
VERTEX
  5
66B
  8
RIVERS
 10
645.02930893278892
 20
4676.7454553534071
 30
0.0
  0
VERTEX
  5
66C
  8
RIVERS
 10
645.08322648762737
 20
4676.7131905262677
 30
0.0
  0
VERTEX
  5
66D
  8
RIVERS
 10
645.12185147000775
 20
4676.6483374360832
 30
0.0
  0
VERTEX
  5
66E
  8
RIVERS
 10
645.12130583673854
 20
4676.5866371866978
 30
0.0
  0
VERTEX
  5
66F
  8
RIVERS
 10
645.09288363275289
 20
4676.5275129895936
 30
0.0
  0
VERTEX
  5
670
  8
RIVERS
 10
645.03218491040195
 20
4676.4152233945661
 30
0.0
  0
VERTEX
  5
671
  8
RIVERS
 10
644.98700089380964
 20
4676.3212310812214
 30
0.0
  0
VERTEX
  5
672
  8
RIVERS
 10
644.93244803025868
 20
4676.2007612899506
 30
0.0
  0
VERTEX
  5
673
  8
RIVERS
 10
644.89487911261494
 20
4676.1008686335599
 30
0.0
  0
VERTEX
  5
674
  8
RIVERS
 10
644.84819078219482
 20
4676.0068529377631
 30
0.0
  0
VERTEX
  5
675
  8
RIVERS
 10
644.8162299269402
 20
4675.9333793031656
 30
0.0
  0
VERTEX
  5
676
  8
RIVERS
 10
644.80249620601194
 20
4675.8489039042915
 30
0.0
  0
VERTEX
  5
677
  8
RIVERS
 10
644.75714073945392
 20
4675.8143436783648
 30
0.0
  0
VERTEX
  5
678
  8
RIVERS
 10
644.67695223033422
 20
4675.7942887943036
 30
0.0
  0
VERTEX
  5
679
  8
RIVERS
 10
644.60489715255062
 20
4675.7833883966969
 30
0.0
  0
VERTEX
  5
67A
  8
RIVERS
 10
644.56752313138645
 20
4675.7677606971047
 30
0.0
  0
VERTEX
  5
67B
  8
RIVERS
 10
644.54946744702579
 20
4675.7193303739641
 30
0.0
  0
VERTEX
  5
67C
  8
RIVERS
 10
644.51118013457005
 20
4675.6972572736959
 30
0.0
  0
VERTEX
  5
67D
  8
RIVERS
 10
644.47496157062858
 20
4675.6810202109364
 30
0.0
  0
VERTEX
  5
67E
  8
RIVERS
 10
644.45060601854073
 20
4675.6595631685059
 30
0.0
  0
VERTEX
  5
67F
  8
RIVERS
 10
644.43203442666493
 20
4675.6280202764528
 30
0.0
  0
VERTEX
  5
680
  8
RIVERS
 10
644.42610622756672
 20
4675.5802731376107
 30
0.0
  0
VERTEX
  5
681
  8
RIVERS
 10
644.43206071308373
 20
4675.5283028004042
 30
0.0
  0
VERTEX
  5
682
  8
RIVERS
 10
644.44866502876789
 20
4675.4601675619333
 30
0.0
  0
VERTEX
  5
683
  8
RIVERS
 10
644.47144675990262
 20
4675.4018820999427
 30
0.0
  0
VERTEX
  5
684
  8
RIVERS
 10
644.47429286493252
 20
4675.3439900931908
 30
0.0
  0
VERTEX
  5
685
  8
RIVERS
 10
644.46643012150946
 20
4675.2992726437878
 30
0.0
  0
VERTEX
  5
686
  8
RIVERS
 10
644.438533388172
 20
4675.2499647430968
 30
0.0
  0
VERTEX
  5
687
  8
RIVERS
 10
644.40352147636452
 20
4675.1938170826033
 30
0.0
  0
VERTEX
  5
688
  8
RIVERS
 10
644.38862224551906
 20
4675.1462469986191
 30
0.0
  0
VERTEX
  5
689
  8
RIVERS
 10
644.38863538872852
 20
4675.0963882605947
 30
0.0
  0
VERTEX
  5
68A
  8
RIVERS
 10
644.38978302257658
 20
4675.0534873189454
 30
0.0
  0
VERTEX
  5
68B
  8
RIVERS
 10
644.39290454627314
 20
4675.0095502504664
 30
0.0
  0
VERTEX
  5
68C
  8
RIVERS
 10
644.39841308781865
 20
4674.9855094625691
 30
0.0
  0
VERTEX
  5
68D
  8
RIVERS
 10
644.36953924593786
 20
4674.9372180159453
 30
0.0
  0
VERTEX
  5
68E
  8
RIVERS
 10
644.35176770774819
 20
4674.895687638078
 30
0.0
  0
VERTEX
  5
68F
  8
RIVERS
 10
644.34435743784934
 20
4674.873896158696
 30
0.0
  0
VERTEX
  5
690
  8
RIVERS
 10
644.34097363869535
 20
4674.8540195508767
 30
0.0
  0
VERTEX
  5
691
  8
RIVERS
 10
644.36215526245792
 20
4674.8157090605146
 30
0.0
  0
VERTEX
  5
692
  8
RIVERS
 10
644.39424246229248
 20
4674.7741918258562
 30
0.0
  0
VERTEX
  5
693
  8
RIVERS
 10
644.42240155519175
 20
4674.7357436261609
 30
0.0
  0
VERTEX
  5
694
  8
RIVERS
 10
644.44551772327907
 20
4674.6944034463604
 30
0.0
  0
VERTEX
  5
695
  8
RIVERS
 10
644.4663255645653
 20
4674.6371541111994
 30
0.0
  0
VERTEX
  5
696
  8
RIVERS
 10
644.47822139238997
 20
4674.5830721748107
 30
0.0
  0
VERTEX
  5
697
  8
RIVERS
 10
644.47334899288285
 20
4674.5382957071233
 30
0.0
  0
VERTEX
  5
698
  8
RIVERS
 10
644.46456815920214
 20
4674.497585055703
 30
0.0
  0
VERTEX
  5
699
  8
RIVERS
 10
644.45715135975092
 20
4674.4249380569918
 30
0.0
  0
VERTEX
  5
69A
  8
RIVERS
 10
644.4792314010092
 20
4674.3816239873431
 30
0.0
  0
VERTEX
  5
69B
  8
RIVERS
 10
644.50721343905116
 20
4674.3342047558999
 30
0.0
  0
VERTEX
  5
69C
  8
RIVERS
 10
644.51938468554283
 20
4674.2940777577842
 30
0.0
  0
VERTEX
  5
69D
  8
RIVERS
 10
644.53429053004515
 20
4674.2409335844168
 30
0.0
  0
VERTEX
  5
69E
  8
RIVERS
 10
644.51018419430955
 20
4674.1815791796253
 30
0.0
  0
VERTEX
  5
69F
  8
RIVERS
 10
644.4680571040318
 20
4674.1185917593284
 30
0.0
  0
VERTEX
  5
6A0
  8
RIVERS
 10
644.45323656423398
 20
4674.0750088005643
 30
0.0
  0
VERTEX
  5
6A1
  8
RIVERS
 10
644.43343211790989
 20
4674.0315242056104
 30
0.0
  0
VERTEX
  5
6A2
  8
RIVERS
 10
644.40455827602921
 20
4673.9832327589857
 30
0.0
  0
VERTEX
  5
6A3
  8
RIVERS
 10
644.36073271456974
 20
4673.9352364037914
 30
0.0
  0
VERTEX
  5
6A4
  8
RIVERS
 10
644.324920749076
 20
4673.8890762291112
 30
0.0
  0
VERTEX
  5
6A5
  8
RIVERS
 10
644.30030945108308
 20
4673.8546610297144
 30
0.0
  0
VERTEX
  5
6A6
  8
RIVERS
 10
644.29834870444392
 20
4673.8058384185188
 30
0.0
  0
VERTEX
  5
6A7
  8
RIVERS
 10
644.30713615178126
 20
4673.7458348125847
 30
0.0
  0
VERTEX
  5
6A8
  8
RIVERS
 10
644.33280986302236
 20
4673.6825064257828
 30
0.0
  0
VERTEX
  5
6A9
  8
RIVERS
 10
644.35991315633055
 20
4673.6410875549336
 30
0.0
  0
VERTEX
  5
6AA
  8
RIVERS
 10
644.375055073976
 20
4673.5999047572277
 30
0.0
  0
VERTEX
  5
6AB
  8
RIVERS
 10
644.38022917856892
 20
4673.5589186871421
 30
0.0
  0
VERTEX
  5
6AC
  8
RIVERS
 10
644.35641793426203
 20
4673.5145160019301
 30
0.0
  0
VERTEX
  5
6AD
  8
RIVERS
 10
644.30589032233263
 20
4673.4806122943428
 30
0.0
  0
VERTEX
  5
6AE
  8
RIVERS
 10
644.2575923461568
 20
4673.458630616894
 30
0.0
  0
VERTEX
  5
6AF
  8
RIVERS
 10
644.21116989601967
 20
4673.4306289060887
 30
0.0
  0
VERTEX
  5
6B0
  8
RIVERS
 10
644.1740529145826
 20
4673.4193954226184
 30
0.0
  0
VERTEX
  5
6B1
  8
RIVERS
 10
644.14656930924536
 20
4673.3910199293368
 30
0.0
  0
VERTEX
  5
6B2
  8
RIVERS
 10
644.12604350028312
 20
4673.3615099454182
 30
0.0
  0
VERTEX
  5
6B3
  8
RIVERS
 10
644.12525658980644
 20
4673.321638693209
 30
0.0
  0
VERTEX
  5
6B4
  8
RIVERS
 10
644.1341620737154
 20
4673.2676157751048
 30
0.0
  0
VERTEX
  5
6B5
  8
RIVERS
 10
644.1560847328783
 20
4673.2163274550139
 30
0.0
  0
VERTEX
  5
6B6
  8
RIVERS
 10
644.17212506801934
 20
4673.1701410780197
 30
0.0
  0
VERTEX
  5
6B7
  8
RIVERS
 10
644.17710244499312
 20
4673.1191871948813
 30
0.0
  0
VERTEX
  5
6B8
  8
RIVERS
 10
644.17228906377159
 20
4673.0774010711084
 30
0.0
  0
VERTEX
  5
6B9
  8
RIVERS
 10
644.16053755893734
 20
4673.0377462192801
 30
0.0
  0
VERTEX
  5
6BA
  8
RIVERS
 10
644.14780894555963
 20
4672.9991078215171
 30
0.0
  0
VERTEX
  5
6BB
  8
RIVERS
 10
644.12525022846285
 20
4672.9676436205118
 30
0.0
  0
VERTEX
  5
6BC
  8
RIVERS
 10
644.09176626253225
 20
4672.9383893824979
 30
0.0
  0
VERTEX
  5
6BD
  8
RIVERS
 10
644.04833415631094
 20
4672.9103286534082
 30
0.0
  0
VERTEX
  5
6BE
  8
RIVERS
 10
644.01115815658807
 20
4672.8961048260207
 30
0.0
  0
VERTEX
  5
6BF
  8
RIVERS
 10
643.97419855724638
 20
4672.8928455929909
 30
0.0
  0
VERTEX
  5
6C0
  8
RIVERS
 10
643.93569786881824
 20
4672.9125516755039
 30
0.0
  0
VERTEX
  5
6C1
  8
RIVERS
 10
643.89109845598705
 20
4672.9263951067587
 30
0.0
  0
VERTEX
  5
6C2
  8
RIVERS
 10
643.85533236556955
 20
4672.9330840140201
 30
0.0
  0
VERTEX
  5
6C3
  8
RIVERS
 10
643.82134343738176
 20
4672.9287689813991
 30
0.0
  0
VERTEX
  5
6C4
  8
RIVERS
 10
643.76465808276362
 20
4672.8860122786346
 30
0.0
  0
VERTEX
  5
6C5
  8
RIVERS
 10
643.71971770342725
 20
4672.832054908371
 30
0.0
  0
VERTEX
  5
6C6
  8
RIVERS
 10
643.69205704323292
 20
4672.7947083833433
 30
0.0
  0
VERTEX
  5
6C7
  8
RIVERS
 10
643.66449474684794
 20
4672.7623457648433
 30
0.0
  0
VERTEX
  5
6C8
  8
RIVERS
 10
643.65477615014788
 20
4672.7246451300998
 30
0.0
  0
VERTEX
  5
6C9
  8
RIVERS
 10
643.64718882539182
 20
4672.6938826189707
 30
0.0
  0
VERTEX
  5
6CA
  8
RIVERS
 10
643.65248096655625
 20
4672.6588772367159
 30
0.0
  0
VERTEX
  5
6CB
  8
RIVERS
 10
643.66371445002824
 20
4672.6217602552779
 30
0.0
  0
VERTEX
  5
6CC
  8
RIVERS
 10
643.61131288855461
 20
4672.5267370387219
 30
0.0
  0
VERTEX
  5
6CD
  8
RIVERS
 10
643.53108149572768
 20
4672.4786801043783
 30
0.0
  0
VERTEX
  5
6CE
  8
RIVERS
 10
643.44889435635059
 20
4672.40891003455
 30
0.0
  0
VERTEX
  5
6CF
  8
RIVERS
 10
643.39480867980092
 20
4672.3832262801016
 30
0.0
  0
VERTEX
  5
6D0
  8
RIVERS
 10
643.27736564745339
 20
4672.3914886822931
 30
0.0
  0
VERTEX
  5
6D1
  8
RIVERS
 10
643.19388096508953
 20
4672.4159669179508
 30
0.0
  0
VERTEX
  5
6D2
  8
RIVERS
 10
643.14948199709465
 20
4672.4555267874921
 30
0.0
  0
SEQEND
  5
6D3
  8
RIVERS
  0
POLYLINE
  5
8B
  8
RIVERS
 66
     1
 10
0.0
 20
0.0
 30
0.0
  0
VERTEX
  5
6D4
  8
RIVERS
 10
660.72487427646433
 20
4684.7605081253732
 30
0.0
  0
VERTEX
  5
6D5
  8
RIVERS
 10
660.65897136060482
 20
4684.7051526697514
 30
0.0
  0
VERTEX
  5
6D6
  8
RIVERS
 10
660.55173128194508
 20
4684.6435670345536
 30
0.0
  0
VERTEX
  5
6D7
  8
RIVERS
 10
660.47898386787801
 20
4684.6082607243607
 30
0.0
  0
VERTEX
  5
6D8
  8
RIVERS
 10
660.41222849145925
 20
4684.5879623831706
 30
0.0
  0
VERTEX
  5
6D9
  8
RIVERS
 10
660.260721745713
 20
4684.5844798291791
 30
0.0
  0
VERTEX
  5
6DA
  8
RIVERS
 10
660.22529524802258
 20
4684.5516471767169
 30
0.0
  0
VERTEX
  5
6DB
  8
RIVERS
 10
660.14149233230512
 20
4684.4470342871791
 30
0.0
  0
VERTEX
  5
6DC
  8
RIVERS
 10
660.02610077869235
 20
4684.3268250617366
 30
0.0
  0
VERTEX
  5
6DD
  8
RIVERS
 10
659.92575520470677
 20
4684.2147928877903
 30
0.0
  0
VERTEX
  5
6DE
  8
RIVERS
 10
659.84114549753201
 20
4684.0989303962588
 30
0.0
  0
VERTEX
  5
6DF
  8
RIVERS
 10
659.76016623934447
 20
4683.9590418532543
 30
0.0
  0
VERTEX
  5
6E0
  8
RIVERS
 10
659.73561977529926
 20
4683.8518803717534
 30
0.0
  0
VERTEX
  5
6E1
  8
RIVERS
 10
659.73495983181988
 20
4683.7205910189296
 30
0.0
  0
VERTEX
  5
6E2
  8
RIVERS
 10
659.72016252002174
 20
4683.6126302881848
 30
0.0
  0
VERTEX
  5
6E3
  8
RIVERS
 10
659.65969576859345
 20
4683.5236552167116
 30
0.0
  0
VERTEX
  5
6E4
  8
RIVERS
 10
659.52181255320465
 20
4683.406560023931
 30
0.0
  0
VERTEX
  5
6E5
  8
RIVERS
 10
659.40796293150004
 20
4683.2945957298853
 30
0.0
  0
VERTEX
  5
6E6
  8
RIVERS
 10
659.34004295571174
 20
4683.2154112928201
 30
0.0
  0
VERTEX
  5
6E7
  8
RIVERS
 10
659.22994068726791
 20
4683.1026779183721
 30
0.0
  0
VERTEX
  5
6E8
  8
RIVERS
 10
659.15149116551447
 20
4683.0182947026751
 30
0.0
  0
VERTEX
  5
6E9
  8
RIVERS
 10
659.08355610530373
 20
4682.9361093661182
 30
0.0
  0
VERTEX
  5
6EA
  8
RIVERS
 10
658.96748974892955
 20
4682.8309084092471
 30
0.0
  0
VERTEX
  5
6EB
  8
RIVERS
 10
658.88577912139681
 20
4682.6947747617151
 30
0.0
  0
VERTEX
  5
6EC
  8
RIVERS
 10
658.79066626599615
 20
4682.5789650656607
 30
0.0
  0
VERTEX
  5
6ED
  8
RIVERS
 10
658.6708299297278
 20
4682.4700318399528
 30
0.0
  0
VERTEX
  5
6EE
  8
RIVERS
 10
658.51583107316083
 20
4682.3807817029128
 30
0.0
  0
VERTEX
  5
6EF
  8
RIVERS
 10
658.38418346530523
 20
4682.3101702834301
 30
0.0
  0
VERTEX
  5
6F0
  8
RIVERS
 10
658.24277539188586
 20
4682.2381074385748
 30
0.0
  0
VERTEX
  5
6F1
  8
RIVERS
 10
658.05918502581108
 20
4682.1324956563349
 30
0.0
  0
VERTEX
  5
6F2
  8
RIVERS
 10
657.85452425448943
 20
4682.0142356422048
 30
0.0
  0
VERTEX
  5
6F3
  8
RIVERS
 10
657.68443416502805
 20
4681.9078057551906
 30
0.0
  0
VERTEX
  5
6F4
  8
RIVERS
 10
657.59626943097794
 20
4681.8309738125981
 30
0.0
  0
VERTEX
  5
6F5
  8
RIVERS
 10
657.5791734529322
 20
4681.8147957376495
 30
0.0
  0
SEQEND
  5
6F6
  8
RIVERS
  0
POLYLINE
  5
8C
  8
RIVERS
 66
     1
 10
0.0
 20
0.0
 30
0.0
  0
VERTEX
  5
6F7
  8
RIVERS
 10
655.72215816659127
 20
4678.9947194390252
 30
0.0
  0
VERTEX
  5
6F8
  8
RIVERS
 10
655.84510476441505
 20
4679.1253941016384
 30
0.0
  0
VERTEX
  5
6F9
  8
RIVERS
 10
655.9445266426701
 20
4679.2029197025186
 30
0.0
  0
VERTEX
  5
6FA
  8
RIVERS
 10
656.0326800634034
 20
4679.2775009704928
 30
0.0
  0
VERTEX
  5
6FB
  8
RIVERS
 10
656.14522533285253
 20
4679.4284845001612
 30
0.0
  0
VERTEX
  5
6FC
  8
RIVERS
 10
656.26844345027916
 20
4679.6131753536483
 30
0.0
  0
VERTEX
  5
6FD
  8
RIVERS
 10
656.33769817230836
 20
4679.808640874965
 30
0.0
  0
VERTEX
  5
6FE
  8
RIVERS
 10
656.39044040491422
 20
4680.0026889108594
 30
0.0
  0
VERTEX
  5
6FF
  8
RIVERS
 10
656.43467372873329
 20
4680.1457631375297
 30
0.0
  0
VERTEX
  5
700
  8
RIVERS
 10
656.45166137746185
 20
4680.2417089569863
 30
0.0
  0
VERTEX
  5
701
  8
RIVERS
 10
656.52580187636102
 20
4680.3643762678548
 30
0.0
  0
VERTEX
  5
702
  8
RIVERS
 10
656.65789447467694
 20
4680.5235142223846
 30
0.0
  0
VERTEX
  5
703
  8
RIVERS
 10
656.73369003865207
 20
4680.676933210847
 30
0.0
  0
VERTEX
  5
704
  8
RIVERS
 10
656.77987989085466
 20
4680.761478584086
 30
0.0
  0
VERTEX
  5
705
  8
RIVERS
 10
656.84423729755645
 20
4680.8781931203412
 30
0.0
  0
VERTEX
  5
706
  8
RIVERS
 10
656.93189315749134
 20
4681.00304322593
 30
0.0
  0
VERTEX
  5
707
  8
RIVERS
 10
657.02707012168707
 20
4681.1316067448297
 30
0.0
  0
VERTEX
  5
708
  8
RIVERS
 10
657.12308404618489
 20
4681.2774216647076
 30
0.0
  0
VERTEX
  5
709
  8
RIVERS
 10
657.19934323100813
 20
4681.3738197916946
 30
0.0
  0
VERTEX
  5
70A
  8
RIVERS
 10
657.30047296981729
 20
4681.4926002183965
 30
0.0
  0
VERTEX
  5
70B
  8
RIVERS
 10
657.39643786994225
 20
4681.6286622149219
 30
0.0
  0
VERTEX
  5
70C
  8
RIVERS
 10
657.49374860448449
 20
4681.7339574494326
 30
0.0
  0
VERTEX
  5
70D
  8
RIVERS
 10
657.5791734529322
 20
4681.8147957376495
 30
0.0
  0
SEQEND
  5
70E
  8
RIVERS
  0
POLYLINE
  5
8D
  8
RIVERS
 66
     1
 10
0.0
 20
0.0
 30
0.0
  0
VERTEX
  5
70F
  8
RIVERS
 10
660.98108456129637
 20
4663.6390234772443
 30
0.0
  0
VERTEX
  5
710
  8
RIVERS
 10
660.98122269497765
 20
4663.6392525713654
 30
0.0
  0
VERTEX
  5
711
  8
RIVERS
 10
660.99042758909536
 20
4663.7652083704352
 30
0.0
  0
VERTEX
  5
712
  8
RIVERS
 10
661.03852863026077
 20
4663.8909830061393
 30
0.0
  0
VERTEX
  5
713
  8
RIVERS
 10
661.06559096889839
 20
4664.0639112236413
 30
0.0
  0
VERTEX
  5
714
  8
RIVERS
 10
661.09796425783486
 20
4664.1682135126584
 30
0.0
  0
VERTEX
  5
715
  8
RIVERS
 10
660.98067871640535
 20
4664.2749365032669
 30
0.0
  0
VERTEX
  5
716
  8
RIVERS
 10
660.9717320426696
 20
4664.4511350034454
 30
0.0
  0
VERTEX
  5
717
  8
RIVERS
 10
661.05013914428969
 20
4664.5210946533298
 30
0.0
  0
VERTEX
  5
718
  8
RIVERS
 10
661.13344125928711
 20
4664.6675040222908
 30
0.0
  0
VERTEX
  5
719
  8
RIVERS
 10
661.21357408392737
 20
4664.7749162518849
 30
0.0
  0
VERTEX
  5
71A
  8
RIVERS
 10
661.23992062272214
 20
4664.8805106197633
 30
0.0
  0
VERTEX
  5
71B
  8
RIVERS
 10
661.21820464885946
 20
4664.9919594280354
 30
0.0
  0
VERTEX
  5
71C
  8
RIVERS
 10
661.27039276486028
 20
4665.218088798747
 30
0.0
  0
VERTEX
  5
71D
  8
RIVERS
 10
661.28174817253887
 20
4665.3246722685308
 30
0.0
  0
VERTEX
  5
71E
  8
RIVERS
 10
661.32488288289835
 20
4665.420363649685
 30
0.0
  0
VERTEX
  5
71F
  8
RIVERS
 10
661.29322227977377
 20
4665.6047690884534
 30
0.0
  0
VERTEX
  5
720
  8
RIVERS
 10
661.17849122117605
 20
4665.6801672418123
 30
0.0
  0
VERTEX
  5
721
  8
RIVERS
 10
661.20656348299076
 20
4665.8232141893996
 30
0.0
  0
VERTEX
  5
722
  8
RIVERS
 10
661.28350619600417
 20
4665.9365016806596
 30
0.0
  0
VERTEX
  5
723
  8
RIVERS
 10
661.20778113039091
 20
4666.0969812822277
 30
0.0
  0
VERTEX
  5
724
  8
RIVERS
 10
661.26086932363171
 20
4666.2079667714506
 30
0.0
  0
VERTEX
  5
725
  8
RIVERS
 10
661.38955765486708
 20
4666.4277070652879
 30
0.0
  0
VERTEX
  5
726
  8
RIVERS
 10
661.38442786793405
 20
4666.5352291408217
 30
0.0
  0
VERTEX
  5
727
  8
RIVERS
 10
661.37014056901035
 20
4666.7366752319476
 30
0.0
  0
VERTEX
  5
728
  8
RIVERS
 10
661.33966623860351
 20
4666.906465336906
 30
0.0
  0
SEQEND
  5
729
  8
RIVERS
  0
POLYLINE
  5
8E
  8
RIVERS
 66
     1
 10
0.0
 20
0.0
 30
0.0
  0
VERTEX
  5
72A
  8
RIVERS
 10
662.0963691381271
 20
4660.0
 30
0.0
  0
VERTEX
  5
72B
  8
RIVERS
 10
662.10255676238023
 20
4660.1576040885402
 30
0.0
  0
VERTEX
  5
72C
  8
RIVERS
 10
662.08844177320304
 20
4660.3096955881501
 30
0.0
  0
VERTEX
  5
72D
  8
RIVERS
 10
661.98346221285135
 20
4660.40636410356
 30
0.0
  0
VERTEX
  5
72E
  8
RIVERS
 10
661.86886182146043
 20
4660.5221524674625
 30
0.0
  0
VERTEX
  5
72F
  8
RIVERS
 10
661.8269655797709
 20
4660.6553557781062
 30
0.0
  0
VERTEX
  5
730
  8
RIVERS
 10
661.73100089655247
 20
4660.7508332069738
 30
0.0
  0
VERTEX
  5
731
  8
RIVERS
 10
661.66200952730469
 20
4660.889103840741
 30
0.0
  0
VERTEX
  5
732
  8
RIVERS
 10
661.58479039819554
 20
4661.0495329461492
 30
0.0
  0
VERTEX
  5
733
  8
RIVERS
 10
661.46140678919585
 20
4661.2039144801456
 30
0.0
  0
VERTEX
  5
734
  8
RIVERS
 10
661.35916287504131
 20
4661.3081543053522
 30
0.0
  0
VERTEX
  5
735
  8
RIVERS
 10
661.24179716256424
 20
4661.3729930219233
 30
0.0
  0
VERTEX
  5
736
  8
RIVERS
 10
661.10992445928969
 20
4661.4687526064754
 30
0.0
  0
VERTEX
  5
737
  8
RIVERS
 10
661.02975884572891
 20
4661.539335917505
 30
0.0
  0
VERTEX
  5
738
  8
RIVERS
 10
660.90972880448317
 20
4661.5502368597536
 30
0.0
  0
VERTEX
  5
739
  8
RIVERS
 10
660.79402946524817
 20
4661.5657714809668
 30
0.0
  0
VERTEX
  5
73A
  8
RIVERS
 10
660.60044569321974
 20
4661.6729072944663
 30
0.0
  0
VERTEX
  5
73B
  8
RIVERS
 10
660.49055029822114
 20
4661.7379984918316
 30
0.0
  0
VERTEX
  5
73C
  8
RIVERS
 10
660.39579752281509
 20
4661.797618396803
 30
0.0
  0
VERTEX
  5
73D
  8
RIVERS
 10
660.26651783088039
 20
4661.9936822202026
 30
0.0
  0
VERTEX
  5
73E
  8
RIVERS
 10
660.24811784879125
 20
4662.1928952331909
 30
0.0
  0
SEQEND
  5
73F
  8
RIVERS
  0
POLYLINE
  5
8F
  8
RIVERS
 66
     1
 10
0.0
 20
0.0
 30
0.0
  0
VERTEX
  5
740
  8
RIVERS
 10
659.26184594905874
 20
4660.1648022640848
 30
0.0
  0
VERTEX
  5
741
  8
RIVERS
 10
659.32544308292847
 20
4660.2746471629243
 30
0.0
  0
VERTEX
  5
742
  8
RIVERS
 10
659.40728080931922
 20
4660.4643843732611
 30
0.0
  0
VERTEX
  5
743
  8
RIVERS
 10
659.48095323965788
 20
4660.541662852148
 30
0.0
  0
VERTEX
  5
744
  8
RIVERS
 10
659.5959248113993
 20
4660.5919175209056
 30
0.0
  0
VERTEX
  5
745
  8
RIVERS
 10
659.704465663728
 20
4660.6554167764889
 30
0.0
  0
VERTEX
  5
746
  8
RIVERS
 10
659.76707369569056
 20
4660.7502705442121
 30
0.0
  0
VERTEX
  5
747
  8
RIVERS
 10
659.80876483871316
 20
4660.8444173657126
 30
0.0
  0
VERTEX
  5
748
  8
RIVERS
 10
659.8548876760641
 20
4660.9402097391849
 30
0.0
  0
VERTEX
  5
749
  8
RIVERS
 10
659.94903138353243
 20
4661.1198924743221
 30
0.0
  0
VERTEX
  5
74A
  8
RIVERS
 10
660.0046532383351
 20
4661.2444255273249
 30
0.0
  0
VERTEX
  5
74B
  8
RIVERS
 10
660.06912560442174
 20
4661.4825262503209
 30
0.0
  0
SEQEND
  5
74C
  8
RIVERS
  0
POLYLINE
  5
90
  8
RIVERS
 66
     1
 10
0.0
 20
0.0
 30
0.0
  0
VERTEX
  5
74D
  8
RIVERS
 10
662.24468281258544
 20
4662.455658019152
 30
0.0
  0
VERTEX
  5
74E
  8
RIVERS
 10
662.17026032692922
 20
4662.5800484404908
 30
0.0
  0
VERTEX
  5
74F
  8
RIVERS
 10
662.01162514793862
 20
4662.715289304726
 30
0.0
  0
VERTEX
  5
750
  8
RIVERS
 10
661.92738131316139
 20
4662.7737686193141
 30
0.0
  0
VERTEX
  5
751
  8
RIVERS
 10
661.80679581416837
 20
4662.8011042600147
 30
0.0
  0
VERTEX
  5
752
  8
RIVERS
 10
661.69986772489142
 20
4662.9111688507292
 30
0.0
  0
VERTEX
  5
753
  8
RIVERS
 10
661.63307736536319
 20
4663.028573091714
 30
0.0
  0
VERTEX
  5
754
  8
RIVERS
 10
661.53273148397534
 20
4663.1209109051142
 30
0.0
  0
VERTEX
  5
755
  8
RIVERS
 10
661.39919240745871
 20
4663.265974585026
 30
0.0
  0
VERTEX
  5
756
  8
RIVERS
 10
661.33124063627702
 20
4663.4177422864113
 30
0.0
  0
VERTEX
  5
757
  8
RIVERS
 10
661.27212257886265
 20
4663.5294227542081
 30
0.0
  0
VERTEX
  5
758
  8
RIVERS
 10
661.18225596321474
 20
4663.5772416396903
 30
0.0
  0
VERTEX
  5
759
  8
RIVERS
 10
660.98108456129637
 20
4663.6390234772443
 30
0.0
  0
SEQEND
  5
75A
  8
RIVERS
  0
POLYLINE
  5
91
  8
RIVERS
 66
     1
 10
0.0
 20
0.0
 30
0.0
  0
VERTEX
  5
75B
  8
RIVERS
 10
663.59652402841334
 20
4662.0254577371979
 30
0.0
  0
VERTEX
  5
75C
  8
RIVERS
 10
663.42364630707027
 20
4662.0510260123401
 30
0.0
  0
VERTEX
  5
75D
  8
RIVERS
 10
663.23714970451954
 20
4662.1254944135699
 30
0.0
  0
VERTEX
  5
75E
  8
RIVERS
 10
663.04396104814271
 20
4662.1324269805391
 30
0.0
  0
VERTEX
  5
75F
  8
RIVERS
 10
662.93299638018914
 20
4662.1406427727497
 30
0.0
  0
VERTEX
  5
760
  8
RIVERS
 10
662.7947850962006
 20
4662.1584080785706
 30
0.0
  0
VERTEX
  5
761
  8
RIVERS
 10
662.69430854760606
 20
4662.2103556814282
 30
0.0
  0
VERTEX
  5
762
  8
RIVERS
 10
662.24468281258544
 20
4662.455658019152
 30
0.0
  0
SEQEND
  5
763
  8
RIVERS
  0
POLYLINE
  5
92
  8
RIVERS
 66
     1
 10
0.0
 20
0.0
 30
0.0
  0
VERTEX
  5
764
  8
RIVERS
 10
663.49594404512402
 20
4665.842255332268
 30
0.0
  0
VERTEX
  5
765
  8
RIVERS
 10
663.33511982406435
 20
4665.8652394496903
 30
0.0
  0
VERTEX
  5
766
  8
RIVERS
 10
663.11129245539064
 20
4665.8935730459189
 30
0.0
  0
VERTEX
  5
767
  8
RIVERS
 10
662.98852676794775
 20
4665.8969026783716
 30
0.0
  0
VERTEX
  5
768
  8
RIVERS
 10
662.84882142046365
 20
4665.9146174880334
 30
0.0
  0
VERTEX
  5
769
  8
RIVERS
 10
662.67050208161515
 20
4665.9684214811168
 30
0.0
  0
VERTEX
  5
76A
  8
RIVERS
 10
662.49859264090958
 20
4666.0538532884057
 30
0.0
  0
VERTEX
  5
76B
  8
RIVERS
 10
662.39673187475614
 20
4666.1910130066772
 30
0.0
  0
VERTEX
  5
76C
  8
RIVERS
 10
662.23310069007073
 20
4666.2527922788286
 30
0.0
  0
VERTEX
  5
76D
  8
RIVERS
 10
662.14067959159104
 20
4666.3319360015621
 30
0.0
  0
VERTEX
  5
76E
  8
RIVERS
 10
662.08255063608408
 20
4666.4586076004753
 30
0.0
  0
VERTEX
  5
76F
  8
RIVERS
 10
661.95373737722957
 20
4666.5081017128177
 30
0.0
  0
VERTEX
  5
770
  8
RIVERS
 10
661.85376579022363
 20
4666.5451086807179
 30
0.0
  0
VERTEX
  5
771
  8
RIVERS
 10
661.72857628715576
 20
4666.6201533609647
 30
0.0
  0
VERTEX
  5
772
  8
RIVERS
 10
661.56656983317293
 20
4666.7223733398178
 30
0.0
  0
VERTEX
  5
773
  8
RIVERS
 10
661.49570125242849
 20
4666.8276735843619
 30
0.0
  0
VERTEX
  5
774
  8
RIVERS
 10
661.33966623860351
 20
4666.906465336906
 30
0.0
  0
SEQEND
  5
775
  8
RIVERS
  0
POLYLINE
  5
93
  8
RIVERS
 66
     1
 10
0.0
 20
0.0
 30
0.0
  0
VERTEX
  5
776
  8
RIVERS
 10
662.68584699113956
 20
4660.9117412015876
 30
0.0
  0
VERTEX
  5
777
  8
RIVERS
 10
662.57800997100321
 20
4661.0486989352239
 30
0.0
  0
VERTEX
  5
778
  8
RIVERS
 10
662.51831563457165
 20
4661.2216865025039
 30
0.0
  0
VERTEX
  5
779
  8
RIVERS
 10
662.46249753472125
 20
4661.4127543202103
 30
0.0
  0
VERTEX
  5
77A
  8
RIVERS
 10
662.46552419022089
 20
4661.5444843886271
 30
0.0
  0
VERTEX
  5
77B
  8
RIVERS
 10
662.48524687858685
 20
4661.7575503358767
 30
0.0
  0
VERTEX
  5
77C
  8
RIVERS
 10
662.42309019802235
 20
4661.8706238748528
 30
0.0
  0
VERTEX
  5
77D
  8
RIVERS
 10
662.32546799518093
 20
4662.1036561376441
 30
0.0
  0
VERTEX
  5
77E
  8
RIVERS
 10
662.32672728512057
 20
4662.2876784284117
 30
0.0
  0
VERTEX
  5
77F
  8
RIVERS
 10
662.24468281258544
 20
4662.455658019152
 30
0.0
  0
SEQEND
  5
780
  8
RIVERS
  0
POLYLINE
  5
94
  8
RIVERS
 66
     1
 10
0.0
 20
0.0
 30
0.0
  0
VERTEX
  5
781
  8
RIVERS
 10
660.75934309221577
 20
4660.0
 30
0.0
  0
VERTEX
  5
782
  8
RIVERS
 10
660.73925505444595
 20
4660.0442177420427
 30
0.0
  0
VERTEX
  5
783
  8
RIVERS
 10
660.70902916503906
 20
4660.1419170018999
 30
0.0
  0
VERTEX
  5
784
  8
RIVERS
 10
660.64755860942864
 20
4660.2789460529648
 30
0.0
  0
VERTEX
  5
785
  8
RIVERS
 10
660.57970783056464
 20
4660.4277256273608
 30
0.0
  0
VERTEX
  5
786
  8
RIVERS
 10
660.49921841878074
 20
4660.552145720394
 30
0.0
  0
VERTEX
  5
787
  8
RIVERS
 10
660.45570630000805
 20
4660.733159062901
 30
0.0
  0
VERTEX
  5
788
  8
RIVERS
 10
660.38478722310469
 20
4660.8399533709398
 30
0.0
  0
VERTEX
  5
789
  8
RIVERS
 10
660.33681373511456
 20
4660.9759428239377
 30
0.0
  0
VERTEX
  5
78A
  8
RIVERS
 10
660.25784806171555
 20
4661.1437917506664
 30
0.0
  0
VERTEX
  5
78B
  8
RIVERS
 10
660.21860729517516
 20
4661.2426820970668
 30
0.0
  0
VERTEX
  5
78C
  8
RIVERS
 10
660.06912560442174
 20
4661.4825262503209
 30
0.0
  0
SEQEND
  5
78D
  8
RIVERS
  0
POLYLINE
  5
95
  8
RIVERS
 66
     1
 10
0.0
 20
0.0
 30
0.0
  0
VERTEX
  5
78E
  8
RIVERS
 10
660.06912560442174
 20
4661.4825262503209
 30
0.0
  0
VERTEX
  5
78F
  8
RIVERS
 10
660.03097584182831
 20
4661.616266174392
 30
0.0
  0
VERTEX
  5
790
  8
RIVERS
 10
659.9996895330853
 20
4661.7453407676612
 30
0.0
  0
VERTEX
  5
791
  8
RIVERS
 10
660.02748849283603
 20
4661.9407304337556
 30
0.0
  0
VERTEX
  5
792
  8
RIVERS
 10
660.14031840463576
 20
4662.0986081703641
 30
0.0
  0
VERTEX
  5
793
  8
RIVERS
 10
660.24811784879125
 20
4662.1928952331909
 30
0.0
  0
SEQEND
  5
794
  8
RIVERS
  0
POLYLINE
  5
96
  8
RIVERS
 66
     1
 10
0.0
 20
0.0
 30
0.0
  0
VERTEX
  5
795
  8
RIVERS
 10
644.83629852537342
 20
4662.1303776448713
 30
0.0
  0
VERTEX
  5
796
  8
RIVERS
 10
644.99477597385908
 20
4662.2087940484844
 30
0.0
  0
VERTEX
  5
797
  8
RIVERS
 10
645.18136714694595
 20
4662.186550611169
 30
0.0
  0
VERTEX
  5
798
  8
RIVERS
 10
645.29272392548864
 20
4662.1731798622377
 30
0.0
  0
VERTEX
  5
799
  8
RIVERS
 10
645.47185465293205
 20
4662.1865650780719
 30
0.0
  0
VERTEX
  5
79A
  8
RIVERS
 10
645.59488859733733
 20
4662.2530365962193
 30
0.0
  0
VERTEX
  5
79B
  8
RIVERS
 10
645.72188600926279
 20
4662.2597772997669
 30
0.0
  0
VERTEX
  5
79C
  8
RIVERS
 10
645.82602920758654
 20
4662.2760559508888
 30
0.0
  0
VERTEX
  5
79D
  8
RIVERS
 10
645.97712878096297
 20
4662.2792996763128
 30
0.0
  0
VERTEX
  5
79E
  8
RIVERS
 10
646.11701044442191
 20
4662.2641119116024
 30
0.0
  0
VERTEX
  5
79F
  8
RIVERS
 10
646.24886259430605
 20
4662.2620688845727
 30
0.0
  0
VERTEX
  5
7A0
  8
RIVERS
 10
646.35439079391745
 20
4662.3173361135287
 30
0.0
  0
VERTEX
  5
7A1
  8
RIVERS
 10
646.46438981262463
 20
4662.3368512566249
 30
0.0
  0
VERTEX
  5
7A2
  8
RIVERS
 10
646.65017867308143
 20
4662.334040391871
 30
0.0
  0
VERTEX
  5
7A3
  8
RIVERS
 10
646.73901067398106
 20
4662.2134270060824
 30
0.0
  0
VERTEX
  5
7A4
  8
RIVERS
 10
646.80791637147058
 20
4662.1039698138538
 30
0.0
  0
VERTEX
  5
7A5
  8
RIVERS
 10
646.9561016553813
 20
4662.1415325282214
 30
0.0
  0
VERTEX
  5
7A6
  8
RIVERS
 10
647.10794182503162
 20
4662.1268384943587
 30
0.0
  0
VERTEX
  5
7A7
  8
RIVERS
 10
647.25286337551756
 20
4662.0983825592502
 30
0.0
  0
VERTEX
  5
7A8
  8
RIVERS
 10
647.36055164759478
 20
4662.101331323619
 30
0.0
  0
VERTEX
  5
7A9
  8
RIVERS
 10
647.53495106979187
 20
4662.1205106434809
 30
0.0
  0
VERTEX
  5
7AA
  8
RIVERS
 10
647.76138611405679
 20
4662.1626692124401
 30
0.0
  0
SEQEND
  5
7AB
  8
RIVERS
  0
POLYLINE
  5
97
  8
RIVERS
 66
     1
 10
0.0
 20
0.0
 30
0.0
  0
VERTEX
  5
7AC
  8
RIVERS
 10
648.78278706557637
 20
4662.7406208187685
 30
0.0
  0
VERTEX
  5
7AD
  8
RIVERS
 10
648.63298634146634
 20
4662.5806143220461
 30
0.0
  0
VERTEX
  5
7AE
  8
RIVERS
 10
648.52823139518785
 20
4662.5079570252492
 30
0.0
  0
VERTEX
  5
7AF
  8
RIVERS
 10
648.42319874427028
 20
4662.3668143155228
 30
0.0
  0
VERTEX
  5
7B0
  8
RIVERS
 10
648.30440237426217
 20
4662.3065071995397
 30
0.0
  0
VERTEX
  5
7B1
  8
RIVERS
 10
648.14947997084357
 20
4662.292005275739
 30
0.0
  0
VERTEX
  5
7B2
  8
RIVERS
 10
647.90236022476336
 20
4662.2155631917667
 30
0.0
  0
VERTEX
  5
7B3
  8
RIVERS
 10
647.76138611405679
 20
4662.1626692124401
 30
0.0
  0
SEQEND
  5
7B4
  8
RIVERS
  0
POLYLINE
  5
98
  8
RIVERS
 66
     1
 10
0.0
 20
0.0
 30
0.0
  0
VERTEX
  5
7B5
  8
RIVERS
 10
644.91852704295889
 20
4660.0
 30
0.0
  0
VERTEX
  5
7B6
  8
RIVERS
 10
645.21481995051545
 20
4660.3970875939658
 30
0.0
  0
VERTEX
  5
7B7
  8
RIVERS
 10
645.35857527750898
 20
4660.578214098985
 30
0.0
  0
VERTEX
  5
7B8
  8
RIVERS
 10
645.54375336167868
 20
4660.7715323548928
 30
0.0
  0
VERTEX
  5
7B9
  8
RIVERS
 10
645.6595392509613
 20
4660.9410225562278
 30
0.0
  0
VERTEX
  5
7BA
  8
RIVERS
 10
645.79505267385923
 20
4661.0679037688924
 30
0.0
  0
VERTEX
  5
7BB
  8
RIVERS
 10
645.91279986581264
 20
4661.1536227105307
 30
0.0
  0
VERTEX
  5
7BC
  8
RIVERS
 10
646.00975672536993
 20
4661.2714252315673
 30
0.0
  0
VERTEX
  5
7BD
  8
RIVERS
 10
646.12503526307705
 20
4661.4169367041632
 30
0.0
  0
VERTEX
  5
7BE
  8
RIVERS
 10
646.26837942975533
 20
4661.4992203840347
 30
0.0
  0
VERTEX
  5
7BF
  8
RIVERS
 10
646.52057085855154
 20
4661.5201141411426
 30
0.0
  0
VERTEX
  5
7C0
  8
RIVERS
 10
646.70400087674807
 20
4661.5381689458673
 30
0.0
  0
VERTEX
  5
7C1
  8
RIVERS
 10
646.88396115827402
 20
4661.6039960590006
 30
0.0
  0
VERTEX
  5
7C2
  8
RIVERS
 10
647.03386726670544
 20
4661.7449477546934
 30
0.0
  0
VERTEX
  5
7C3
  8
RIVERS
 10
647.19298912020497
 20
4661.8802904954246
 30
0.0
  0
VERTEX
  5
7C4
  8
RIVERS
 10
647.35245403038925
 20
4661.9347898866563
 30
0.0
  0
VERTEX
  5
7C5
  8
RIVERS
 10
647.47180584760281
 20
4661.9816436831734
 30
0.0
  0
VERTEX
  5
7C6
  8
RIVERS
 10
647.63297796158167
 20
4662.1035948207982
 30
0.0
  0
VERTEX
  5
7C7
  8
RIVERS
 10
647.76138611405679
 20
4662.1626692124401
 30
0.0
  0
SEQEND
  5
7C8
  8
RIVERS
  0
POLYLINE
  5
99
  8
RIVERS
 66
     1
 10
0.0
 20
0.0
 30
0.0
  0
VERTEX
  5
7C9
  8
RIVERS
 10
648.47504090692723
 20
4660.0
 30
0.0
  0
VERTEX
  5
7CA
  8
RIVERS
 10
648.45190746804474
 20
4660.2207834265018
 30
0.0
  0
VERTEX
  5
7CB
  8
RIVERS
 10
648.44980187848364
 20
4660.4168508308076
 30
0.0
  0
VERTEX
  5
7CC
  8
RIVERS
 10
648.42086498707465
 20
4660.6462497623588
 30
0.0
  0
VERTEX
  5
7CD
  8
RIVERS
 10
648.42155025426666
 20
4660.8109878042687
 30
0.0
  0
VERTEX
  5
7CE
  8
RIVERS
 10
648.45750749719707
 20
4661.0280924063936
 30
0.0
  0
VERTEX
  5
7CF
  8
RIVERS
 10
648.47437522425139
 20
4661.163551346388
 30
0.0
  0
VERTEX
  5
7D0
  8
RIVERS
 10
648.51438489251029
 20
4661.3913047905007
 30
0.0
  0
VERTEX
  5
7D1
  8
RIVERS
 10
648.54659829189279
 20
4661.5902864842719
 30
0.0
  0
VERTEX
  5
7D2
  8
RIVERS
 10
648.59017388808275
 20
4661.6954035235676
 30
0.0
  0
VERTEX
  5
7D3
  8
RIVERS
 10
648.66714272787385
 20
4661.825857051439
 30
0.0
  0
VERTEX
  5
7D4
  8
RIVERS
 10
648.72212138304963
 20
4661.9449211410483
 30
0.0
  0
VERTEX
  5
7D5
  8
RIVERS
 10
648.75561720518533
 20
4662.0765745211384
 30
0.0
  0
VERTEX
  5
7D6
  8
RIVERS
 10
648.74976777207644
 20
4662.2545190170877
 30
0.0
  0
VERTEX
  5
7D7
  8
RIVERS
 10
648.7582012125149
 20
4662.4854608575433
 30
0.0
  0
VERTEX
  5
7D8
  8
RIVERS
 10
648.78278706557637
 20
4662.7406208187685
 30
0.0
  0
SEQEND
  5
7D9
  8
RIVERS
  0
POLYLINE
  5
9A
  8
RIVERS
 66
     1
 10
0.0
 20
0.0
 30
0.0
  0
VERTEX
  5
7DA
  8
RIVERS
 10
655.72215816659127
 20
4678.9947194390252
 30
0.0
  0
VERTEX
  5
7DB
  8
RIVERS
 10
655.77413616346666
 20
4678.8388854794039
 30
0.0
  0
VERTEX
  5
7DC
  8
RIVERS
 10
655.78584015894808
 20
4678.7982956165006
 30
0.0
  0
VERTEX
  5
7DD
  8
RIVERS
 10
655.85603230314769
 20
4678.6634772568732
 30
0.0
  0
VERTEX
  5
7DE
  8
RIVERS
 10
655.90554638754054
 20
4678.6071803299892
 30
0.0
  0
VERTEX
  5
7DF
  8
RIVERS
 10
655.95999748093027
 20
4678.55862188215
 30
0.0
  0
VERTEX
  5
7E0
  8
RIVERS
 10
656.02228950430253
 20
4678.5000357399113
 30
0.0
  0
VERTEX
  5
7E1
  8
RIVERS
 10
656.09214071757708
 20
4678.4454212881301
 30
0.0
  0
VERTEX
  5
7E2
  8
RIVERS
 10
656.16838090034139
 20
4678.3896622286729
 30
0.0
  0
VERTEX
  5
7E3
  8
RIVERS
 10
656.21797182293801
 20
4678.3295472877362
 30
0.0
  0
VERTEX
  5
7E4
  8
RIVERS
 10
656.26636691238707
 20
4678.2655887200117
 30
0.0
  0
VERTEX
  5
7E5
  8
RIVERS
 10
656.32499459811345
 20
4678.1992897114633
 30
0.0
  0
VERTEX
  5
7E6
  8
RIVERS
 10
656.36697510533838
 20
4678.1377484227687
 30
0.0
  0
VERTEX
  5
7E7
  8
RIVERS
 10
656.40096100617382
 20
4678.0938708565809
 30
0.0
  0
VERTEX
  5
7E8
  8
RIVERS
 10
656.43359739745449
 20
4678.0537856917108
 30
0.0
  0
VERTEX
  5
7E9
  8
RIVERS
 10
656.47947275693616
 20
4677.9885032271677
 30
0.0
  0
VERTEX
  5
7EA
  8
RIVERS
 10
656.53326588460368
 20
4677.9093750541688
 30
0.0
  0
VERTEX
  5
7EB
  8
RIVERS
 10
656.58875913473378
 20
4677.8722962612228
 30
0.0
  0
VERTEX
  5
7EC
  8
RIVERS
 10
656.63794025357765
 20
4677.8325440619028
 30
0.0
  0
VERTEX
  5
7ED
  8
RIVERS
 10
656.66540912125072
 20
4677.7961744601498
 30
0.0
  0
VERTEX
  5
7EE
  8
RIVERS
 10
656.68106536848086
 20
4677.7773917426994
 30
0.0
  0
VERTEX
  5
7EF
  8
RIVERS
 10
656.68373877485556
 20
4677.7710796114134
 30
0.0
  0
VERTEX
  5
7F0
  8
RIVERS
 10
656.83142784241875
 20
4677.707846165632
 30
0.0
  0
VERTEX
  5
7F1
  8
RIVERS
 10
656.90450797685196
 20
4677.6825799931294
 30
0.0
  0
VERTEX
  5
7F2
  8
RIVERS
 10
657.00047058286918
 20
4677.6590475211988
 30
0.0
  0
VERTEX
  5
7F3
  8
RIVERS
 10
657.10266848196864
 20
4677.6420064696977
 30
0.0
  0
VERTEX
  5
7F4
  8
RIVERS
 10
657.20494321927174
 20
4677.6211474041411
 30
0.0
  0
VERTEX
  5
7F5
  8
RIVERS
 10
657.27649455500864
 20
4677.6085823324156
 30
0.0
  0
VERTEX
  5
7F6
  8
RIVERS
 10
657.35713387934447
 20
4677.5872878503733
 30
0.0
  0
VERTEX
  5
7F7
  8
RIVERS
 10
657.43013717557415
 20
4677.5658396919234
 30
0.0
  0
VERTEX
  5
7F8
  8
RIVERS
 10
657.50214954053286
 20
4677.5303665358779
 30
0.0
  0
VERTEX
  5
7F9
  8
RIVERS
 10
657.58615381507593
 20
4677.4683977960713
 30
0.0
  0
VERTEX
  5
7FA
  8
RIVERS
 10
657.66587904634423
 20
4677.4292603023796
 30
0.0
  0
VERTEX
  5
7FB
  8
RIVERS
 10
657.74163258715225
 20
4677.397681998591
 30
0.0
  0
VERTEX
  5
7FC
  8
RIVERS
 10
657.83141112555597
 20
4677.3651127635321
 30
0.0
  0
VERTEX
  5
7FD
  8
RIVERS
 10
657.90426074537856
 20
4677.3513006331887
 30
0.0
  0
VERTEX
  5
7FE
  8
RIVERS
 10
657.99251048508586
 20
4677.3314324989051
 30
0.0
  0
VERTEX
  5
7FF
  8
RIVERS
 10
658.10155838289677
 20
4677.2903387554061
 30
0.0
  0
VERTEX
  5
800
  8
RIVERS
 10
658.1837777313981
 20
4677.253797829886
 30
0.0
  0
VERTEX
  5
801
  8
RIVERS
 10
658.27202747110539
 20
4677.2339296956015
 30
0.0
  0
VERTEX
  5
802
  8
RIVERS
 10
658.33742035196349
 20
4677.2110551893938
 30
0.0
  0
VERTEX
  5
803
  8
RIVERS
 10
658.43613320255895
 20
4677.1773925721254
 30
0.0
  0
VERTEX
  5
804
  8
RIVERS
 10
658.51066529748505
 20
4677.1432433129003
 30
0.0
  0
VERTEX
  5
805
  8
RIVERS
 10
658.573640899314
 20
4677.1139542244682
 30
0.0
  0
VERTEX
  5
806
  8
RIVERS
 10
658.66479456000695
 20
4677.0763199167377
 30
0.0
  0
VERTEX
  5
807
  8
RIVERS
 10
658.74059932628404
 20
4677.0421962702476
 30
0.0
  0
VERTEX
  5
808
  8
RIVERS
 10
658.78435679417487
 20
4677.0188863475532
 30
0.0
  0
VERTEX
  5
809
  8
RIVERS
 10
658.82310041486528
 20
4676.991655959866
 30
0.0
  0
VERTEX
  5
80A
  8
RIVERS
 10
658.85680457562069
 20
4676.9617777785397
 30
0.0
  0
VERTEX
  5
80B
  8
RIVERS
 10
658.87401523428196
 20
4676.9290212889618
 30
0.0
  0
VERTEX
  5
80C
  8
RIVERS
 10
658.88465763431179
 20
4676.9063181065212
 30
0.0
  0
VERTEX
  5
80D
  8
RIVERS
 10
658.89553054895237
 20
4676.8721608819187
 30
0.0
  0
VERTEX
  5
80E
  8
RIVERS
 10
658.91450052092091
 20
4676.8152492494073
 30
0.0
  0
VERTEX
  5
80F
  8
RIVERS
 10
658.91984733367042
 20
4676.8026249868353
 30
0.0
  0
VERTEX
  5
810
  8
RIVERS
 10
658.92498924454355
 20
4676.8001820950712
 30
0.0
  0
VERTEX
  5
811
  8
RIVERS
 10
658.98570920912618
 20
4676.6931832160226
 30
0.0
  0
VERTEX
  5
812
  8
RIVERS
 10
658.99683825111231
 20
4676.6462992779116
 30
0.0
  0
VERTEX
  5
813
  8
RIVERS
 10
659.00758310208016
 20
4676.6185054100661
 30
0.0
  0
VERTEX
  5
814
  8
RIVERS
 10
659.02619449576525
 20
4676.5794111764681
 30
0.0
  0
VERTEX
  5
815
  8
RIVERS
 10
659.06443382714065
 20
4676.5139750355183
 30
0.0
  0
VERTEX
  5
816
  8
RIVERS
 10
659.10083700700545
 20
4676.476512051554
 30
0.0
  0
VERTEX
  5
817
  8
RIVERS
 10
659.12550440463099
 20
4676.4528179378403
 30
0.0
  0
VERTEX
  5
818
  8
RIVERS
 10
659.16852706859606
 20
4676.4027563040399
 30
0.0
  0
VERTEX
  5
819
  8
RIVERS
 10
659.21669164343439
 20
4676.3502517784736
 30
0.0
  0
VERTEX
  5
81A
  8
RIVERS
 10
659.27852263758496
 20
4676.3145737205532
 30
0.0
  0
VERTEX
  5
81B
  8
RIVERS
 10
659.31090290152008
 20
4676.2872152691943
 30
0.0
  0
VERTEX
  5
81C
  8
RIVERS
 10
659.37446759624345
 20
4676.2286547396889
 30
0.0
  0
VERTEX
  5
81D
  8
RIVERS
 10
659.44872591646549
 20
4676.1448456850403
 30
0.0
  0
VERTEX
  5
81E
  8
RIVERS
 10
659.49824000085835
 20
4676.0885487581563
 30
0.0
  0
VERTEX
  5
81F
  8
RIVERS
 10
659.54663509030763
 20
4676.0245901904318
 30
0.0
  0
VERTEX
  5
820
  8
RIVERS
 10
659.61315493148527
 20
4675.9457181447797
 30
0.0
  0
VERTEX
  5
821
  8
RIVERS
 10
659.66799021589316
 20
4675.8780696266749
 30
0.0
  0
VERTEX
  5
822
  8
RIVERS
 10
659.70159192571055
 20
4675.8532821307517
 30
0.0
  0
VERTEX
  5
823
  8
RIVERS
 10
659.73656875781694
 20
4675.8234295621614
 30
0.0
  0
VERTEX
  5
824
  8
RIVERS
 10
659.77982193639286
 20
4675.7619138862001
 30
0.0
  0
VERTEX
  5
825
  8
RIVERS
 10
659.79820281546688
 20
4675.7342736947621
 30
0.0
  0
VERTEX
  5
826
  8
RIVERS
 10
659.81465305746804
 20
4675.6760381654303
 30
0.0
  0
VERTEX
  5
827
  8
RIVERS
 10
659.85202952124519
 20
4675.5902136701279
 30
0.0
  0
VERTEX
  5
828
  8
RIVERS
 10
659.86679728814249
 20
4675.552315269676
 30
0.0
  0
VERTEX
  5
829
  8
RIVERS
 10
659.89052497996613
 20
4675.5120508156651
 30
0.0
  0
VERTEX
  5
82A
  8
RIVERS
 10
659.93492276622044
 20
4675.4569241091949
 30
0.0
  0
VERTEX
  5
82B
  8
RIVERS
 10
659.97662153336535
 20
4675.409382205361
 30
0.0
  0
VERTEX
  5
82C
  8
RIVERS
 10
659.99864113735077
 20
4675.390727551584
 30
0.0
  0
VERTEX
  5
82D
  8
RIVERS
 10
660.04036551723027
 20
4675.3419129763988
 30
0.0
  0
VERTEX
  5
82E
  8
RIVERS
 10
660.0721390409127
 20
4675.2814394571787
 30
0.0
  0
VERTEX
  5
82F
  8
RIVERS
 10
660.10513401047695
 20
4675.2235368933962
 30
0.0
  0
VERTEX
  5
830
  8
RIVERS
 10
660.1431428272416
 20
4675.1695547946047
 30
0.0
  0
VERTEX
  5
831
  8
RIVERS
 10
660.16699858273785
 20
4675.1229269838386
 30
0.0
  0
VERTEX
  5
832
  8
RIVERS
 10
660.18713877511925
 20
4675.0711316494644
 30
0.0
  0
VERTEX
  5
833
  8
RIVERS
 10
660.19636279276665
 20
4674.9923797021092
 30
0.0
  0
VERTEX
  5
834
  8
RIVERS
 10
660.18876034277105
 20
4674.9272941740646
 30
0.0
  0
VERTEX
  5
835
  8
RIVERS
 10
660.17721181504965
 20
4674.8684951645728
 30
0.0
  0
VERTEX
  5
836
  8
RIVERS
 10
660.17296634988554
 20
4674.8263945590506
 30
0.0
  0
VERTEX
  5
837
  8
RIVERS
 10
660.17580139804329
 20
4674.7487872193742
 30
0.0
  0
VERTEX
  5
838
  8
RIVERS
 10
660.18056708327435
 20
4674.7017752175898
 30
0.0
  0
VERTEX
  5
839
  8
RIVERS
 10
660.20689134326904
 20
4674.6590166463448
 30
0.0
  0
VERTEX
  5
83A
  8
RIVERS
 10
660.22776633957596
 20
4674.6339730230793
 30
0.0
  0
VERTEX
  5
83B
  8
RIVERS
 10
660.23049097141995
 20
4674.62511554909
 30
0.0
  0
VERTEX
  5
83C
  8
RIVERS
 10
660.24370432688636
 20
4674.6011909207673
 30
0.0
  0
VERTEX
  5
83D
  8
RIVERS
 10
660.2702334887573
 20
4674.5482509787143
 30
0.0
  0
VERTEX
  5
83E
  8
RIVERS
 10
660.26926817022081
 20
4674.5329533097674
 30
0.0
  0
VERTEX
  5
83F
  8
RIVERS
 10
660.28645321614749
 20
4674.5014694915399
 30
0.0
  0
VERTEX
  5
840
  8
RIVERS
 10
660.3335244087765
 20
4674.4400306537837
 30
0.0
  0
VERTEX
  5
841
  8
RIVERS
 10
660.36478567776805
 20
4674.4050105615852
 30
0.0
  0
VERTEX
  5
842
  8
RIVERS
 10
660.40516054809302
 20
4674.3599883877196
 30
0.0
  0
VERTEX
  5
843
  8
RIVERS
 10
660.43408137625875
 20
4674.3147356992422
 30
0.0
  0
VERTEX
  5
844
  8
RIVERS
 10
660.46206249862257
 20
4674.2529126704667
 30
0.0
  0
VERTEX
  5
845
  8
RIVERS
 10
660.48561090130443
 20
4674.2215569159143
 30
0.0
  0
VERTEX
  5
846
  8
RIVERS
 10
660.51608614090105
 20
4674.1623304553113
 30
0.0
  0
VERTEX
  5
847
  8
RIVERS
 10
660.54401603779581
 20
4674.1030527692383
 30
0.0
  0
VERTEX
  5
848
  8
RIVERS
 10
660.54862804661957
 20
4674.0636767955602
 30
0.0
  0
VERTEX
  5
849
  8
RIVERS
 10
660.55089961461761
 20
4674.0140682256051
 30
0.0
  0
VERTEX
  5
84A
  8
RIVERS
 10
660.54800365900792
 20
4673.9681752187662
 30
0.0
  0
VERTEX
  5
84B
  8
RIVERS
 10
660.53276518090615
 20
4673.902936014314
 30
0.0
  0
VERTEX
  5
84C
  8
RIVERS
 10
660.52742633353273
 20
4673.8519010965992
 30
0.0
  0
VERTEX
  5
84D
  8
RIVERS
 10
660.51995194720973
 20
4673.7804522118022
 30
0.0
  0
VERTEX
  5
84E
  8
RIVERS
 10
660.5112817277394
 20
4673.7051597002146
 30
0.0
  0
VERTEX
  5
84F
  8
RIVERS
 10
660.50077535675814
 20
4673.6578403456169
 30
0.0
  0
VERTEX
  5
850
  8
RIVERS
 10
660.49772572474114
 20
4673.6195833668817
 30
0.0
  0
VERTEX
  5
851
  8
RIVERS
 10
660.48103528614683
 20
4673.5632272491548
 30
0.0
  0
VERTEX
  5
852
  8
RIVERS
 10
660.48806457399985
 20
4673.5302658577011
 30
0.0
  0
VERTEX
  5
853
  8
RIVERS
 10
660.5155334416728
 20
4673.4938962559463
 30
0.0
  0
VERTEX
  5
854
  8
RIVERS
 10
660.54758074005906
 20
4673.4830825321496
 30
0.0
  0
VERTEX
  5
855
  8
RIVERS
 10
660.59337129596122
 20
4673.4852772619452
 30
0.0
  0
VERTEX
  5
856
  8
RIVERS
 10
660.63035560334436
 20
4673.4822020171932
 30
0.0
  0
VERTEX
  5
857
  8
RIVERS
 10
660.66744236166574
 20
4673.4740360870383
 30
0.0
  0
VERTEX
  5
858
  8
RIVERS
 10
660.68098868268112
 20
4673.4335667311507
 30
0.0
  0
VERTEX
  5
859
  8
RIVERS
 10
660.67513758061682
 20
4673.4079852404584
 30
0.0
  0
VERTEX
  5
85A
  8
RIVERS
 10
660.66333292554987
 20
4673.361912944476
 30
0.0
  0
VERTEX
  5
85B
  8
RIVERS
 10
660.63669163075815
 20
4673.2938978827124
 30
0.0
  0
VERTEX
  5
85C
  8
RIVERS
 10
660.5968369804998
 20
4673.2498074492723
 30
0.0
  0
VERTEX
  5
85D
  8
RIVERS
 10
660.55810132518536
 20
4673.2133786566719
 30
0.0
  0
VERTEX
  5
85E
  8
RIVERS
 10
660.55357411994135
 20
4673.1852774360123
 30
0.0
  0
VERTEX
  5
85F
  8
RIVERS
 10
660.58015450728135
 20
4673.1297921512578
 30
0.0
  0
VERTEX
  5
860
  8
RIVERS
 10
660.60195156203167
 20
4673.058932359354
 30
0.0
  0
VERTEX
  5
861
  8
RIVERS
 10
660.62094714673492
 20
4673.0007480554923
 30
0.0
  0
VERTEX
  5
862
  8
RIVERS
 10
660.62413280780027
 20
4672.9689824971838
 30
0.0
  0
VERTEX
  5
863
  8
RIVERS
 10
660.62915462037677
 20
4672.9092437818899
 30
0.0
  0
VERTEX
  5
864
  8
RIVERS
 10
660.63203292862784
 20
4672.8927502797951
 30
0.0
  0
VERTEX
  5
865
  8
RIVERS
 10
660.67844615553474
 20
4672.800741716881
 30
0.0
  0
VERTEX
  5
866
  8
RIVERS
 10
660.69906502449646
 20
4672.7884248071232
 30
0.0
  0
VERTEX
  5
867
  8
RIVERS
 10
660.71576342846674
 20
4672.781121744566
 30
0.0
  0
VERTEX
  5
868
  8
RIVERS
 10
660.73658719930495
 20
4672.7586234640003
 30
0.0
  0
VERTEX
  5
869
  8
RIVERS
 10
660.77052187467098
 20
4672.7172912405149
 30
0.0
  0
VERTEX
  5
86A
  8
RIVERS
 10
660.7774230988515
 20
4672.6906932058164
 30
0.0
  0
VERTEX
  5
86B
  8
RIVERS
 10
660.77391243761292
 20
4672.6753443114003
 30
0.0
  0
VERTEX
  5
86C
  8
RIVERS
 10
660.76663498779044
 20
4672.6573732360803
 30
0.0
  0
VERTEX
  5
86D
  8
RIVERS
 10
660.75536023477298
 20
4672.6482340220109
 30
0.0
  0
VERTEX
  5
86E
  8
RIVERS
 10
660.73021416056713
 20
4672.6324497111082
 30
0.0
  0
VERTEX
  5
86F
  8
RIVERS
 10
660.71130337944362
 20
4672.6231568206331
 30
0.0
  0
VERTEX
  5
870
  8
RIVERS
 10
660.6837400262084
 20
4672.600957927506
 30
0.0
  0
VERTEX
  5
871
  8
RIVERS
 10
660.65251233532729
 20
4672.5710461680683
 30
0.0
  0
VERTEX
  5
872
  8
RIVERS
 10
660.6518287568706
 20
4672.5417491142607
 30
0.0
  0
VERTEX
  5
873
  8
RIVERS
 10
660.65501441793629
 20
4672.509983555954
 30
0.0
  0
VERTEX
  5
874
  8
RIVERS
 10
660.67617115432324
 20
4672.4709405478252
 30
0.0
  0
VERTEX
  5
875
  8
RIVERS
 10
660.7254034986363
 20
4672.4286430058037
 30
0.0
  0
VERTEX
  5
876
  8
RIVERS
 10
660.80090091209888
 20
4672.4097914155263
 30
0.0
  0
VERTEX
  5
877
  8
RIVERS
 10
660.86166413677461
 20
4672.3639063740611
 30
0.0
  0
VERTEX
  5
878
  8
RIVERS
 10
660.88310261324148
 20
4672.3108639810707
 30
0.0
  0
VERTEX
  5
879
  8
RIVERS
 10
660.91520910247289
 20
4672.2338457342876
 30
0.0
  0
VERTEX
  5
87A
  8
RIVERS
 10
660.9016961906018
 20
4672.0996323000363
 30
0.0
  0
VERTEX
  5
87B
  8
RIVERS
 10
660.97952127361714
 20
4671.9212744326787
 30
0.0
  0
VERTEX
  5
87C
  8
RIVERS
 10
661.03046206732881
 20
4671.8302583730292
 30
0.0
  0
VERTEX
  5
87D
  8
RIVERS
 10
661.05701370479028
 20
4671.7085026087643
 30
0.0
  0
VERTEX
  5
87E
  8
RIVERS
 10
660.97062247048393
 20
4671.5649803744764
 30
0.0
  0
VERTEX
  5
87F
  8
RIVERS
 10
660.91429366945715
 20
4671.4613642104132
 30
0.0
  0
VERTEX
  5
880
  8
RIVERS
 10
660.90989476404957
 20
4671.281723117816
 30
0.0
  0
VERTEX
  5
881
  8
RIVERS
 10
660.97926928129823
 20
4671.1763723771137
 30
0.0
  0
VERTEX
  5
882
  8
RIVERS
 10
661.04813883695851
 20
4671.0859622713688
 30
0.0
  0
VERTEX
  5
883
  8
RIVERS
 10
661.1097905559343
 20
4670.987829367351
 30
0.0
  0
VERTEX
  5
884
  8
RIVERS
 10
661.09017771350545
 20
4670.8600260316744
 30
0.0
  0
VERTEX
  5
885
  8
RIVERS
 10
661.03447568765489
 20
4670.6936087046342
 30
0.0
  0
VERTEX
  5
886
  8
RIVERS
 10
661.01709352983437
 20
4670.588317313709
 30
0.0
  0
VERTEX
  5
887
  8
RIVERS
 10
661.03624616724619
 20
4670.4199426041232
 30
0.0
  0
VERTEX
  5
888
  8
RIVERS
 10
661.07085325482274
 20
4670.3253829597343
 30
0.0
  0
VERTEX
  5
889
  8
RIVERS
 10
661.22001023763141
 20
4670.1165290149374
 30
0.0
  0
VERTEX
  5
88A
  8
RIVERS
 10
661.31440953992535
 20
4670.0673675544358
 30
0.0
  0
VERTEX
  5
88B
  8
RIVERS
 10
661.33300671958978
 20
4669.9154275433029
 30
0.0
  0
VERTEX
  5
88C
  8
RIVERS
 10
661.29741364413746
 20
4669.7736221784162
 30
0.0
  0
VERTEX
  5
88D
  8
RIVERS
 10
661.24974624713207
 20
4669.6792733722814
 30
0.0
  0
VERTEX
  5
88E
  8
RIVERS
 10
661.28262761168855
 20
4669.54726114818
 30
0.0
  0
VERTEX
  5
88F
  8
RIVERS
 10
661.286212838967
 20
4669.4411826399846
 30
0.0
  0
VERTEX
  5
890
  8
RIVERS
 10
661.32720014979725
 20
4669.3348724722646
 30
0.0
  0
VERTEX
  5
891
  8
RIVERS
 10
661.20687909924914
 20
4669.2216146558931
 30
0.0
  0
VERTEX
  5
892
  8
RIVERS
 10
661.24333372343335
 20
4669.1166470631933
 30
0.0
  0
VERTEX
  5
893
  8
RIVERS
 10
661.39576984253586
 20
4669.0320528693346
 30
0.0
  0
VERTEX
  5
894
  8
RIVERS
 10
661.48334642379723
 20
4668.8749653640307
 30
0.0
  0
VERTEX
  5
895
  8
RIVERS
 10
661.4686702372851
 20
4668.7338669453693
 30
0.0
  0
VERTEX
  5
896
  8
RIVERS
 10
661.33817289795024
 20
4668.6561636759398
 30
0.0
  0
VERTEX
  5
897
  8
RIVERS
 10
661.21170328367293
 20
4668.59205846645
 30
0.0
  0
VERTEX
  5
898
  8
RIVERS
 10
661.30765911327217
 20
4668.4083302990166
 30
0.0
  0
VERTEX
  5
899
  8
RIVERS
 10
661.27933437066315
 20
4668.2727536689072
 30
0.0
  0
VERTEX
  5
89A
  8
RIVERS
 10
661.29707311562709
 20
4668.1462127372024
 30
0.0
  0
VERTEX
  5
89B
  8
RIVERS
 10
661.46297662746076
 20
4668.0172006077428
 30
0.0
  0
VERTEX
  5
89C
  8
RIVERS
 10
661.4137349959118
 20
4667.8809170314107
 30
0.0
  0
VERTEX
  5
89D
  8
RIVERS
 10
661.29098127611974
 20
4667.7511235242691
 30
0.0
  0
VERTEX
  5
89E
  8
RIVERS
 10
661.36876471659525
 20
4667.662510458973
 30
0.0
  0
VERTEX
  5
89F
  8
RIVERS
 10
661.5073206200766
 20
4667.5460359701156
 30
0.0
  0
VERTEX
  5
8A0
  8
RIVERS
 10
661.42693531464204
 20
4667.4460940579993
 30
0.0
  0
VERTEX
  5
8A1
  8
RIVERS
 10
661.31578062970368
 20
4667.3271629645978
 30
0.0
  0
VERTEX
  5
8A2
  8
RIVERS
 10
661.36005019085917
 20
4667.1237386696566
 30
0.0
  0
VERTEX
  5
8A3
  8
RIVERS
 10
661.34287001767427
 20
4667.0124710247501
 30
0.0
  0
VERTEX
  5
8A4
  8
RIVERS
 10
661.33966623860351
 20
4666.906465336906
 30
0.0
  0
SEQEND
  5
8A5
  8
RIVERS
  0
POLYLINE
  5
9B
  8
RIVERS
 66
     1
 10
0.0
 20
0.0
 30
0.0
  0
VERTEX
  5
8A6
  8
RIVERS
 10
643.14948199709465
 20
4672.4555267874921
 30
0.0
  0
VERTEX
  5
8A7
  8
RIVERS
 10
643.021079154125
 20
4672.4469756102799
 30
0.0
  0
VERTEX
  5
8A8
  8
RIVERS
 10
642.97620432262704
 20
4672.4468641032609
 30
0.0
  0
VERTEX
  5
8A9
  8
RIVERS
 10
642.93093603589068
 20
4672.4268169701381
 30
0.0
  0
VERTEX
  5
8AA
  8
RIVERS
 10
642.88642845731658
 20
4672.3947887885888
 30
0.0
  0
VERTEX
  5
8AB
  8
RIVERS
 10
642.82970375717468
 20
4672.3500385232146
 30
0.0
  0
VERTEX
  5
8AC
  8
RIVERS
 10
642.80397764130498
 20
4672.3096623087467
 30
0.0
  0
VERTEX
  5
8AD
  8
RIVERS
 10
642.79486237067181
 20
4672.2520063751381
 30
0.0
  0
VERTEX
  5
8AE
  8
RIVERS
 10
642.76131285690303
 20
4672.1689062738797
 30
0.0
  0
VERTEX
  5
8AF
  8
RIVERS
 10
642.72510743617102
 20
4672.102810473094
 30
0.0
  0
VERTEX
  5
8B0
  8
RIVERS
 10
642.68700681663802
 20
4672.0417379243599
 30
0.0
  0
VERTEX
  5
8B1
  8
RIVERS
 10
642.64505678121748
 20
4671.9877215358101
 30
0.0
  0
VERTEX
  5
8B2
  8
RIVERS
 10
642.58176121038662
 20
4671.9131858678493
 30
0.0
  0
VERTEX
  5
8B3
  8
RIVERS
 10
642.52779078101742
 20
4671.8564152085282
 30
0.0
  0
VERTEX
  5
8B4
  8
RIVERS
 10
642.47622704225898
 20
4671.8205376110909
 30
0.0
  0
VERTEX
  5
8B5
  8
RIVERS
 10
642.42769299294002
 20
4671.7865945579788
 30
0.0
  0
VERTEX
  5
8B6
  8
RIVERS
 10
642.37005020254037
 20
4671.745851090589
 30
0.0
  0
VERTEX
  5
8B7
  8
RIVERS
 10
642.31268283080783
 20
4671.7190625614712
 30
0.0
  0
VERTEX
  5
8B8
  8
RIVERS
 10
642.26921137906277
 20
4671.689008269771
 30
0.0
  0
VERTEX
  5
8B9
  8
RIVERS
 10
642.21561473217002
 20
4671.6511764552479
 30
0.0
  0
VERTEX
  5
8BA
  8
RIVERS
 10
642.13630560846025
 20
4671.5919570006226
 30
0.0
  0
VERTEX
  5
8BB
  8
RIVERS
 10
642.08614130553997
 20
4671.5363010179899
 30
0.0
  0
VERTEX
  5
8BC
  8
RIVERS
 10
642.02239989959935
 20
4671.4969172794808
 30
0.0
  0
VERTEX
  5
8BD
  8
RIVERS
 10
641.94528223769601
 20
4671.4529313268004
 30
0.0
  0
VERTEX
  5
8BE
  8
RIVERS
 10
641.88468070562863
 20
4671.3971749206376
 30
0.0
  0
VERTEX
  5
8BF
  8
RIVERS
 10
641.839520310995
 20
4671.2863937654538
 30
0.0
  0
VERTEX
  5
8C0
  8
RIVERS
 10
641.82544206430885
 20
4671.1997704046216
 30
0.0
  0
VERTEX
  5
8C1
  8
RIVERS
 10
641.78767944847834
 20
4671.09502511147
 30
0.0
  0
VERTEX
  5
8C2
  8
RIVERS
 10
641.7301030205366
 20
4671.0348242995387
 30
0.0
  0
VERTEX
  5
8C3
  8
RIVERS
 10
641.66355170374618
 20
4670.9775194757694
 30
0.0
  0
VERTEX
  5
8C4
  8
RIVERS
 10
641.62094298803117
 20
4670.9114979950809
 30
0.0
  0
VERTEX
  5
8C5
  8
RIVERS
 10
641.59916569195582
 20
4670.8501504596561
 30
0.0
  0
VERTEX
  5
8C6
  8
RIVERS
 10
641.59087942158999
 20
4670.781476876522
 30
0.0
  0
VERTEX
  5
8C7
  8
RIVERS
 10
641.55118104025394
 20
4670.7229392519466
 30
0.0
  0
VERTEX
  5
8C8
  8
RIVERS
 10
641.50229257679302
 20
4670.6896631065629
 30
0.0
  0
VERTEX
  5
8C9
  8
RIVERS
 10
641.4415906211965
 20
4670.644343929549
 30
0.0
  0
VERTEX
  5
8CA
  8
RIVERS
 10
641.37792094634801
 20
4670.5975050273628
 30
0.0
  0
VERTEX
  5
8CB
  8
RIVERS
 10
641.33796433308055
 20
4670.5658059920243
 30
0.0
  0
VERTEX
  5
8CC
  8
RIVERS
 10
641.31310454800575
 20
4670.5148669933096
 30
0.0
  0
VERTEX
  5
8CD
  8
RIVERS
 10
641.29723399799786
 20
4670.4595409737012
 30
0.0
  0
VERTEX
  5
8CE
  8
RIVERS
 10
641.28880426544833
 20
4670.4057777179187
 30
0.0
  0
VERTEX
  5
8CF
  8
RIVERS
 10
641.27134225917632
 20
4670.3608745812389
 30
0.0
  0
VERTEX
  5
8D0
  8
RIVERS
 10
641.24223891538975
 20
4670.2860360201048
 30
0.0
  0
VERTEX
  5
8D1
  8
RIVERS
 10
641.216017213545
 20
4670.2216633805538
 30
0.0
  0
VERTEX
  5
8D2
  8
RIVERS
 10
641.18824709409148
 20
4670.1632405257269
 30
0.0
  0
VERTEX
  5
8D3
  8
RIVERS
 10
641.16064912925856
 20
4670.0869252780758
 30
0.0
  0
VERTEX
  5
8D4
  8
RIVERS
 10
641.13576065174675
 20
4670.038968344832
 30
0.0
  0
VERTEX
  5
8D5
  8
RIVERS
 10
641.10047798374285
 20
4669.9864378898546
 30
0.0
  0
VERTEX
  5
8D6
  8
RIVERS
 10
641.02493743188541
 20
4669.93352008698
 30
0.0
  0
VERTEX
  5
8D7
  8
RIVERS
 10
640.95549012693471
 20
4669.8672403743612
 30
0.0
  0
VERTEX
  5
8D8
  8
RIVERS
 10
640.92148329839006
 20
4669.8370897566319
 30
0.0
  0
VERTEX
  5
8D9
  8
RIVERS
 10
640.89084588321305
 20
4669.7667099474847
 30
0.0
  0
VERTEX
  5
8DA
  8
RIVERS
 10
640.87083219802253
 20
4669.6770471363088
 30
0.0
  0
VERTEX
  5
8DB
  8
RIVERS
 10
640.85655310427865
 20
4669.61129823377
 30
0.0
  0
VERTEX
  5
8DC
  8
RIVERS
 10
640.83499100147924
 20
4669.5275852073164
 30
0.0
  0
VERTEX
  5
8DD
  8
RIVERS
 10
640.80755084504881
 20
4669.4348685995756
 30
0.0
  0
VERTEX
  5
8DE
  8
RIVERS
 10
640.79017491608715
 20
4669.3810192664832
 30
0.0
  0
VERTEX
  5
8DF
  8
RIVERS
 10
640.74931546503888
 20
4669.2881735427791
 30
0.0
  0
VERTEX
  5
8E0
  8
RIVERS
 10
640.68779674897189
 20
4669.1727614809861
 30
0.0
  0
VERTEX
  5
8E1
  8
RIVERS
 10
640.62474396151435
 20
4669.0618081711809
 30
0.0
  0
VERTEX
  5
8E2
  8
RIVERS
 10
640.58514600370688
 20
4668.9928333174594
 30
0.0
  0
VERTEX
  5
8E3
  8
RIVERS
 10
640.48616496841782
 20
4668.8964460257648
 30
0.0
  0
VERTEX
  5
8E4
  8
RIVERS
 10
640.36599385802924
 20
4668.8326606071932
 30
0.0
  0
VERTEX
  5
8E5
  8
RIVERS
 10
640.24866135092736
 20
4668.7838142084083
 30
0.0
  0
VERTEX
  5
8E6
  8
RIVERS
 10
640.13011038923969
 20
4668.7066238414336
 30
0.0
  0
VERTEX
  5
8E7
  8
RIVERS
 10
640.00979581666718
 20
4668.6577487502154
 30
0.0
  0
VERTEX
  5
8E8
  8
RIVERS
 10
639.91035570238921
 20
4668.609074506051
 30
0.0
  0
VERTEX
  5
8E9
  8
RIVERS
 10
639.82001959292563
 20
4668.5440849791094
 30
0.0
  0
SEQEND
  5
8EA
  8
RIVERS
  0
POLYLINE
  5
9C
  8
RIVERS
 66
     1
 10
0.0
 20
0.0
 30
0.0
  0
VERTEX
  5
8EB
  8
RIVERS
 10
643.14948199709465
 20
4672.4555267874921
 30
0.0
  0
VERTEX
  5
8EC
  8
RIVERS
 10
643.02042940797332
 20
4672.5157106846063
 30
0.0
  0
VERTEX
  5
8ED
  8
RIVERS
 10
642.94287109112474
 20
4672.509772125748
 30
0.0
  0
VERTEX
  5
8EE
  8
RIVERS
 10
642.88461855387516
 20
4672.4967157167757
 30
0.0
  0
VERTEX
  5
8EF
  8
RIVERS
 10
642.78961817978188
 20
4672.4762860900873
 30
0.0
  0
VERTEX
  5
8F0
  8
RIVERS
 10
642.75503452456587
 20
4672.4829870700478
 30
0.0
  0
VERTEX
  5
8F1
  8
RIVERS
 10
642.68007980533685
 20
4672.5217131992777
 30
0.0
  0
VERTEX
  5
8F2
  8
RIVERS
 10
642.60433827832037
 20
4672.5425804011093
 30
0.0
  0
VERTEX
  5
8F3
  8
RIVERS
 10
642.46886262267515
 20
4672.5579953925971
 30
0.0
  0
VERTEX
  5
8F4
  8
RIVERS
 10
642.39512377473113
 20
4672.5521610512769
 30
0.0
  0
VERTEX
  5
8F5
  8
RIVERS
 10
642.32172012523995
 20
4672.5807366692761
 30
0.0
  0
VERTEX
  5
8F6
  8
RIVERS
 10
642.25079330999245
 20
4672.6119280782368
 30
0.0
  0
VERTEX
  5
8F7
  8
RIVERS
 10
642.2085359777883
 20
4672.6196937794211
 30
0.0
  0
VERTEX
  5
8F8
  8
RIVERS
 10
642.05286351721838
 20
4672.6281871625279
 30
0.0
  0
VERTEX
  5
8F9
  8
RIVERS
 10
641.99963412681541
 20
4672.6178160228746
 30
0.0
  0
VERTEX
  5
8FA
  8
RIVERS
 10
641.90873113506291
 20
4672.587305363315
 30
0.0
  0
VERTEX
  5
8FB
  8
RIVERS
 10
641.78296657465796
 20
4672.5736809341261
 30
0.0
  0
VERTEX
  5
8FC
  8
RIVERS
 10
641.67037299325921
 20
4672.5909943871457
 30
0.0
  0
VERTEX
  5
8FD
  8
RIVERS
 10
641.5505104116844
 20
4672.6412362081064
 30
0.0
  0
VERTEX
  5
8FE
  8
RIVERS
 10
641.44255784615677
 20
4672.6752396497641
 30
0.0
  0
VERTEX
  5
8FF
  8
RIVERS
 10
641.33123742105943
 20
4672.6925878419643
 30
0.0
  0
VERTEX
  5
900
  8
RIVERS
 10
641.31083218105687
 20
4672.6933051713931
 30
0.0
  0
VERTEX
  5
901
  8
RIVERS
 10
641.26496381502579
 20
4672.6933277172302
 30
0.0
  0
VERTEX
  5
902
  8
RIVERS
 10
641.20643336433977
 20
4672.6904565586683
 30
0.0
  0
VERTEX
  5
903
  8
RIVERS
 10
641.16290287583411
 20
4672.6981875206729
 30
0.0
  0
VERTEX
  5
904
  8
RIVERS
 10
641.13189551526546
 20
4672.7139048122808
 30
0.0
  0
VERTEX
  5
905
  8
RIVERS
 10
641.09937182413842
 20
4672.738499458821
 30
0.0
  0
VERTEX
  5
906
  8
RIVERS
 10
641.05875758586819
 20
4672.7794367022007
 30
0.0
  0
VERTEX
  5
907
  8
RIVERS
 10
641.02072439938058
 20
4672.8191702676386
 30
0.0
  0
VERTEX
  5
908
  8
RIVERS
 10
640.95747126112133
 20
4672.8492969553763
 30
0.0
  0
VERTEX
  5
909
  8
RIVERS
 10
640.83031713353353
 20
4672.8865987782438
 30
0.0
  0
VERTEX
  5
90A
  8
RIVERS
 10
640.70206354554216
 20
4672.9175000804253
 30
0.0
  0
VERTEX
  5
90B
  8
RIVERS
 10
640.60722467400421
 20
4672.9378461945626
 30
0.0
  0
VERTEX
  5
90C
  8
RIVERS
 10
640.47766319053198
 20
4672.9699859138682
 30
0.0
  0
VERTEX
  5
90D
  8
RIVERS
 10
640.42350803562306
 20
4672.946848472021
 30
0.0
  0
VERTEX
  5
90E
  8
RIVERS
 10
640.36784874349871
 20
4672.8854468627733
 30
0.0
  0
VERTEX
  5
90F
  8
RIVERS
 10
640.35003674862139
 20
4672.8378189919267
 30
0.0
  0
VERTEX
  5
910
  8
RIVERS
 10
640.31511789495232
 20
4672.8101100125677
 30
0.0
  0
VERTEX
  5
911
  8
RIVERS
 10
640.27097429455705
 20
4672.793616265667
 30
0.0
  0
VERTEX
  5
912
  8
RIVERS
 10
640.24268694248917
 20
4672.803037254128
 30
0.0
  0
VERTEX
  5
913
  8
RIVERS
 10
640.15682964342034
 20
4672.82108022992
 30
0.0
  0
VERTEX
  5
914
  8
RIVERS
 10
640.10724602602374
 20
4672.8171790893139
 30
0.0
  0
VERTEX
  5
915
  8
RIVERS
 10
640.02862298795128
 20
4672.8035668534676
 30
0.0
  0
VERTEX
  5
916
  8
RIVERS
 10
639.95788206194425
 20
4672.7812509585883
 30
0.0
  0
VERTEX
  5
917
  8
RIVERS
 10
639.9115048015625
 20
4672.753229326614
 30
0.0
  0
VERTEX
  5
918
  8
RIVERS
 10
639.87269700062996
 20
4672.7279624423209
 30
0.0
  0
VERTEX
  5
919
  8
RIVERS
 10
639.75113404010472
 20
4672.7004375113538
 30
0.0
  0
VERTEX
  5
91A
  8
RIVERS
 10
639.60094852905831
 20
4672.6479236095302
 30
0.0
  0
VERTEX
  5
91B
  8
RIVERS
 10
639.52725661363627
 20
4672.5936745895769
 30
0.0
  0
VERTEX
  5
91C
  8
RIVERS
 10
639.45282482294931
 20
4672.4731519635916
 30
0.0
  0
VERTEX
  5
91D
  8
RIVERS
 10
639.38144823921584
 20
4672.3807429937751
 30
0.0
  0
VERTEX
  5
91E
  8
RIVERS
 10
639.33568593157202
 20
4672.2367946600107
 30
0.0
  0
VERTEX
  5
91F
  8
RIVERS
 10
639.2980940019246
 20
4672.1669673051674
 30
0.0
  0
VERTEX
  5
920
  8
RIVERS
 10
639.27787465116262
 20
4672.1141773307563
 30
0.0
  0
VERTEX
  5
921
  8
RIVERS
 10
639.23749323465529
 20
4672.0531925916639
 30
0.0
  0
VERTEX
  5
922
  8
RIVERS
 10
639.22749387348438
 20
4671.9994073743883
 30
0.0
  0
VERTEX
  5
923
  8
RIVERS
 10
639.16074611227964
 20
4671.9708299155391
 30
0.0
  0
VERTEX
  5
924
  8
RIVERS
 10
639.09309513240601
 20
4671.9753545205303
 30
0.0
  0
VERTEX
  5
925
  8
RIVERS
 10
639.07918243728625
 20
4672.0182944429826
 30
0.0
  0
VERTEX
  5
926
  8
RIVERS
 10
639.01066297792352
 20
4672.0546479555078
 30
0.0
  0
VERTEX
  5
927
  8
RIVERS
 10
638.96293088953837
 20
4672.0762794192897
 30
0.0
  0
VERTEX
  5
928
  8
RIVERS
 10
638.88385624213151
 20
4672.0792182153627
 30
0.0
  0
VERTEX
  5
929
  8
RIVERS
 10
638.81559215036816
 20
4672.0595181114459
 30
0.0
  0
VERTEX
  5
92A
  8
RIVERS
 10
638.71309179518482
 20
4672.0337874244751
 30
0.0
  0
VERTEX
  5
92B
  8
RIVERS
 10
638.65670298028942
 20
4671.9991220975571
 30
0.0
  0
VERTEX
  5
92C
  8
RIVERS
 10
638.57701522099285
 20
4671.9778361847229
 30
0.0
  0
VERTEX
  5
92D
  8
RIVERS
 10
638.5286700207181
 20
4671.9752429395967
 30
0.0
  0
VERTEX
  5
92E
  8
RIVERS
 10
638.48820693250889
 20
4671.9639460354401
 30
0.0
  0
VERTEX
  5
92F
  8
RIVERS
 10
638.45173700910186
 20
4671.9463875673127
 30
0.0
  0
VERTEX
  5
930
  8
RIVERS
 10
638.40629770656835
 20
4671.8839907152014
 30
0.0
  0
VERTEX
  5
931
  8
RIVERS
 10
638.37695782661922
 20
4671.8385965043417
 30
0.0
  0
VERTEX
  5
932
  8
RIVERS
 10
638.36024529214535
 20
4671.797369154182
 30
0.0
  0
VERTEX
  5
933
  8
RIVERS
 10
638.31059219638973
 20
4671.796014326178
 30
0.0
  0
VERTEX
  5
934
  8
RIVERS
 10
638.27989748843697
 20
4671.8002732110754
 30
0.0
  0
VERTEX
  5
935
  8
RIVERS
 10
638.20178334471552
 20
4671.8147051530386
 30
0.0
  0
VERTEX
  5
936
  8
RIVERS
 10
638.13662139242831
 20
4671.7747040266586
 30
0.0
  0
VERTEX
  5
937
  8
RIVERS
 10
638.11764045878829
 20
4671.7232219477282
 30
0.0
  0
VERTEX
  5
938
  8
RIVERS
 10
638.09831213335247
 20
4671.6844714318122
 30
0.0
  0
VERTEX
  5
939
  8
RIVERS
 10
638.04884492683732
 20
4671.6296092999683
 30
0.0
  0
VERTEX
  5
93A
  8
RIVERS
 10
637.73998133537907
 20
4671.4832546119142
 30
0.0
  0
VERTEX
  5
93B
  8
RIVERS
 10
637.61969381772826
 20
4671.3423270955918
 30
0.0
  0
VERTEX
  5
93C
  8
RIVERS
 10
637.48023302081845
 20
4671.2102117960812
 30
0.0
  0
VERTEX
  5
93D
  8
RIVERS
 10
637.32544545277949
 20
4671.0831066512974
 30
0.0
  0
VERTEX
  5
93E
  8
RIVERS
 10
637.09293445923674
 20
4670.9491758298964
 30
0.0
  0
VERTEX
  5
93F
  8
RIVERS
 10
636.86808685125845
 20
4670.8127399311334
 30
0.0
  0
VERTEX
  5
940
  8
RIVERS
 10
636.73714196420917
 20
4670.7507883789949
 30
0.0
  0
VERTEX
  5
941
  8
RIVERS
 10
636.5846446509928
 20
4670.668314709158
 30
0.0
  0
VERTEX
  5
942
  8
RIVERS
 10
636.46737398200605
 20
4670.6663584414646
 30
0.0
  0
VERTEX
  5
943
  8
RIVERS
 10
636.33335362671119
 20
4670.694900154881
 30
0.0
  0
VERTEX
  5
944
  8
RIVERS
 10
636.14969904941779
 20
4670.7091305902877
 30
0.0
  0
VERTEX
  5
945
  8
RIVERS
 10
636.02394210126545
 20
4670.6319115284123
 30
0.0
  0
VERTEX
  5
946
  8
RIVERS
 10
635.87386838100008
 20
4670.571123622869
 30
0.0
  0
VERTEX
  5
947
  8
RIVERS
 10
635.62411138700429
 20
4670.5530998166669
 30
0.0
  0
VERTEX
  5
948
  8
RIVERS
 10
635.49006140101415
 20
4670.586740576894
 30
0.0
  0
VERTEX
  5
949
  8
RIVERS
 10
635.38285548752174
 20
4670.6077892812427
 30
0.0
  0
VERTEX
  5
94A
  8
RIVERS
 10
635.25266682500921
 20
4670.6350784559772
 30
0.0
  0
VERTEX
  5
94B
  8
RIVERS
 10
635.12663579292621
 20
4670.6050255771052
 30
0.0
  0
VERTEX
  5
94C
  8
RIVERS
 10
635.0439762894348
 20
4670.5701255123322
 30
0.0
  0
VERTEX
  5
94D
  8
RIVERS
 10
634.92448944236355
 20
4670.5107901526644
 30
0.0
  0
VERTEX
  5
94E
  8
RIVERS
 10
634.80991645025847
 20
4670.4833534662621
 30
0.0
  0
VERTEX
  5
94F
  8
RIVERS
 10
634.75899265120927
 20
4670.4715843039839
 30
0.0
  0
VERTEX
  5
950
  8
RIVERS
 10
634.62349752701903
 20
4670.534537175703
 30
0.0
  0
VERTEX
  5
951
  8
RIVERS
 10
634.43976887298754
 20
4670.561515228138
 30
0.0
  0
VERTEX
  5
952
  8
RIVERS
 10
634.28262502287043
 20
4670.6205178842929
 30
0.0
  0
VERTEX
  5
953
  8
RIVERS
 10
634.15500069911116
 20
4670.6452723509692
 30
0.0
  0
VERTEX
  5
954
  8
RIVERS
 10
634.01356881916092
 20
4670.6329772438521
 30
0.0
  0
VERTEX
  5
955
  8
RIVERS
 10
633.93849862449611
 20
4670.6083197187436
 30
0.0
  0
VERTEX
  5
956
  8
RIVERS
 10
633.8738191229728
 20
4670.5505776507534
 30
0.0
  0
VERTEX
  5
957
  8
RIVERS
 10
633.76963682400924
 20
4670.4900564214668
 30
0.0
  0
VERTEX
  5
958
  8
RIVERS
 10
633.59271903124625
 20
4670.4418605718038
 30
0.0
  0
VERTEX
  5
959
  8
RIVERS
 10
633.37884796444882
 20
4670.3909003761946
 30
0.0
  0
VERTEX
  5
95A
  8
RIVERS
 10
633.18125990050964
 20
4670.3897521867539
 30
0.0
  0
VERTEX
  5
95B
  8
RIVERS
 10
632.92715267656558
 20
4670.4622142384324
 30
0.0
  0
VERTEX
  5
95C
  8
RIVERS
 10
632.71360818922415
 20
4670.5744309484598
 30
0.0
  0
VERTEX
  5
95D
  8
RIVERS
 10
632.57527464234965
 20
4670.6870847112395
 30
0.0
  0
VERTEX
  5
95E
  8
RIVERS
 10
632.44481930358018
 20
4670.7602653072772
 30
0.0
  0
VERTEX
  5
95F
  8
RIVERS
 10
632.45115607372543
 20
4670.7666761541605
 30
0.0
  0
VERTEX
  5
960
  8
RIVERS
 10
632.34902698402266
 20
4670.7915787743123
 30
0.0
  0
VERTEX
  5
961
  8
RIVERS
 10
632.20358562711908
 20
4670.8111304867443
 30
0.0
  0
VERTEX
  5
962
  8
RIVERS
 10
632.04323973649275
 20
4670.7630309368396
 30
0.0
  0
VERTEX
  5
963
  8
RIVERS
 10
631.93522574474696
 20
4670.7037622462358
 30
0.0
  0
VERTEX
  5
964
  8
RIVERS
 10
631.73290901768689
 20
4670.6388463409603
 30
0.0
  0
VERTEX
  5
965
  8
RIVERS
 10
631.5540645879264
 20
4670.7028221134724
 30
0.0
  0
VERTEX
  5
966
  8
RIVERS
 10
631.45382573866095
 20
4670.841193340525
 30
0.0
  0
VERTEX
  5
967
  8
RIVERS
 10
631.35997551325715
 20
4670.9770520825396
 30
0.0
  0
VERTEX
  5
968
  8
RIVERS
 10
631.30336746116643
 20
4671.0659594640902
 30
0.0
  0
VERTEX
  5
969
  8
RIVERS
 10
631.29812766855275
 20
4671.0901503057494
 30
0.0
  0
VERTEX
  5
96A
  8
RIVERS
 10
631.12837046478285
 20
4671.1507453339455
 30
0.0
  0
VERTEX
  5
96B
  8
RIVERS
 10
630.99025475314147
 20
4671.1883582913733
 30
0.0
  0
VERTEX
  5
96C
  8
RIVERS
 10
630.85004638161581
 20
4671.2573153799922
 30
0.0
  0
VERTEX
  5
96D
  8
RIVERS
 10
630.38835732618384
 20
4671.3237542992256
 30
0.0
  0
VERTEX
  5
96E
  8
RIVERS
 10
630.21118016520779
 20
4671.3265644910753
 30
0.0
  0
VERTEX
  5
96F
  8
RIVERS
 10
629.96544880568933
 20
4671.3670013517503
 30
0.0
  0
VERTEX
  5
970
  8
RIVERS
 10
629.73450897327405
 20
4671.4256792708011
 30
0.0
  0
VERTEX
  5
971
  8
RIVERS
 10
629.52896278852825
 20
4671.487598286044
 30
0.0
  0
VERTEX
  5
972
  8
RIVERS
 10
629.30530230878298
 20
4671.606357725519
 30
0.0
  0
VERTEX
  5
973
  8
RIVERS
 10
629.03454723922766
 20
4671.6766902930176
 30
0.0
  0
VERTEX
  5
974
  8
RIVERS
 10
628.74593324227294
 20
4671.7478096683017
 30
0.0
  0
VERTEX
  5
975
  8
RIVERS
 10
628.44270141411278
 20
4671.7943222037047
 30
0.0
  0
VERTEX
  5
976
  8
RIVERS
 10
628.22970218079877
 20
4671.8025254800332
 30
0.0
  0
VERTEX
  5
977
  8
RIVERS
 10
627.94165620405965
 20
4671.8061328321628
 30
0.0
  0
VERTEX
  5
978
  8
RIVERS
 10
627.65914226851805
 20
4671.8404696314246
 30
0.0
  0
VERTEX
  5
979
  8
RIVERS
 10
627.37276193155003
 20
4671.9231168917822
 30
0.0
  0
VERTEX
  5
97A
  8
RIVERS
 10
627.14891740341284
 20
4671.9552322244008
 30
0.0
  0
VERTEX
  5
97B
  8
RIVERS
 10
626.90029233949565
 20
4672.0083311697299
 30
0.0
  0
VERTEX
  5
97C
  8
RIVERS
 10
626.77936503669684
 20
4672.0508993137028
 30
0.0
  0
VERTEX
  5
97D
  8
RIVERS
 10
626.58177044237584
 20
4672.1015683573114
 30
0.0
  0
VERTEX
  5
97E
  8
RIVERS
 10
626.33548325598417
 20
4672.162375718809
 30
0.0
  0
VERTEX
  5
97F
  8
RIVERS
 10
626.16724073495504
 20
4672.2112974509464
 30
0.0
  0
VERTEX
  5
980
  8
RIVERS
 10
625.86442577694959
 20
4672.242532110733
 30
0.0
  0
VERTEX
  5
981
  8
RIVERS
 10
625.73847532730429
 20
4672.2824149853832
 30
0.0
  0
VERTEX
  5
982
  8
RIVERS
 10
625.55758291496272
 20
4672.2813014907888
 30
0.0
  0
VERTEX
  5
983
  8
RIVERS
 10
625.40979256645824
 20
4672.2810912148616
 30
0.0
  0
VERTEX
  5
984
  8
RIVERS
 10
625.17586700544825
 20
4672.3091091651404
 30
0.0
  0
VERTEX
  5
985
  8
RIVERS
 10
625.06702341459447
 20
4672.3290731483021
 30
0.0
  0
VERTEX
  5
986
  8
RIVERS
 10
625.0
 20
4672.3305934525952
 30
0.0
  0
SEQEND
  5
987
  8
RIVERS
  0
ENDSEC
  0
EOF
