  0
SECTION
  2
HEADER
  9
$ACADVER
  1
AC1009
  9
$INSBASE
 10
0.0
 20
0.0
 30
0.0
  9
$EXTMIN
 10
625.0
 20
4660.0
 30
0.0
  9
$EXTMAX
 10
671.0
 20
4702.0
 30
0.0
  9
$LIMMIN
 10
0.0
 20
0.0
  9
$LIMMAX
 10
12.0
 20
9.0
  9
$ORTHOMODE
 70
     0
  9
$REGENMODE
 70
     1
  9
$FILLMODE
 70
     1
  9
$QTEXTMODE
 70
     0
  9
$MIRRTEXT
 70
     1
  9
$DRAGMODE
 70
     2
  9
$LTSCALE
 40
1.0
  9
$OSMODE
 70
   613
  9
$ATTMODE
 70
     1
  9
$TEXTSIZE
 40
0.04
  9
$TRACEWID
 40
0.05
  9
$TEXTSTYLE
  7
C
  9
$CLAYER
  8
TOWNS
  9
$CELTYPE
  6
BYLAYER
  9
$CECOLOR
 62
   256
  9
$DIMSCALE
 40
1.0
  9
$DIMASZ
 40
0.18
  9
$DIMEXO
 40
0.0625
  9
$DIMDLI
 40
0.38
  9
$DIMRND
 40
0.0
  9
$DIMDLE
 40
0.0
  9
$DIMEXE
 40
0.18
  9
$DIMTP
 40
0.0
  9
$DIMTM
 40
0.0
  9
$DIMTXT
 40
0.18
  9
$DIMCEN
 40
0.09
  9
$DIMTSZ
 40
0.0
  9
$DIMTOL
 70
     0
  9
$DIMLIM
 70
     0
  9
$DIMTIH
 70
     1
  9
$DIMTOH
 70
     1
  9
$DIMSE1
 70
     0
  9
$DIMSE2
 70
     0
  9
$DIMTAD
 70
     0
  9
$DIMZIN
 70
     0
  9
$DIMBLK
  1

  9
$DIMASO
 70
     1
  9
$DIMSHO
 70
     1
  9
$DIMPOST
  1

  9
$DIMAPOST
  1

  9
$DIMALT
 70
     0
  9
$DIMALTD
 70
     2
  9
$DIMALTF
 40
25.399999999999999
  9
$DIMLFAC
 40
1.0
  9
$DIMTOFL
 70
     0
  9
$DIMTVP
 40
0.0
  9
$DIMTIX
 70
     0
  9
$DIMSOXD
 70
     0
  9
$DIMSAH
 70
     0
  9
$DIMBLK1
  1

  9
$DIMBLK2
  1

  9
$DIMSTYLE
  2
STANDARD
  9
$DIMCLRD
 70
     0
  9
$DIMCLRE
 70
     0
  9
$DIMCLRT
 70
     0
  9
$DIMTFAC
 40
1.0
  9
$DIMGAP
 40
0.09
  9
$LUNITS
 70
     2
  9
$LUPREC
 70
     4
  9
$SKETCHINC
 40
0.1
  9
$FILLETRAD
 40
0.0
  9
$AUNITS
 70
     0
  9
$AUPREC
 70
     0
  9
$MENU
  1
acad
  9
$ELEVATION
 40
0.0
  9
$PELEVATION
 40
0.0
  9
$THICKNESS
 40
0.0
  9
$LIMCHECK
 70
     0
  9
$BLIPMODE
 70
     0
  9
$CHAMFERA
 40
0.0
  9
$CHAMFERB
 40
0.0
  9
$SKPOLY
 70
     0
  9
$TDCREATE
 40
2451116.8864666671
  9
$TDUPDATE
 40
2455881.7388228709
  9
$TDINDWG
 40
4.0958449306000002
  9
$TDUSRTIMER
 40
4.0958445717999998
  9
$USRTIMER
 70
     1
  9
$ANGBASE
 50
0.0
  9
$ANGDIR
 70
     0
  9
$PDMODE
 70
     0
  9
$PDSIZE
 40
0.0
  9
$PLINEWID
 40
0.0
  9
$COORDS
 70
     1
  9
$SPLFRAME
 70
     0
  9
$SPLINETYPE
 70
     6
  9
$SPLINESEGS
 70
     8
  9
$ATTDIA
 70
     0
  9
$ATTREQ
 70
     1
  9
$HANDLING
 70
     1
  9
$HANDSEED
  5
22F3
  9
$SURFTAB1
 70
     6
  9
$SURFTAB2
 70
     6
  9
$SURFTYPE
 70
     6
  9
$SURFU
 70
     6
  9
$SURFV
 70
     6
  9
$UCSNAME
  2

  9
$UCSORG
 10
0.0
 20
0.0
 30
0.0
  9
$UCSXDIR
 10
1.0
 20
0.0
 30
0.0
  9
$UCSYDIR
 10
0.0
 20
1.0
 30
0.0
  9
$PUCSNAME
  2

  9
$PUCSORG
 10
0.0
 20
0.0
 30
0.0
  9
$PUCSXDIR
 10
1.0
 20
0.0
 30
0.0
  9
$PUCSYDIR
 10
0.0
 20
1.0
 30
0.0
  9
$USERI1
 70
     0
  9
$USERI2
 70
     0
  9
$USERI3
 70
     0
  9
$USERI4
 70
     0
  9
$USERI5
 70
     0
  9
$USERR1
 40
0.0
  9
$USERR2
 40
0.0
  9
$USERR3
 40
0.0
  9
$USERR4
 40
0.0
  9
$USERR5
 40
0.0
  9
$WORLDVIEW
 70
     1
  9
$SHADEDGE
 70
     3
  9
$SHADEDIF
 70
    70
  9
$TILEMODE
 70
     1
  9
$MAXACTVP
 70
    16
  9
$PLIMCHECK
 70
     0
  9
$PEXTMIN
 10
1.0000000000000000E+020
 20
1.0000000000000000E+020
 30
1.0000000000000000E+020
  9
$PEXTMAX
 10
-1.0000000000000000E+020
 20
-1.0000000000000000E+020
 30
-1.0000000000000000E+020
  9
$PLIMMIN
 10
0.0
 20
0.0
  9
$PLIMMAX
 10
12.0
 20
9.0
  9
$UNITMODE
 70
     0
  9
$VISRETAIN
 70
     0
  9
$PLINEGEN
 70
     0
  9
$PSLTSCALE
 70
     1
  0
ENDSEC
  0
SECTION
  2
TABLES
  0
TABLE
  2
VPORT
 70
     1
  0
VPORT
  2
*ACTIVE
 70
     0
 10
0.0
 20
0.0
 11
1.0
 21
1.0
 12
642.41398751973372
 22
4682.0486898307863
 13
0.0
 23
0.0
 14
0.1
 24
0.1
 15
0.0
 25
0.0
 16
0.0
 26
0.0
 36
1.0
 17
0.0
 27
0.0
 37
0.0
 40
54.574202251996489
 41
1.123227917121046
 42
50.0
 43
0.0
 44
0.0
 50
0.0
 51
0.0
 71
     0
 72
   100
 73
     1
 74
     0
 75
     0
 76
     0
 77
     0
 78
     0
  0
ENDTAB
  0
TABLE
  2
LTYPE
 70
     1
  0
LTYPE
  2
CONTINUOUS
 70
     0
  3
Solid line
 72
    65
 73
     0
 40
0.0
  0
ENDTAB
  0
TABLE
  2
LAYER
 70
     2
  0
LAYER
  2
0
 70
     0
 62
    -7
  6
CONTINUOUS
  0
LAYER
  2
TOWNS
 70
     0
 62
     7
  6
CONTINUOUS
  0
ENDTAB
  0
TABLE
  2
STYLE
 70
     4
  0
STYLE
  2
STANDARD
 70
     0
 40
0.0
 41
1.0
 50
0.0
 71
     0
 42
0.04
  3
simplex.shx
  4

  0
STYLE
  2
C
 70
     0
 40
0.0
 41
1.0
 50
0.0
 71
     0
 42
0.04
  3
txt
  4

  0
STYLE
  2
LEGEND
 70
     0
 40
0.0
 41
1.0
 50
0.0
 71
     0
 42
0.04
  3
txt
  4

  0
ENDTAB
  0
TABLE
  2
VIEW
 70
     0
  0
ENDTAB
  0
TABLE
  2
UCS
 70
     0
  0
ENDTAB
  0
TABLE
  2
APPID
 70
     7
  0
APPID
  2
ACAD
 70
     0
  0
APPID
  2
ACADANNOTATIVE
 70
     0
  0
APPID
  2
ADE
 70
     0
  0
APPID
  2
ACMAPDMDISPLAYSTYLEREGAPP
 70
     0
  0
APPID
  2
MAPGWS
 70
     0
  0
APPID
  2
DCO15
 70
     0
  0
APPID
  2
ACAD_MLEADERVER
 70
     0
  0
ENDTAB
  0
TABLE
  2
DIMSTYLE
 70
     2
  0
DIMSTYLE
  2
STANDARD
 70
     0
  3

  4

  5

  6

  7

 40
1.0
 41
0.18
 42
0.0625
 43
0.38
 44
0.18
 45
0.0
 46
0.0
 47
0.0
 48
0.0
140
0.18
141
0.09
142
0.0
143
25.399999999999999
144
1.0
145
0.0
146
1.0
147
0.09
 71
     0
 72
     0
 73
     1
 74
     1
 75
     0
 76
     0
 77
     0
 78
     0
170
     0
171
     2
172
     0
173
     0
174
     0
175
     0
176
     0
177
     0
178
     0
  0
ENDTAB
  0
ENDSEC
  0
SECTION
  2
BLOCKS
  0
BLOCK
  8
0
  2
$MODEL_SPACE
 70
     0
 10
0.0
 20
0.0
 30
0.0
  3
$MODEL_SPACE
  1

  0
ENDBLK
  5
12A1
  8
0
  0
BLOCK
 67
     1
  8
0
  2
$PAPER_SPACE
 70
     0
 10
0.0
 20
0.0
 30
0.0
  3
$PAPER_SPACE
  1

  0
ENDBLK
  5
129D
 67
     1
  8
0
  0
ENDSEC
  0
SECTION
  2
ENTITIES
  0
POLYLINE
  5
6C
  8
TOWNS
 66
     1
 10
0.0
 20
0.0
 30
0.0
 70
     1
  0
VERTEX
  5
12DA
  8
TOWNS
 10
670.31543690065678
 20
4672.2908196985109
 30
0.0
  0
VERTEX
  5
12DB
  8
TOWNS
 10
670.32430410540474
 20
4672.0365527774757
 30
0.0
  0
VERTEX
  5
12DC
  8
TOWNS
 10
670.59152500852053
 20
4672.0422076638451
 30
0.0
  0
VERTEX
  5
12DD
  8
TOWNS
 10
670.73103668941155
 20
4672.1309805465926
 30
0.0
  0
VERTEX
  5
12DE
  8
TOWNS
 10
670.71748477128267
 20
4672.3433034588506
 30
0.0
  0
VERTEX
  5
12DF
  8
TOWNS
 10
670.40502613110652
 20
4672.3243782160807
 30
0.0
  0
SEQEND
  5
12E0
  8
TOWNS
  0
POLYLINE
  5
6D
  8
TOWNS
 66
     1
 10
0.0
 20
0.0
 30
0.0
 70
     1
  0
VERTEX
  5
12E1
  8
TOWNS
 10
668.64034535836674
 20
4671.2285620401472
 30
0.0
  0
VERTEX
  5
12E2
  8
TOWNS
 10
668.59303980966763
 20
4671.0882640561067
 30
0.0
  0
VERTEX
  5
12E3
  8
TOWNS
 10
668.59588465914942
 20
4671.0171834828088
 30
0.0
  0
VERTEX
  5
12E4
  8
TOWNS
 10
668.83595315084006
 20
4671.0142760248118
 30
0.0
  0
VERTEX
  5
12E5
  8
TOWNS
 10
668.86867876794906
 20
4671.1808238946251
 30
0.0
  0
SEQEND
  5
12E6
  8
TOWNS
  0
POLYLINE
  5
6E
  8
TOWNS
 66
     1
 10
0.0
 20
0.0
 30
0.0
 70
     1
  0
VERTEX
  5
12E7
  8
TOWNS
 10
665.57855118903501
 20
4671.8236662826221
 30
0.0
  0
VERTEX
  5
12E8
  8
TOWNS
 10
665.50444693523696
 20
4671.4506920972281
 30
0.0
  0
VERTEX
  5
12E9
  8
TOWNS
 10
666.04713246288111
 20
4671.3538155557808
 30
0.0
  0
VERTEX
  5
12EA
  8
TOWNS
 10
666.22034919917553
 20
4671.3620011659432
 30
0.0
  0
VERTEX
  5
12EB
  8
TOWNS
 10
666.34622053535588
 20
4671.7191254251966
 30
0.0
  0
VERTEX
  5
12EC
  8
TOWNS
 10
666.33195922671928
 20
4671.8264092137279
 30
0.0
  0
VERTEX
  5
12ED
  8
TOWNS
 10
665.91101418002006
 20
4671.8422658857662
 30
0.0
  0
SEQEND
  5
12EE
  8
TOWNS
  0
POLYLINE
  5
6F
  8
TOWNS
 66
     1
 10
0.0
 20
0.0
 30
0.0
 70
     1
  0
VERTEX
  5
12EF
  8
TOWNS
 10
668.31026221022762
 20
4678.2450613866322
 30
0.0
  0
VERTEX
  5
12F0
  8
TOWNS
 10
668.26510870229959
 20
4677.9528326133186
 30
0.0
  0
VERTEX
  5
12F1
  8
TOWNS
 10
668.13631150071808
 20
4677.8198550257539
 30
0.0
  0
VERTEX
  5
12F2
  8
TOWNS
 10
668.1260639490805
 20
4677.6449804596359
 30
0.0
  0
VERTEX
  5
12F3
  8
TOWNS
 10
668.18321441184366
 20
4677.4639299609198
 30
0.0
  0
VERTEX
  5
12F4
  8
TOWNS
 10
668.2228181153049
 20
4677.1910873020088
 30
0.0
  0
VERTEX
  5
12F5
  8
TOWNS
 10
668.29588445844763
 20
4677.0516137402947
 30
0.0
  0
VERTEX
  5
12F6
  8
TOWNS
 10
668.4317270657632
 20
4677.0011611001801
 30
0.0
  0
VERTEX
  5
12F7
  8
TOWNS
 10
668.51909549497202
 20
4676.9985439542879
 30
0.0
  0
VERTEX
  5
12F8
  8
TOWNS
 10
668.58260492378895
 20
4677.2069906266424
 30
0.0
  0
VERTEX
  5
12F9
  8
TOWNS
 10
668.65686810889247
 20
4677.4257667756456
 30
0.0
  0
VERTEX
  5
12FA
  8
TOWNS
 10
668.75490314090746
 20
4677.6923561058011
 30
0.0
  0
VERTEX
  5
12FB
  8
TOWNS
 10
668.88197045394475
 20
4677.8152520905742
 30
0.0
  0
VERTEX
  5
12FC
  8
TOWNS
 10
668.89827784395368
 20
4677.952163589478
 30
0.0
  0
SEQEND
  5
12FD
  8
TOWNS
  0
POLYLINE
  5
70
  8
TOWNS
 66
     1
 10
0.0
 20
0.0
 30
0.0
 70
     1
  0
VERTEX
  5
12FE
  8
TOWNS
 10
669.16750147890104
 20
4683.8585973913159
 30
0.0
  0
VERTEX
  5
12FF
  8
TOWNS
 10
669.10850433375788
 20
4683.7415848391393
 30
0.0
  0
VERTEX
  5
1300
  8
TOWNS
 10
668.91475578596135
 20
4683.7814162021996
 30
0.0
  0
VERTEX
  5
1301
  8
TOWNS
 10
668.86566383783565
 20
4683.6325666607963
 30
0.0
  0
VERTEX
  5
1302
  8
TOWNS
 10
669.29598246819148
 20
4683.4186200385911
 30
0.0
  0
VERTEX
  5
1303
  8
TOWNS
 10
669.38303225506445
 20
4683.6467780953553
 30
0.0
  0
SEQEND
  5
1304
  8
TOWNS
  0
POLYLINE
  5
71
  8
TOWNS
 66
     1
 10
0.0
 20
0.0
 30
0.0
 70
     1
  0
VERTEX
  5
1305
  8
TOWNS
 10
667.41274410353788
 20
4685.0566298573904
 30
0.0
  0
VERTEX
  5
1306
  8
TOWNS
 10
667.66619471997649
 20
4685.0716190827416
 30
0.0
  0
VERTEX
  5
1307
  8
TOWNS
 10
667.6880261033516
 20
4684.7882541564004
 30
0.0
  0
VERTEX
  5
1308
  8
TOWNS
 10
668.13438786485472
 20
4684.7573685653224
 30
0.0
  0
VERTEX
  5
1309
  8
TOWNS
 10
668.56574854486428
 20
4684.7611902116842
 30
0.0
  0
VERTEX
  5
130A
  8
TOWNS
 10
668.62925657447056
 20
4684.6043961510568
 30
0.0
  0
VERTEX
  5
130B
  8
TOWNS
 10
668.37245041903145
 20
4684.4558614227326
 30
0.0
  0
VERTEX
  5
130C
  8
TOWNS
 10
668.17707029270764
 20
4684.2628571961177
 30
0.0
  0
VERTEX
  5
130D
  8
TOWNS
 10
668.02793940783442
 20
4684.2126039744571
 30
0.0
  0
VERTEX
  5
130E
  8
TOWNS
 10
667.96247452968851
 20
4684.075345592074
 30
0.0
  0
VERTEX
  5
130F
  8
TOWNS
 10
667.69318542902363
 20
4684.0890201507937
 30
0.0
  0
VERTEX
  5
1310
  8
TOWNS
 10
667.61464354791781
 20
4684.3547727778223
 30
0.0
  0
VERTEX
  5
1311
  8
TOWNS
 10
667.55696386782665
 20
4684.4455019744983
 30
0.0
  0
VERTEX
  5
1312
  8
TOWNS
 10
667.40155281226362
 20
4684.4412330358218
 30
0.0
  0
SEQEND
  5
1313
  8
TOWNS
  0
POLYLINE
  5
72
  8
TOWNS
 66
     1
 10
0.0
 20
0.0
 30
0.0
 70
     1
  0
VERTEX
  5
1314
  8
TOWNS
 10
668.23845663005875
 20
4688.2380410645319
 30
0.0
  0
VERTEX
  5
1315
  8
TOWNS
 10
668.11162080587735
 20
4688.143246876497
 30
0.0
  0
VERTEX
  5
1316
  8
TOWNS
 10
668.03820618004329
 20
4687.9666371933699
 30
0.0
  0
VERTEX
  5
1317
  8
TOWNS
 10
668.09576453743773
 20
4687.8437955920717
 30
0.0
  0
VERTEX
  5
1318
  8
TOWNS
 10
668.27123978896554
 20
4687.884738374054
 30
0.0
  0
VERTEX
  5
1319
  8
TOWNS
 10
668.40987594794751
 20
4687.9517612638274
 30
0.0
  0
VERTEX
  5
131A
  8
TOWNS
 10
668.46394838592437
 20
4688.1749998418918
 30
0.0
  0
SEQEND
  5
131B
  8
TOWNS
  0
POLYLINE
  5
73
  8
TOWNS
 66
     1
 10
0.0
 20
0.0
 30
0.0
 70
     1
  0
VERTEX
  5
131C
  8
TOWNS
 10
668.56751227139569
 20
4686.4138524609079
 30
0.0
  0
VERTEX
  5
131D
  8
TOWNS
 10
668.74450230761454
 20
4686.3996493844652
 30
0.0
  0
VERTEX
  5
131E
  8
TOWNS
 10
668.92605378251551
 20
4686.3655034347521
 30
0.0
  0
VERTEX
  5
131F
  8
TOWNS
 10
669.00465737437764
 20
4686.3897375597699
 30
0.0
  0
VERTEX
  5
1320
  8
TOWNS
 10
669.0444664243654
 20
4686.5112400825501
 30
0.0
  0
VERTEX
  5
1321
  8
TOWNS
 10
668.90986318634282
 20
4686.5165733839531
 30
0.0
  0
VERTEX
  5
1322
  8
TOWNS
 10
668.89427327558053
 20
4686.7188336667723
 30
0.0
  0
VERTEX
  5
1323
  8
TOWNS
 10
668.74324202445814
 20
4686.737763431136
 30
0.0
  0
VERTEX
  5
1324
  8
TOWNS
 10
668.75653623008645
 20
4686.9478409824096
 30
0.0
  0
VERTEX
  5
1325
  8
TOWNS
 10
668.53509900864947
 20
4686.9728640547582
 30
0.0
  0
VERTEX
  5
1326
  8
TOWNS
 10
668.41999205118623
 20
4686.8894295368864
 30
0.0
  0
VERTEX
  5
1327
  8
TOWNS
 10
668.38274366479868
 20
4686.4920600142823
 30
0.0
  0
SEQEND
  5
1328
  8
TOWNS
  0
POLYLINE
  5
74
  8
TOWNS
 66
     1
 10
0.0
 20
0.0
 30
0.0
 70
     1
  0
VERTEX
  5
1329
  8
TOWNS
 10
669.55158902039614
 20
4685.3642264415557
 30
0.0
  0
VERTEX
  5
132A
  8
TOWNS
 10
669.57970057446073
 20
4685.0348772322322
 30
0.0
  0
VERTEX
  5
132B
  8
TOWNS
 10
669.76520757416779
 20
4685.0028467526226
 30
0.0
  0
VERTEX
  5
132C
  8
TOWNS
 10
669.97505363658615
 20
4684.9614507502556
 30
0.0
  0
VERTEX
  5
132D
  8
TOWNS
 10
670.17356234191516
 20
4685.0040296396264
 30
0.0
  0
VERTEX
  5
132E
  8
TOWNS
 10
670.25147809488635
 20
4685.2359504304159
 30
0.0
  0
VERTEX
  5
132F
  8
TOWNS
 10
670.1706495663683
 20
4685.4023028045776
 30
0.0
  0
VERTEX
  5
1330
  8
TOWNS
 10
669.76758347387602
 20
4685.3912311055619
 30
0.0
  0
SEQEND
  5
1331
  8
TOWNS
  0
POLYLINE
  5
75
  8
TOWNS
 66
     1
 10
0.0
 20
0.0
 30
0.0
 70
     1
  0
VERTEX
  5
1332
  8
TOWNS
 10
671.0
 20
4688.0299850708097
 30
0.0
  0
VERTEX
  5
1333
  8
TOWNS
 10
670.99953319922645
 20
4688.0299196250453
 30
0.0
  0
VERTEX
  5
1334
  8
TOWNS
 10
670.61657452963641
 20
4687.8347730863916
 30
0.0
  0
VERTEX
  5
1335
  8
TOWNS
 10
670.65843733897032
 20
4687.6623333323178
 30
0.0
  0
VERTEX
  5
1336
  8
TOWNS
 10
670.56061741080782
 20
4687.4609714633834
 30
0.0
  0
VERTEX
  5
1337
  8
TOWNS
 10
670.41156915055433
 20
4687.40771028581
 30
0.0
  0
VERTEX
  5
1338
  8
TOWNS
 10
670.39845657916737
 20
4687.1544911582259
 30
0.0
  0
VERTEX
  5
1339
  8
TOWNS
 10
670.41001949704116
 20
4686.9892463737287
 30
0.0
  0
VERTEX
  5
133A
  8
TOWNS
 10
670.63683917489027
 20
4686.9874495459617
 30
0.0
  0
VERTEX
  5
133B
  8
TOWNS
 10
670.88952455628475
 20
4687.139884716009
 30
0.0
  0
VERTEX
  5
133C
  8
TOWNS
 10
671.0
 20
4687.1504227615223
 30
0.0
  0
SEQEND
  5
133D
  8
TOWNS
  0
POLYLINE
  5
76
  8
TOWNS
 66
     1
 10
0.0
 20
0.0
 30
0.0
 70
     1
  0
VERTEX
  5
133E
  8
TOWNS
 10
670.99999999999977
 20
4689.275078166801
 30
0.0
  0
VERTEX
  5
133F
  8
TOWNS
 10
670.73814296080207
 20
4689.1806729873861
 30
0.0
  0
VERTEX
  5
1340
  8
TOWNS
 10
670.81302704557436
 20
4688.9750243955596
 30
0.0
  0
VERTEX
  5
1341
  8
TOWNS
 10
670.99999999999989
 20
4689.066218000733
 30
0.0
  0
SEQEND
  5
1342
  8
TOWNS
  0
POLYLINE
  5
77
  8
TOWNS
 66
     1
 10
0.0
 20
0.0
 30
0.0
 70
     1
  0
VERTEX
  5
1343
  8
TOWNS
 10
669.52773565399355
 20
4689.9220560430313
 30
0.0
  0
VERTEX
  5
1344
  8
TOWNS
 10
669.46240255547548
 20
4689.6704127112898
 30
0.0
  0
VERTEX
  5
1345
  8
TOWNS
 10
669.71716923775568
 20
4689.5279029525173
 30
0.0
  0
VERTEX
  5
1346
  8
TOWNS
 10
669.72024796214725
 20
4689.3062342422227
 30
0.0
  0
VERTEX
  5
1347
  8
TOWNS
 10
669.91111510519204
 20
4689.2251839821756
 30
0.0
  0
VERTEX
  5
1348
  8
TOWNS
 10
670.10042946507383
 20
4689.3467795865063
 30
0.0
  0
VERTEX
  5
1349
  8
TOWNS
 10
670.20935456186442
 20
4689.2534444004777
 30
0.0
  0
VERTEX
  5
134A
  8
TOWNS
 10
670.3398363262371
 20
4689.069391174311
 30
0.0
  0
VERTEX
  5
134B
  8
TOWNS
 10
670.48410944316595
 20
4689.4426084969118
 30
0.0
  0
VERTEX
  5
134C
  8
TOWNS
 10
670.10138366164199
 20
4689.6408044879772
 30
0.0
  0
VERTEX
  5
134D
  8
TOWNS
 10
669.82363338017365
 20
4689.8529215124099
 30
0.0
  0
VERTEX
  5
134E
  8
TOWNS
 10
669.61465819009857
 20
4690.008730005673
 30
0.0
  0
SEQEND
  5
134F
  8
TOWNS
  0
POLYLINE
  5
78
  8
TOWNS
 66
     1
 10
0.0
 20
0.0
 30
0.0
 70
     1
  0
VERTEX
  5
1350
  8
TOWNS
 10
666.37612089493598
 20
4688.7497973040799
 30
0.0
  0
VERTEX
  5
1351
  8
TOWNS
 10
666.13443784329218
 20
4688.7812881094296
 30
0.0
  0
VERTEX
  5
1352
  8
TOWNS
 10
666.09997778010552
 20
4688.5746427937047
 30
0.0
  0
VERTEX
  5
1353
  8
TOWNS
 10
666.38597553773445
 20
4688.4640965753179
 30
0.0
  0
VERTEX
  5
1354
  8
TOWNS
 10
666.69351950601344
 20
4688.4093296707752
 30
0.0
  0
VERTEX
  5
1355
  8
TOWNS
 10
666.88100426812343
 20
4688.3783569262141
 30
0.0
  0
VERTEX
  5
1356
  8
TOWNS
 10
666.92289461899713
 20
4688.204914520169
 30
0.0
  0
VERTEX
  5
1357
  8
TOWNS
 10
667.04885364276413
 20
4688.0759245278114
 30
0.0
  0
VERTEX
  5
1358
  8
TOWNS
 10
667.19659036603684
 20
4688.0308156460324
 30
0.0
  0
VERTEX
  5
1359
  8
TOWNS
 10
667.26981742955809
 20
4688.1411952159669
 30
0.0
  0
VERTEX
  5
135A
  8
TOWNS
 10
667.32579616185546
 20
4688.4046224975073
 30
0.0
  0
VERTEX
  5
135B
  8
TOWNS
 10
667.33299183103645
 20
4688.6175427554545
 30
0.0
  0
VERTEX
  5
135C
  8
TOWNS
 10
666.95053553683965
 20
4688.6963405373062
 30
0.0
  0
VERTEX
  5
135D
  8
TOWNS
 10
666.66054355632809
 20
4688.7696509250518
 30
0.0
  0
VERTEX
  5
135E
  8
TOWNS
 10
666.49681948459295
 20
4688.8123138382507
 30
0.0
  0
SEQEND
  5
135F
  8
TOWNS
  0
POLYLINE
  5
79
  8
TOWNS
 66
     1
 10
0.0
 20
0.0
 30
0.0
 70
     1
  0
VERTEX
  5
1360
  8
TOWNS
 10
666.87200588025212
 20
4690.7150481522349
 30
0.0
  0
VERTEX
  5
1361
  8
TOWNS
 10
666.84170528918708
 20
4690.5396227553219
 30
0.0
  0
VERTEX
  5
1362
  8
TOWNS
 10
667.11278981840735
 20
4690.3875271414727
 30
0.0
  0
VERTEX
  5
1363
  8
TOWNS
 10
667.53391410331631
 20
4690.2525972342273
 30
0.0
  0
VERTEX
  5
1364
  8
TOWNS
 10
667.87404391086227
 20
4690.1074152464807
 30
0.0
  0
VERTEX
  5
1365
  8
TOWNS
 10
668.18490402045995
 20
4689.9684531178837
 30
0.0
  0
VERTEX
  5
1366
  8
TOWNS
 10
668.55179724582877
 20
4689.9082926003912
 30
0.0
  0
VERTEX
  5
1367
  8
TOWNS
 10
668.91719207150948
 20
4689.8661522768434
 30
0.0
  0
VERTEX
  5
1368
  8
TOWNS
 10
669.05289244226515
 20
4690.076581940064
 30
0.0
  0
VERTEX
  5
1369
  8
TOWNS
 10
668.75652128144156
 20
4690.2360102311868
 30
0.0
  0
VERTEX
  5
136A
  8
TOWNS
 10
668.34282868342996
 20
4690.3560931496413
 30
0.0
  0
VERTEX
  5
136B
  8
TOWNS
 10
667.91362809967075
 20
4690.4928080285108
 30
0.0
  0
VERTEX
  5
136C
  8
TOWNS
 10
667.50798425897028
 20
4690.6121086273133
 30
0.0
  0
VERTEX
  5
136D
  8
TOWNS
 10
667.34099320092537
 20
4690.6275897711266
 30
0.0
  0
VERTEX
  5
136E
  8
TOWNS
 10
667.2264102323245
 20
4690.7077252322879
 30
0.0
  0
SEQEND
  5
136F
  8
TOWNS
  0
POLYLINE
  5
7A
  8
TOWNS
 66
     1
 10
0.0
 20
0.0
 30
0.0
 70
     1
  0
VERTEX
  5
1370
  8
TOWNS
 10
665.57951933335994
 20
4677.2027656516557
 30
0.0
  0
VERTEX
  5
1371
  8
TOWNS
 10
665.43283441706683
 20
4677.1365250815334
 30
0.0
  0
VERTEX
  5
1372
  8
TOWNS
 10
665.38594649173388
 20
4677.090083748908
 30
0.0
  0
VERTEX
  5
1373
  8
TOWNS
 10
665.18968050727437
 20
4677.1850334288556
 30
0.0
  0
VERTEX
  5
1374
  8
TOWNS
 10
665.14975676226652
 20
4677.323410557442
 30
0.0
  0
VERTEX
  5
1375
  8
TOWNS
 10
665.16934752358793
 20
4677.450378161252
 30
0.0
  0
VERTEX
  5
1376
  8
TOWNS
 10
665.39767082959145
 20
4677.3573124625518
 30
0.0
  0
SEQEND
  5
1377
  8
TOWNS
  0
POLYLINE
  5
7B
  8
TOWNS
 66
     1
 10
0.0
 20
0.0
 30
0.0
 70
     1
  0
VERTEX
  5
1378
  8
TOWNS
 10
665.3319165810891
 20
4676.4634761214147
 30
0.0
  0
VERTEX
  5
1379
  8
TOWNS
 10
665.52432082189932
 20
4676.3995260279589
 30
0.0
  0
VERTEX
  5
137A
  8
TOWNS
 10
665.51353359600171
 20
4676.2808275137813
 30
0.0
  0
VERTEX
  5
137B
  8
TOWNS
 10
665.32430778881053
 20
4676.2655956430372
 30
0.0
  0
VERTEX
  5
137C
  8
TOWNS
 10
665.26606612138562
 20
4676.340254866629
 30
0.0
  0
SEQEND
  5
137D
  8
TOWNS
  0
POLYLINE
  5
7C
  8
TOWNS
 66
     1
 10
0.0
 20
0.0
 30
0.0
 70
     1
  0
VERTEX
  5
137E
  8
TOWNS
 10
666.72103994625843
 20
4673.2706581507691
 30
0.0
  0
VERTEX
  5
137F
  8
TOWNS
 10
666.76147059552045
 20
4673.1503562992066
 30
0.0
  0
VERTEX
  5
1380
  8
TOWNS
 10
666.78140754071751
 20
4673.04554604839
 30
0.0
  0
VERTEX
  5
1381
  8
TOWNS
 10
666.47139459117875
 20
4672.8614339098885
 30
0.0
  0
VERTEX
  5
1382
  8
TOWNS
 10
666.26579585396735
 20
4672.8577931981636
 30
0.0
  0
VERTEX
  5
1383
  8
TOWNS
 10
666.25084462708764
 20
4672.9637438086511
 30
0.0
  0
VERTEX
  5
1384
  8
TOWNS
 10
666.08190334817959
 20
4672.97716456544
 30
0.0
  0
VERTEX
  5
1385
  8
TOWNS
 10
666.07548024132495
 20
4673.1014107852716
 30
0.0
  0
VERTEX
  5
1386
  8
TOWNS
 10
666.30081790448855
 20
4673.0805084869698
 30
0.0
  0
SEQEND
  5
1387
  8
TOWNS
  0
POLYLINE
  5
7D
  8
TOWNS
 66
     1
 10
0.0
 20
0.0
 30
0.0
 70
     1
  0
VERTEX
  5
1388
  8
TOWNS
 10
669.69790356071121
 20
4675.0331379454501
 30
0.0
  0
VERTEX
  5
1389
  8
TOWNS
 10
669.59391955608965
 20
4674.9831214411106
 30
0.0
  0
VERTEX
  5
138A
  8
TOWNS
 10
669.41191033194298
 20
4674.8878151203571
 30
0.0
  0
VERTEX
  5
138B
  8
TOWNS
 10
669.26073544505005
 20
4674.8023864550796
 30
0.0
  0
VERTEX
  5
138C
  8
TOWNS
 10
669.15204113750985
 20
4674.7412030713567
 30
0.0
  0
VERTEX
  5
138D
  8
TOWNS
 10
669.06722361457491
 20
4674.7970709378897
 30
0.0
  0
VERTEX
  5
138E
  8
TOWNS
 10
669.1327488042665
 20
4674.8590753393401
 30
0.0
  0
VERTEX
  5
138F
  8
TOWNS
 10
669.05193666075115
 20
4674.9883020490224
 30
0.0
  0
VERTEX
  5
1390
  8
TOWNS
 10
669.28211187760064
 20
4675.1200507242283
 30
0.0
  0
VERTEX
  5
1391
  8
TOWNS
 10
669.44651925936614
 20
4675.1255701887349
 30
0.0
  0
VERTEX
  5
1392
  8
TOWNS
 10
669.50449666792974
 20
4675.0970604973627
 30
0.0
  0
VERTEX
  5
1393
  8
TOWNS
 10
669.71064100747185
 20
4675.1538968466512
 30
0.0
  0
SEQEND
  5
1394
  8
TOWNS
  0
POLYLINE
  5
7E
  8
TOWNS
 66
     1
 10
0.0
 20
0.0
 30
0.0
 70
     1
  0
VERTEX
  5
1395
  8
TOWNS
 10
665.87048392497945
 20
4690.7831174328621
 30
0.0
  0
VERTEX
  5
1396
  8
TOWNS
 10
665.8861673542425
 20
4690.7052091053492
 30
0.0
  0
VERTEX
  5
1397
  8
TOWNS
 10
666.26752219549815
 20
4690.730173027835
 30
0.0
  0
VERTEX
  5
1398
  8
TOWNS
 10
666.28441610564971
 20
4690.8972730512232
 30
0.0
  0
VERTEX
  5
1399
  8
TOWNS
 10
666.07399413789278
 20
4690.9300386823434
 30
0.0
  0
SEQEND
  5
139A
  8
TOWNS
  0
POLYLINE
  5
7F
  8
TOWNS
 66
     1
 10
0.0
 20
0.0
 30
0.0
 70
     1
  0
VERTEX
  5
139B
  8
TOWNS
 10
664.86918266201565
 20
4690.9573950593367
 30
0.0
  0
VERTEX
  5
139C
  8
TOWNS
 10
664.86845099543075
 20
4690.7802098711818
 30
0.0
  0
VERTEX
  5
139D
  8
TOWNS
 10
665.72499684261982
 20
4690.722983027681
 30
0.0
  0
VERTEX
  5
139E
  8
TOWNS
 10
665.72661774432436
 20
4690.8925432402866
 30
0.0
  0
VERTEX
  5
139F
  8
TOWNS
 10
665.37517714859473
 20
4690.9787982084326
 30
0.0
  0
VERTEX
  5
13A0
  8
TOWNS
 10
665.34078444718205
 20
4690.9116383187829
 30
0.0
  0
SEQEND
  5
13A1
  8
TOWNS
  0
POLYLINE
  5
80
  8
TOWNS
 66
     1
 10
0.0
 20
0.0
 30
0.0
 70
     1
  0
VERTEX
  5
13A2
  8
TOWNS
 10
666.01845712858528
 20
4693.9706408476786
 30
0.0
  0
VERTEX
  5
13A3
  8
TOWNS
 10
666.02188267211773
 20
4693.4967633320903
 30
0.0
  0
VERTEX
  5
13A4
  8
TOWNS
 10
666.3065130713444
 20
4693.5364607210486
 30
0.0
  0
VERTEX
  5
13A5
  8
TOWNS
 10
666.26163167161098
 20
4693.9948531005784
 30
0.0
  0
SEQEND
  5
13A6
  8
TOWNS
  0
POLYLINE
  5
81
  8
TOWNS
 66
     1
 10
0.0
 20
0.0
 30
0.0
 70
     1
  0
VERTEX
  5
13A7
  8
TOWNS
 10
667.60803898775066
 20
4693.6520536207709
 30
0.0
  0
VERTEX
  5
13A8
  8
TOWNS
 10
667.53275686236782
 20
4693.6211248518821
 30
0.0
  0
VERTEX
  5
13A9
  8
TOWNS
 10
667.53977390245757
 20
4693.5779274172
 30
0.0
  0
VERTEX
  5
13AA
  8
TOWNS
 10
667.49665486276365
 20
4693.5564989349641
 30
0.0
  0
VERTEX
  5
13AB
  8
TOWNS
 10
667.43489494440792
 20
4693.5332735366092
 30
0.0
  0
VERTEX
  5
13AC
  8
TOWNS
 10
667.45248596506565
 20
4693.4163787650496
 30
0.0
  0
VERTEX
  5
13AD
  8
TOWNS
 10
667.54629907239439
 20
4693.3134627360323
 30
0.0
  0
VERTEX
  5
13AE
  8
TOWNS
 10
667.75637517991277
 20
4693.3442769967387
 30
0.0
  0
VERTEX
  5
13AF
  8
TOWNS
 10
667.82724880001683
 20
4693.2505615088348
 30
0.0
  0
VERTEX
  5
13B0
  8
TOWNS
 10
667.91882690159196
 20
4693.2468208881228
 30
0.0
  0
VERTEX
  5
13B1
  8
TOWNS
 10
667.98347126438898
 20
4693.2073279609567
 30
0.0
  0
VERTEX
  5
13B2
  8
TOWNS
 10
668.04954362571721
 20
4693.2170127064037
 30
0.0
  0
VERTEX
  5
13B3
  8
TOWNS
 10
668.05655527577733
 20
4693.3306502830246
 30
0.0
  0
VERTEX
  5
13B4
  8
TOWNS
 10
668.13044551582755
 20
4693.4616068035821
 30
0.0
  0
VERTEX
  5
13B5
  8
TOWNS
 10
668.21071180166018
 20
4693.6672006223043
 30
0.0
  0
VERTEX
  5
13B6
  8
TOWNS
 10
668.22460214771479
 20
4693.7630727209716
 30
0.0
  0
VERTEX
  5
13B7
  8
TOWNS
 10
668.15831304730409
 20
4693.7932313744004
 30
0.0
  0
VERTEX
  5
13B8
  8
TOWNS
 10
667.98723260677025
 20
4693.7626292413079
 30
0.0
  0
VERTEX
  5
13B9
  8
TOWNS
 10
667.76624204847531
 20
4693.7122571980017
 30
0.0
  0
VERTEX
  5
13BA
  8
TOWNS
 10
667.60460194548853
 20
4693.6605124938033
 30
0.0
  0
SEQEND
  5
13BB
  8
TOWNS
  0
POLYLINE
  5
82
  8
TOWNS
 66
     1
 10
0.0
 20
0.0
 30
0.0
 70
     1
  0
VERTEX
  5
13BC
  8
TOWNS
 10
665.80062959039788
 20
4696.4978801328689
 30
0.0
  0
VERTEX
  5
13BD
  8
TOWNS
 10
665.93440448401225
 20
4696.4685691692557
 30
0.0
  0
VERTEX
  5
13BE
  8
TOWNS
 10
666.01301582462634
 20
4696.3244244143516
 30
0.0
  0
VERTEX
  5
13BF
  8
TOWNS
 10
666.00890995400675
 20
4696.2403826257769
 30
0.0
  0
VERTEX
  5
13C0
  8
TOWNS
 10
665.91643199557927
 20
4696.1645924270297
 30
0.0
  0
VERTEX
  5
13C1
  8
TOWNS
 10
665.82603392632075
 20
4696.1490557912148
 30
0.0
  0
VERTEX
  5
13C2
  8
TOWNS
 10
665.68494733474051
 20
4696.0857751158028
 30
0.0
  0
VERTEX
  5
13C3
  8
TOWNS
 10
665.48831923236207
 20
4696.158661542936
 30
0.0
  0
VERTEX
  5
13C4
  8
TOWNS
 10
665.58319086600841
 20
4696.2802960732706
 30
0.0
  0
VERTEX
  5
13C5
  8
TOWNS
 10
665.70592407877814
 20
4696.3686171859399
 30
0.0
  0
SEQEND
  5
13C6
  8
TOWNS
  0
POLYLINE
  5
83
  8
TOWNS
 66
     1
 10
0.0
 20
0.0
 30
0.0
 70
     1
  0
VERTEX
  5
13C7
  8
TOWNS
 10
666.71044171811604
 20
4699.8511958068939
 30
0.0
  0
VERTEX
  5
13C8
  8
TOWNS
 10
666.69442664051519
 20
4699.924623381271
 30
0.0
  0
VERTEX
  5
13C9
  8
TOWNS
 10
666.604894631104
 20
4699.9082576016126
 30
0.0
  0
VERTEX
  5
13CA
  8
TOWNS
 10
666.60727424718959
 20
4699.8379251065662
 30
0.0
  0
SEQEND
  5
13CB
  8
TOWNS
  0
POLYLINE
  5
84
  8
TOWNS
 66
     1
 10
0.0
 20
0.0
 30
0.0
 70
     1
  0
VERTEX
  5
13CC
  8
TOWNS
 10
670.14376507204986
 20
4699.3951120103211
 30
0.0
  0
VERTEX
  5
13CD
  8
TOWNS
 10
670.31550186748325
 20
4699.258083246802
 30
0.0
  0
VERTEX
  5
13CE
  8
TOWNS
 10
670.41782613543569
 20
4699.154311060649
 30
0.0
  0
VERTEX
  5
13CF
  8
TOWNS
 10
670.52698219327885
 20
4699.165168161464
 30
0.0
  0
VERTEX
  5
13D0
  8
TOWNS
 10
670.57216057047026
 20
4699.232296295454
 30
0.0
  0
VERTEX
  5
13D1
  8
TOWNS
 10
670.50338967422135
 20
4699.3529112367587
 30
0.0
  0
VERTEX
  5
13D2
  8
TOWNS
 10
670.4158437976746
 20
4699.4400451720812
 30
0.0
  0
VERTEX
  5
13D3
  8
TOWNS
 10
670.28090751616696
 20
4699.4837469090398
 30
0.0
  0
SEQEND
  5
13D4
  8
TOWNS
  0
POLYLINE
  5
85
  8
TOWNS
 66
     1
 10
0.0
 20
0.0
 30
0.0
 70
     1
  0
VERTEX
  5
13D5
  8
TOWNS
 10
667.91863764067318
 20
4700.0165789954654
 30
0.0
  0
VERTEX
  5
13D6
  8
TOWNS
 10
667.71106601262511
 20
4700.0468269183593
 30
0.0
  0
VERTEX
  5
13D7
  8
TOWNS
 10
667.52142469561045
 20
4700.0325211035779
 30
0.0
  0
VERTEX
  5
13D8
  8
TOWNS
 10
667.42382421011325
 20
4699.9583153604999
 30
0.0
  0
VERTEX
  5
13D9
  8
TOWNS
 10
667.45272090368985
 20
4699.8385280967459
 30
0.0
  0
VERTEX
  5
13DA
  8
TOWNS
 10
667.65017521732921
 20
4699.8445240151132
 30
0.0
  0
VERTEX
  5
13DB
  8
TOWNS
 10
667.85267822602657
 20
4699.8523258851837
 30
0.0
  0
SEQEND
  5
13DC
  8
TOWNS
  0
POLYLINE
  5
86
  8
TOWNS
 66
     1
 10
0.0
 20
0.0
 30
0.0
 70
     1
  0
VERTEX
  5
13DD
  8
TOWNS
 10
666.29782784180895
 20
4702.0
 30
0.0
  0
VERTEX
  5
13DE
  8
TOWNS
 10
666.39264105299014
 20
4701.9447805554782
 30
0.0
  0
VERTEX
  5
13DF
  8
TOWNS
 10
666.49149668268535
 20
4701.961349373164
 30
0.0
  0
VERTEX
  5
13E0
  8
TOWNS
 10
666.65712827802497
 20
4701.9878523915222
 30
0.0
  0
VERTEX
  5
13E1
  8
TOWNS
 10
666.66224462816001
 20
4702.0
 30
0.0
  0
SEQEND
  5
13E2
  8
TOWNS
  0
POLYLINE
  5
87
  8
TOWNS
 66
     1
 10
0.0
 20
0.0
 30
0.0
 70
     1
  0
VERTEX
  5
13E3
  8
TOWNS
 10
664.8513176814597
 20
4701.8119991164303
 30
0.0
  0
VERTEX
  5
13E4
  8
TOWNS
 10
664.76385443466415
 20
4701.6616937874242
 30
0.0
  0
VERTEX
  5
13E5
  8
TOWNS
 10
664.73730484003715
 20
4701.59581933134
 30
0.0
  0
VERTEX
  5
13E6
  8
TOWNS
 10
664.77848956091657
 20
4701.5348119228693
 30
0.0
  0
VERTEX
  5
13E7
  8
TOWNS
 10
664.84778694151021
 20
4701.623665385041
 30
0.0
  0
VERTEX
  5
13E8
  8
TOWNS
 10
664.89758947969256
 20
4701.7120943131476
 30
0.0
  0
SEQEND
  5
13E9
  8
TOWNS
  0
POLYLINE
  5
88
  8
TOWNS
 66
     1
 10
0.0
 20
0.0
 30
0.0
 70
     1
  0
VERTEX
  5
13EA
  8
TOWNS
 10
664.39821652281444
 20
4671.0797918060271
 30
0.0
  0
VERTEX
  5
13EB
  8
TOWNS
 10
664.40597300571642
 20
4671.0339365729733
 30
0.0
  0
VERTEX
  5
13EC
  8
TOWNS
 10
664.48114568138851
 20
4671.03794107676
 30
0.0
  0
VERTEX
  5
13ED
  8
TOWNS
 10
664.6454679654214
 20
4671.0625494661545
 30
0.0
  0
VERTEX
  5
13EE
  8
TOWNS
 10
664.70667602668175
 20
4671.0448575091823
 30
0.0
  0
VERTEX
  5
13EF
  8
TOWNS
 10
664.75764373652271
 20
4671.0462549616841
 30
0.0
  0
VERTEX
  5
13F0
  8
TOWNS
 10
664.76893970826575
 20
4671.1176417829811
 30
0.0
  0
VERTEX
  5
13F1
  8
TOWNS
 10
664.67460371345805
 20
4671.1339794014193
 30
0.0
  0
VERTEX
  5
13F2
  8
TOWNS
 10
664.54592710675126
 20
4671.1234742070501
 30
0.0
  0
VERTEX
  5
13F3
  8
TOWNS
 10
664.48097938465276
 20
4671.1067516424619
 30
0.0
  0
SEQEND
  5
13F4
  8
TOWNS
  0
POLYLINE
  5
89
  8
TOWNS
 66
     1
 10
0.0
 20
0.0
 30
0.0
 70
     1
  0
VERTEX
  5
13F5
  8
TOWNS
 10
664.19043034136757
 20
4689.8611370040753
 30
0.0
  0
VERTEX
  5
13F6
  8
TOWNS
 10
664.17770654990284
 20
4689.7634568290414
 30
0.0
  0
VERTEX
  5
13F7
  8
TOWNS
 10
664.41479446490212
 20
4689.6922969552388
 30
0.0
  0
VERTEX
  5
13F8
  8
TOWNS
 10
664.51539884157762
 20
4689.6479460762339
 30
0.0
  0
VERTEX
  5
13F9
  8
TOWNS
 10
664.58106712224719
 20
4689.7146177793138
 30
0.0
  0
VERTEX
  5
13FA
  8
TOWNS
 10
664.63158302401337
 20
4689.9311859029658
 30
0.0
  0
VERTEX
  5
13FB
  8
TOWNS
 10
664.51408670102285
 20
4689.9588629832697
 30
0.0
  0
SEQEND
  5
13FC
  8
TOWNS
  0
POLYLINE
  5
8A
  8
TOWNS
 66
     1
 10
0.0
 20
0.0
 30
0.0
 70
     1
  0
VERTEX
  5
13FD
  8
TOWNS
 10
663.97352764923789
 20
4689.4778622157019
 30
0.0
  0
VERTEX
  5
13FE
  8
TOWNS
 10
663.98222977896921
 20
4689.3886794668488
 30
0.0
  0
VERTEX
  5
13FF
  8
TOWNS
 10
664.0663024158747
 20
4689.2985290520774
 30
0.0
  0
VERTEX
  5
1400
  8
TOWNS
 10
664.15778624584073
 20
4689.1723741864253
 30
0.0
  0
VERTEX
  5
1401
  8
TOWNS
 10
664.23668390909154
 20
4689.0910254817927
 30
0.0
  0
VERTEX
  5
1402
  8
TOWNS
 10
664.31894879123945
 20
4689.0958424659939
 30
0.0
  0
VERTEX
  5
1403
  8
TOWNS
 10
664.38186514296285
 20
4689.1802115562832
 30
0.0
  0
VERTEX
  5
1404
  8
TOWNS
 10
664.40744695424871
 20
4689.3135135924686
 30
0.0
  0
VERTEX
  5
1405
  8
TOWNS
 10
664.42580661487
 20
4689.4163295882709
 30
0.0
  0
VERTEX
  5
1406
  8
TOWNS
 10
664.3408670010009
 20
4689.474172763842
 30
0.0
  0
VERTEX
  5
1407
  8
TOWNS
 10
664.29373397928566
 20
4689.3425039926269
 30
0.0
  0
VERTEX
  5
1408
  8
TOWNS
 10
664.15451417317024
 20
4689.3857440382362
 30
0.0
  0
VERTEX
  5
1409
  8
TOWNS
 10
664.14750795302609
 20
4689.4914126519416
 30
0.0
  0
SEQEND
  5
140A
  8
TOWNS
  0
POLYLINE
  5
8B
  8
TOWNS
 66
     1
 10
0.0
 20
0.0
 30
0.0
 70
     1
  0
VERTEX
  5
140B
  8
TOWNS
 10
664.42694197778974
 20
4688.9660921861641
 30
0.0
  0
VERTEX
  5
140C
  8
TOWNS
 10
664.49909293848566
 20
4688.9182230902043
 30
0.0
  0
VERTEX
  5
140D
  8
TOWNS
 10
664.79740351271312
 20
4688.81235753277
 30
0.0
  0
VERTEX
  5
140E
  8
TOWNS
 10
664.82708411220153
 20
4688.8190572518624
 30
0.0
  0
VERTEX
  5
140F
  8
TOWNS
 10
664.84759385587995
 20
4688.9016353570933
 30
0.0
  0
VERTEX
  5
1410
  8
TOWNS
 10
664.80949191888885
 20
4689.0126187862952
 30
0.0
  0
VERTEX
  5
1411
  8
TOWNS
 10
664.64342063945605
 20
4689.0764244981674
 30
0.0
  0
SEQEND
  5
1412
  8
TOWNS
  0
POLYLINE
  5
8C
  8
TOWNS
 66
     1
 10
0.0
 20
0.0
 30
0.0
 70
     1
  0
VERTEX
  5
1413
  8
TOWNS
 10
663.60113400761043
 20
4681.516421715738
 30
0.0
  0
VERTEX
  5
1414
  8
TOWNS
 10
663.72660102730367
 20
4681.4119025537984
 30
0.0
  0
VERTEX
  5
1415
  8
TOWNS
 10
663.9520273480739
 20
4681.2121932629907
 30
0.0
  0
VERTEX
  5
1416
  8
TOWNS
 10
664.15115996476186
 20
4681.0402445825339
 30
0.0
  0
VERTEX
  5
1417
  8
TOWNS
 10
664.35035474773815
 20
4680.8606668988496
 30
0.0
  0
VERTEX
  5
1418
  8
TOWNS
 10
664.53834142161247
 20
4680.8081563805699
 30
0.0
  0
VERTEX
  5
1419
  8
TOWNS
 10
664.62839519726936
 20
4680.8362292765414
 30
0.0
  0
VERTEX
  5
141A
  8
TOWNS
 10
664.62145084118674
 20
4680.9862197152916
 30
0.0
  0
VERTEX
  5
141B
  8
TOWNS
 10
664.59082312890962
 20
4681.1557267329954
 30
0.0
  0
VERTEX
  5
141C
  8
TOWNS
 10
664.35174330994073
 20
4681.2364315714576
 30
0.0
  0
VERTEX
  5
141D
  8
TOWNS
 10
664.16635144238194
 20
4681.2826053091449
 30
0.0
  0
VERTEX
  5
141E
  8
TOWNS
 10
664.03603899680013
 20
4681.5136076914587
 30
0.0
  0
VERTEX
  5
141F
  8
TOWNS
 10
663.78158719984901
 20
4681.608174703264
 30
0.0
  0
VERTEX
  5
1420
  8
TOWNS
 10
663.60094087404025
 20
4681.6181469392923
 30
0.0
  0
SEQEND
  5
1421
  8
TOWNS
  0
POLYLINE
  5
8D
  8
TOWNS
 66
     1
 10
0.0
 20
0.0
 30
0.0
 70
     1
  0
VERTEX
  5
1422
  8
TOWNS
 10
664.63989714205707
 20
4676.3037583883588
 30
0.0
  0
VERTEX
  5
1423
  8
TOWNS
 10
664.62264527007017
 20
4676.2362238051819
 30
0.0
  0
VERTEX
  5
1424
  8
TOWNS
 10
664.67142335714436
 20
4676.1800357510701
 30
0.0
  0
VERTEX
  5
1425
  8
TOWNS
 10
664.71236003950764
 20
4676.1498512916969
 30
0.0
  0
VERTEX
  5
1426
  8
TOWNS
 10
664.67606156207273
 20
4676.0789825414531
 30
0.0
  0
VERTEX
  5
1427
  8
TOWNS
 10
664.74571061701795
 20
4676.0363162002805
 30
0.0
  0
VERTEX
  5
1428
  8
TOWNS
 10
664.90318500432568
 20
4676.061123730181
 30
0.0
  0
VERTEX
  5
1429
  8
TOWNS
 10
665.14048935774701
 20
4676.1202787703578
 30
0.0
  0
VERTEX
  5
142A
  8
TOWNS
 10
665.1707759734179
 20
4676.2267029109471
 30
0.0
  0
VERTEX
  5
142B
  8
TOWNS
 10
665.15926884810699
 20
4676.3124411283443
 30
0.0
  0
VERTEX
  5
142C
  8
TOWNS
 10
665.00570075766245
 20
4676.3544236403504
 30
0.0
  0
VERTEX
  5
142D
  8
TOWNS
 10
664.91042628623075
 20
4676.3428388071779
 30
0.0
  0
VERTEX
  5
142E
  8
TOWNS
 10
664.67204065747705
 20
4676.3383531096051
 30
0.0
  0
SEQEND
  5
142F
  8
TOWNS
  0
POLYLINE
  5
8E
  8
TOWNS
 66
     1
 10
0.0
 20
0.0
 30
0.0
 70
     1
  0
VERTEX
  5
1430
  8
TOWNS
 10
664.19062374235716
 20
4676.2753014974069
 30
0.0
  0
VERTEX
  5
1431
  8
TOWNS
 10
664.17271539800527
 20
4676.2103047347819
 30
0.0
  0
VERTEX
  5
1432
  8
TOWNS
 10
664.20480856236759
 20
4676.1730544951142
 30
0.0
  0
VERTEX
  5
1433
  8
TOWNS
 10
664.23174837776651
 20
4676.144027564751
 30
0.0
  0
VERTEX
  5
1434
  8
TOWNS
 10
664.35580774911625
 20
4676.134230012357
 30
0.0
  0
VERTEX
  5
1435
  8
TOWNS
 10
664.41585692955732
 20
4676.1773174301552
 30
0.0
  0
VERTEX
  5
1436
  8
TOWNS
 10
664.50668114910695
 20
4676.1888659996584
 30
0.0
  0
VERTEX
  5
1437
  8
TOWNS
 10
664.32821891403614
 20
4676.3209281899399
 30
0.0
  0
SEQEND
  5
1438
  8
TOWNS
  0
POLYLINE
  5
8F
  8
TOWNS
 66
     1
 10
0.0
 20
0.0
 30
0.0
 70
     1
  0
VERTEX
  5
1439
  8
TOWNS
 10
663.83266916591924
 20
4672.4525434009784
 30
0.0
  0
VERTEX
  5
143A
  8
TOWNS
 10
663.97644197612988
 20
4672.4422706945588
 30
0.0
  0
VERTEX
  5
143B
  8
TOWNS
 10
664.10699727013446
 20
4672.4935621537461
 30
0.0
  0
VERTEX
  5
143C
  8
TOWNS
 10
664.18040756727135
 20
4672.5354868620097
 30
0.0
  0
VERTEX
  5
143D
  8
TOWNS
 10
664.24602308441285
 20
4672.5976934125929
 30
0.0
  0
VERTEX
  5
143E
  8
TOWNS
 10
664.22714080155038
 20
4672.6522177005263
 30
0.0
  0
VERTEX
  5
143F
  8
TOWNS
 10
664.17571755710276
 20
4672.6428975743147
 30
0.0
  0
VERTEX
  5
1440
  8
TOWNS
 10
664.09956221845471
 20
4672.6257464044447
 30
0.0
  0
VERTEX
  5
1441
  8
TOWNS
 10
664.03853019263715
 20
4672.6252490741399
 30
0.0
  0
SEQEND
  5
1442
  8
TOWNS
  0
POLYLINE
  5
90
  8
TOWNS
 66
     1
 10
0.0
 20
0.0
 30
0.0
 70
     1
  0
VERTEX
  5
1443
  8
TOWNS
 10
663.62503124672685
 20
4691.2037242251172
 30
0.0
  0
VERTEX
  5
1444
  8
TOWNS
 10
663.6419534422896
 20
4691.006247915635
 30
0.0
  0
VERTEX
  5
1445
  8
TOWNS
 10
663.3969558881771
 20
4690.9220327595203
 30
0.0
  0
VERTEX
  5
1446
  8
TOWNS
 10
663.3859686752246
 20
4690.883132603567
 30
0.0
  0
VERTEX
  5
1447
  8
TOWNS
 10
663.54791708905157
 20
4690.8398933951448
 30
0.0
  0
VERTEX
  5
1448
  8
TOWNS
 10
663.58953368703214
 20
4690.7049945612143
 30
0.0
  0
VERTEX
  5
1449
  8
TOWNS
 10
663.84710081182436
 20
4690.8014328480886
 30
0.0
  0
VERTEX
  5
144A
  8
TOWNS
 10
664.26266239504207
 20
4690.8666623370946
 30
0.0
  0
VERTEX
  5
144B
  8
TOWNS
 10
664.24208467562221
 20
4690.9960860953388
 30
0.0
  0
VERTEX
  5
144C
  8
TOWNS
 10
664.09349701133829
 20
4691.0382099219232
 30
0.0
  0
VERTEX
  5
144D
  8
TOWNS
 10
663.88523715590861
 20
4691.0739173087222
 30
0.0
  0
VERTEX
  5
144E
  8
TOWNS
 10
663.83882353745275
 20
4691.2386337074377
 30
0.0
  0
SEQEND
  5
144F
  8
TOWNS
  0
POLYLINE
  5
91
  8
TOWNS
 66
     1
 10
0.0
 20
0.0
 30
0.0
 70
     1
  0
VERTEX
  5
1450
  8
TOWNS
 10
664.50673340969206
 20
4691.030317522449
 30
0.0
  0
VERTEX
  5
1451
  8
TOWNS
 10
664.50679464713414
 20
4690.9705712081459
 30
0.0
  0
VERTEX
  5
1452
  8
TOWNS
 10
664.50522905295475
 20
4690.9413150404389
 30
0.0
  0
VERTEX
  5
1453
  8
TOWNS
 10
664.55811065405146
 20
4690.9304908984323
 30
0.0
  0
VERTEX
  5
1454
  8
TOWNS
 10
664.63132890263364
 20
4690.9199039505284
 30
0.0
  0
VERTEX
  5
1455
  8
TOWNS
 10
664.69561280636242
 20
4690.9123908313722
 30
0.0
  0
VERTEX
  5
1456
  8
TOWNS
 10
664.7458782033666
 20
4690.9078922424424
 30
0.0
  0
VERTEX
  5
1457
  8
TOWNS
 10
664.79162083557662
 20
4690.9096969696393
 30
0.0
  0
VERTEX
  5
1458
  8
TOWNS
 10
664.78782801220393
 20
4690.9624080874728
 30
0.0
  0
VERTEX
  5
1459
  8
TOWNS
 10
664.7909814375098
 20
4691.0190138621856
 30
0.0
  0
VERTEX
  5
145A
  8
TOWNS
 10
664.79051446162055
 20
4691.0590516369239
 30
0.0
  0
VERTEX
  5
145B
  8
TOWNS
 10
664.7726087103357
 20
4691.0683768955932
 30
0.0
  0
VERTEX
  5
145C
  8
TOWNS
 10
664.75037291446472
 20
4691.0674819443093
 30
0.0
  0
VERTEX
  5
145D
  8
TOWNS
 10
664.74143309621218
 20
4691.0165291408612
 30
0.0
  0
VERTEX
  5
145E
  8
TOWNS
 10
664.6524380265181
 20
4691.0173979773654
 30
0.0
  0
VERTEX
  5
145F
  8
TOWNS
 10
664.56467693571335
 20
4691.0214592396696
 30
0.0
  0
SEQEND
  5
1460
  8
TOWNS
  0
POLYLINE
  5
92
  8
TOWNS
 66
     1
 10
0.0
 20
0.0
 30
0.0
 70
     1
  0
VERTEX
  5
1461
  8
TOWNS
 10
663.51696634883285
 20
4691.531708086507
 30
0.0
  0
VERTEX
  5
1462
  8
TOWNS
 10
663.51033529524625
 20
4691.391797274945
 30
0.0
  0
VERTEX
  5
1463
  8
TOWNS
 10
663.60969140889119
 20
4691.3745235094102
 30
0.0
  0
VERTEX
  5
1464
  8
TOWNS
 10
663.61726929997121
 20
4691.4877498834649
 30
0.0
  0
SEQEND
  5
1465
  8
TOWNS
  0
POLYLINE
  5
93
  8
TOWNS
 66
     1
 10
0.0
 20
0.0
 30
0.0
 70
     1
  0
VERTEX
  5
1466
  8
TOWNS
 10
663.50085257855039
 20
4678.9672667375362
 30
0.0
  0
VERTEX
  5
1467
  8
TOWNS
 10
663.65694904765735
 20
4678.7661081996466
 30
0.0
  0
VERTEX
  5
1468
  8
TOWNS
 10
663.71651814610095
 20
4678.782418179976
 30
0.0
  0
VERTEX
  5
1469
  8
TOWNS
 10
663.71073760945615
 20
4678.9387457129369
 30
0.0
  0
VERTEX
  5
146A
  8
TOWNS
 10
663.58729268527532
 20
4679.0490526900239
 30
0.0
  0
VERTEX
  5
146B
  8
TOWNS
 10
663.52935864218068
 20
4679.1637528355586
 30
0.0
  0
VERTEX
  5
146C
  8
TOWNS
 10
663.4534961867065
 20
4679.2218996568772
 30
0.0
  0
VERTEX
  5
146D
  8
TOWNS
 10
663.27337492589891
 20
4679.2399660426363
 30
0.0
  0
VERTEX
  5
146E
  8
TOWNS
 10
663.35360727720172
 20
4679.0954655557462
 30
0.0
  0
VERTEX
  5
146F
  8
TOWNS
 10
663.03484419565348
 20
4678.9469442623013
 30
0.0
  0
VERTEX
  5
1470
  8
TOWNS
 10
663.09427199605807
 20
4678.8367087653969
 30
0.0
  0
SEQEND
  5
1471
  8
TOWNS
  0
POLYLINE
  5
94
  8
TOWNS
 66
     1
 10
0.0
 20
0.0
 30
0.0
 70
     1
  0
VERTEX
  5
1472
  8
TOWNS
 10
662.28336963816321
 20
4664.4983853583253
 30
0.0
  0
VERTEX
  5
1473
  8
TOWNS
 10
662.25829938272364
 20
4664.4038848464943
 30
0.0
  0
VERTEX
  5
1474
  8
TOWNS
 10
662.60919413282352
 20
4664.2230472862866
 30
0.0
  0
VERTEX
  5
1475
  8
TOWNS
 10
662.67851082067239
 20
4664.3861741384408
 30
0.0
  0
VERTEX
  5
1476
  8
TOWNS
 10
662.5327377085315
 20
4664.511912976338
 30
0.0
  0
SEQEND
  5
1477
  8
TOWNS
  0
POLYLINE
  5
95
  8
TOWNS
 66
     1
 10
0.0
 20
0.0
 30
0.0
 70
     1
  0
VERTEX
  5
1478
  8
TOWNS
 10
661.77634476508524
 20
4662.9630157820166
 30
0.0
  0
VERTEX
  5
1479
  8
TOWNS
 10
661.91280394191085
 20
4663.0657057878971
 30
0.0
  0
VERTEX
  5
147A
  8
TOWNS
 10
662.14800302183426
 20
4662.8929854801218
 30
0.0
  0
VERTEX
  5
147B
  8
TOWNS
 10
662.02001774345183
 20
4662.7507332611121
 30
0.0
  0
SEQEND
  5
147C
  8
TOWNS
  0
POLYLINE
  5
96
  8
TOWNS
 66
     1
 10
0.0
 20
0.0
 30
0.0
 70
     1
  0
VERTEX
  5
147D
  8
TOWNS
 10
662.54470730141804
 20
4661.3591560563937
 30
0.0
  0
VERTEX
  5
147E
  8
TOWNS
 10
662.71921636738523
 20
4661.3950421589034
 30
0.0
  0
VERTEX
  5
147F
  8
TOWNS
 10
662.81752706083148
 20
4660.9829271489116
 30
0.0
  0
VERTEX
  5
1480
  8
TOWNS
 10
662.63722739472485
 20
4660.9471573790179
 30
0.0
  0
SEQEND
  5
1481
  8
TOWNS
  0
POLYLINE
  5
97
  8
TOWNS
 66
     1
 10
0.0
 20
0.0
 30
0.0
 70
     1
  0
VERTEX
  5
1482
  8
TOWNS
 10
662.45697138348658
 20
4668.4747394498963
 30
0.0
  0
VERTEX
  5
1483
  8
TOWNS
 10
662.4573363333426
 20
4668.4022037515779
 30
0.0
  0
VERTEX
  5
1484
  8
TOWNS
 10
662.46580826778165
 20
4668.2760281381989
 30
0.0
  0
VERTEX
  5
1485
  8
TOWNS
 10
662.66754750621874
 20
4668.2834469220452
 30
0.0
  0
VERTEX
  5
1486
  8
TOWNS
 10
662.89703623712705
 20
4668.2878381145292
 30
0.0
  0
VERTEX
  5
1487
  8
TOWNS
 10
662.89778262637913
 20
4668.3753600658792
 30
0.0
  0
VERTEX
  5
1488
  8
TOWNS
 10
662.89368036417636
 20
4668.476967494199
 30
0.0
  0
VERTEX
  5
1489
  8
TOWNS
 10
662.66861848787585
 20
4668.4749335233992
 30
0.0
  0
SEQEND
  5
148A
  8
TOWNS
  0
POLYLINE
  5
98
  8
TOWNS
 66
     1
 10
0.0
 20
0.0
 30
0.0
 70
     1
  0
VERTEX
  5
148B
  8
TOWNS
 10
662.33238410191768
 20
4677.5951156418241
 30
0.0
  0
VERTEX
  5
148C
  8
TOWNS
 10
662.42911466945804
 20
4677.5516576709888
 30
0.0
  0
VERTEX
  5
148D
  8
TOWNS
 10
662.49976417454116
 20
4677.5437916884584
 30
0.0
  0
VERTEX
  5
148E
  8
TOWNS
 10
662.59360655317414
 20
4677.5865652791408
 30
0.0
  0
VERTEX
  5
148F
  8
TOWNS
 10
662.60255017277984
 20
4677.6834906603699
 30
0.0
  0
VERTEX
  5
1490
  8
TOWNS
 10
662.42200548915196
 20
4677.6670808145727
 30
0.0
  0
SEQEND
  5
1491
  8
TOWNS
  0
POLYLINE
  5
99
  8
TOWNS
 66
     1
 10
0.0
 20
0.0
 30
0.0
 70
     1
  0
VERTEX
  5
1492
  8
TOWNS
 10
663.05503781874575
 20
4661.7903253825962
 30
0.0
  0
VERTEX
  5
1493
  8
TOWNS
 10
663.06510148891425
 20
4661.6568856476342
 30
0.0
  0
VERTEX
  5
1494
  8
TOWNS
 10
662.76362322340924
 20
4661.7023342910716
 30
0.0
  0
VERTEX
  5
1495
  8
TOWNS
 10
662.78788435666502
 20
4661.8142298698422
 30
0.0
  0
SEQEND
  5
1496
  8
TOWNS
  0
POLYLINE
  5
9A
  8
TOWNS
 66
     1
 10
0.0
 20
0.0
 30
0.0
 70
     1
  0
VERTEX
  5
1497
  8
TOWNS
 10
662.91769689804084
 20
4669.5300272815857
 30
0.0
  0
VERTEX
  5
1498
  8
TOWNS
 10
662.93810619231476
 20
4669.3456930803513
 30
0.0
  0
VERTEX
  5
1499
  8
TOWNS
 10
663.12774515300953
 20
4669.3445690882263
 30
0.0
  0
VERTEX
  5
149A
  8
TOWNS
 10
663.12138574875655
 20
4669.5339271104258
 30
0.0
  0
SEQEND
  5
149B
  8
TOWNS
  0
POLYLINE
  5
9B
  8
TOWNS
 66
     1
 10
0.0
 20
0.0
 30
0.0
 70
     1
  0
VERTEX
  5
149C
  8
TOWNS
 10
661.84683396004152
 20
4690.8318075970519
 30
0.0
  0
VERTEX
  5
149D
  8
TOWNS
 10
661.8718686448052
 20
4690.6168899002678
 30
0.0
  0
VERTEX
  5
149E
  8
TOWNS
 10
662.37824471981924
 20
4690.6409880209003
 30
0.0
  0
VERTEX
  5
149F
  8
TOWNS
 10
662.32277683784173
 20
4690.9003733230056
 30
0.0
  0
SEQEND
  5
14A0
  8
TOWNS
  0
POLYLINE
  5
9C
  8
TOWNS
 66
     1
 10
0.0
 20
0.0
 30
0.0
 70
     1
  0
VERTEX
  5
14A1
  8
TOWNS
 10
662.59719067458639
 20
4691.4402744780737
 30
0.0
  0
VERTEX
  5
14A2
  8
TOWNS
 10
662.54224123216738
 20
4691.2886511186307
 30
0.0
  0
VERTEX
  5
14A3
  8
TOWNS
 10
662.60115555964035
 20
4691.1144999560283
 30
0.0
  0
VERTEX
  5
14A4
  8
TOWNS
 10
662.84470588657177
 20
4691.243010511078
 30
0.0
  0
VERTEX
  5
14A5
  8
TOWNS
 10
662.8052548552306
 20
4691.4144093546947
 30
0.0
  0
SEQEND
  5
14A6
  8
TOWNS
  0
POLYLINE
  5
9D
  8
TOWNS
 66
     1
 10
0.0
 20
0.0
 30
0.0
 70
     1
  0
VERTEX
  5
14A7
  8
TOWNS
 10
662.71927309532884
 20
4690.1765357914037
 30
0.0
  0
VERTEX
  5
14A8
  8
TOWNS
 10
662.72622136190546
 20
4689.9846775805463
 30
0.0
  0
VERTEX
  5
14A9
  8
TOWNS
 10
662.99289813705116
 20
4690.04141607977
 30
0.0
  0
VERTEX
  5
14AA
  8
TOWNS
 10
663.09291044445251
 20
4690.1624450966847
 30
0.0
  0
SEQEND
  5
14AB
  8
TOWNS
  0
POLYLINE
  5
9E
  8
TOWNS
 66
     1
 10
0.0
 20
0.0
 30
0.0
 70
     1
  0
VERTEX
  5
14AC
  8
TOWNS
 10
662.42518409410945
 20
4689.9443520350069
 30
0.0
  0
VERTEX
  5
14AD
  8
TOWNS
 10
662.41533738525607
 20
4689.8413926464791
 30
0.0
  0
VERTEX
  5
14AE
  8
TOWNS
 10
662.66592809129725
 20
4689.7583013422982
 30
0.0
  0
VERTEX
  5
14AF
  8
TOWNS
 10
662.6769943159477
 20
4689.877783958832
 30
0.0
  0
SEQEND
  5
14B0
  8
TOWNS
  0
POLYLINE
  5
9F
  8
TOWNS
 66
     1
 10
0.0
 20
0.0
 30
0.0
 70
     1
  0
VERTEX
  5
14B1
  8
TOWNS
 10
662.11199636882282
 20
4689.3143715988526
 30
0.0
  0
VERTEX
  5
14B2
  8
TOWNS
 10
662.1096518580714
 20
4689.2508279927451
 30
0.0
  0
VERTEX
  5
14B3
  8
TOWNS
 10
662.20894088410307
 20
4689.1952237436399
 30
0.0
  0
VERTEX
  5
14B4
  8
TOWNS
 10
662.16511964270956
 20
4688.9841472792323
 30
0.0
  0
VERTEX
  5
14B5
  8
TOWNS
 10
662.38111355399201
 20
4688.9937118039834
 30
0.0
  0
VERTEX
  5
14B6
  8
TOWNS
 10
662.47086956221915
 20
4689.143935749461
 30
0.0
  0
VERTEX
  5
14B7
  8
TOWNS
 10
662.50446994975448
 20
4689.3727707111457
 30
0.0
  0
VERTEX
  5
14B8
  8
TOWNS
 10
662.52308563292843
 20
4689.5164205350511
 30
0.0
  0
VERTEX
  5
14B9
  8
TOWNS
 10
662.34257720925075
 20
4689.5374634347127
 30
0.0
  0
VERTEX
  5
14BA
  8
TOWNS
 10
662.33675531605752
 20
4689.3658972735702
 30
0.0
  0
SEQEND
  5
14BB
  8
TOWNS
  0
POLYLINE
  5
A0
  8
TOWNS
 66
     1
 10
0.0
 20
0.0
 30
0.0
 70
     1
  0
VERTEX
  5
14BC
  8
TOWNS
 10
663.04999999999995
 20
4695.1000000000004
 30
0.0
  0
VERTEX
  5
14BD
  8
TOWNS
 10
663.35000000000002
 20
4695.0
 30
0.0
  0
VERTEX
  5
14BE
  8
TOWNS
 10
663.60000000000002
 20
4695.0
 30
0.0
  0
VERTEX
  5
14BF
  8
TOWNS
 10
663.49999999999977
 20
4694.6999999999998
 30
0.0
  0
VERTEX
  5
14C0
  8
TOWNS
 10
663.14999999999986
 20
4694.7499999999991
 30
0.0
  0
VERTEX
  5
14C1
  8
TOWNS
 10
663.0
 20
4694.9499999999998
 30
0.0
  0
SEQEND
  5
14C2
  8
TOWNS
  0
POLYLINE
  5
A1
  8
TOWNS
 66
     1
 10
0.0
 20
0.0
 30
0.0
 70
     1
  0
VERTEX
  5
14C3
  8
TOWNS
 10
655.18202465708896
 20
4688.0
 30
0.0
  0
VERTEX
  5
14C4
  8
TOWNS
 10
655.56842343273036
 20
4688.466536103153
 30
0.0
  0
VERTEX
  5
14C5
  8
TOWNS
 10
655.35912461515363
 20
4688.6388609048208
 30
0.0
  0
VERTEX
  5
14C6
  8
TOWNS
 10
655.24887162993525
 20
4688.5006928117464
 30
0.0
  0
VERTEX
  5
14C7
  8
TOWNS
 10
655.38584206279666
 20
4688.3243573346763
 30
0.0
  0
VERTEX
  5
14C8
  8
TOWNS
 10
655.14345404104188
 20
4688.0
 30
0.0
  0
SEQEND
  5
14C9
  8
TOWNS
  0
POLYLINE
  5
A2
  8
TOWNS
 66
     1
 10
0.0
 20
0.0
 30
0.0
 70
     1
  0
VERTEX
  5
14CA
  8
TOWNS
 10
656.43198593908357
 20
4689.0
 30
0.0
  0
VERTEX
  5
14CB
  8
TOWNS
 10
656.41055742281765
 20
4688.9514459678912
 30
0.0
  0
VERTEX
  5
14CC
  8
TOWNS
 10
657.06967041693724
 20
4688.5814945163011
 30
0.0
  0
VERTEX
  5
14CD
  8
TOWNS
 10
657.18156091714775
 20
4688.789797686416
 30
0.0
  0
VERTEX
  5
14CE
  8
TOWNS
 10
656.76502167470665
 20
4689.0
 30
0.0
  0
SEQEND
  5
14CF
  8
TOWNS
  0
POLYLINE
  5
A3
  8
TOWNS
 66
     1
 10
0.0
 20
0.0
 30
0.0
 70
     1
  0
VERTEX
  5
14D0
  8
TOWNS
 10
656.58948564021989
 20
4670.0025623064739
 30
0.0
  0
VERTEX
  5
14D1
  8
TOWNS
 10
656.68541567105376
 20
4669.979601709957
 30
0.0
  0
VERTEX
  5
14D2
  8
TOWNS
 10
656.83475607103048
 20
4669.9491252121406
 30
0.0
  0
VERTEX
  5
14D3
  8
TOWNS
 10
656.94807407267945
 20
4669.9216477889577
 30
0.0
  0
VERTEX
  5
14D4
  8
TOWNS
 10
656.94271809815552
 20
4669.9064688052777
 30
0.0
  0
VERTEX
  5
14D5
  8
TOWNS
 10
656.93162968591275
 20
4669.867120661158
 30
0.0
  0
VERTEX
  5
14D6
  8
TOWNS
 10
656.75352266115397
 20
4669.8335863241009
 30
0.0
  0
VERTEX
  5
14D7
  8
TOWNS
 10
656.60511952976265
 20
4669.787069359576
 30
0.0
  0
VERTEX
  5
14D8
  8
TOWNS
 10
656.56666590932753
 20
4669.7765060549573
 30
0.0
  0
VERTEX
  5
14D9
  8
TOWNS
 10
656.57386777038676
 20
4669.9099271757896
 30
0.0
  0
SEQEND
  5
14DA
  8
TOWNS
  0
POLYLINE
  5
A4
  8
TOWNS
 66
     1
 10
0.0
 20
0.0
 30
0.0
 70
     1
  0
VERTEX
  5
14DB
  8
TOWNS
 10
656.66639291116701
 20
4680.0122352543158
 30
0.0
  0
VERTEX
  5
14DC
  8
TOWNS
 10
656.64858993215557
 20
4679.8998885424153
 30
0.0
  0
VERTEX
  5
14DD
  8
TOWNS
 10
656.70959184587161
 20
4679.8019684048168
 30
0.0
  0
VERTEX
  5
14DE
  8
TOWNS
 10
656.80945195565425
 20
4679.8218346786207
 30
0.0
  0
VERTEX
  5
14DF
  8
TOWNS
 10
656.86256061978031
 20
4679.7659488895233
 30
0.0
  0
VERTEX
  5
14E0
  8
TOWNS
 10
656.92597354919815
 20
4679.791972973574
 30
0.0
  0
VERTEX
  5
14E1
  8
TOWNS
 10
656.84377856600179
 20
4679.9083616283042
 30
0.0
  0
VERTEX
  5
14E2
  8
TOWNS
 10
656.98149814263775
 20
4679.9481798777342
 30
0.0
  0
VERTEX
  5
14E3
  8
TOWNS
 10
656.9493115457401
 20
4680.0042796048747
 30
0.0
  0
VERTEX
  5
14E4
  8
TOWNS
 10
656.81609042562718
 20
4680.0823762140717
 30
0.0
  0
SEQEND
  5
14E5
  8
TOWNS
  0
POLYLINE
  5
A5
  8
TOWNS
 66
     1
 10
0.0
 20
0.0
 30
0.0
 70
     1
  0
VERTEX
  5
14E6
  8
TOWNS
 10
656.74772737931664
 20
4682.618016718101
 30
0.0
  0
VERTEX
  5
14E7
  8
TOWNS
 10
656.64750565184488
 20
4682.466683784929
 30
0.0
  0
VERTEX
  5
14E8
  8
TOWNS
 10
656.96179296294645
 20
4682.3705273022597
 30
0.0
  0
VERTEX
  5
14E9
  8
TOWNS
 10
656.98037069489351
 20
4682.3080511242324
 30
0.0
  0
VERTEX
  5
14EA
  8
TOWNS
 10
657.06426349665162
 20
4682.346252765341
 30
0.0
  0
VERTEX
  5
14EB
  8
TOWNS
 10
657.18641009012003
 20
4682.2146527451332
 30
0.0
  0
VERTEX
  5
14EC
  8
TOWNS
 10
657.26396448379933
 20
4682.2679563258971
 30
0.0
  0
VERTEX
  5
14ED
  8
TOWNS
 10
657.22526828618686
 20
4682.332439156532
 30
0.0
  0
VERTEX
  5
14EE
  8
TOWNS
 10
657.54860936353259
 20
4682.3570695534709
 30
0.0
  0
VERTEX
  5
14EF
  8
TOWNS
 10
657.54150069410139
 20
4682.4005779552617
 30
0.0
  0
VERTEX
  5
14F0
  8
TOWNS
 10
657.42144133043996
 20
4682.4088661627511
 30
0.0
  0
VERTEX
  5
14F1
  8
TOWNS
 10
657.38547459878498
 20
4682.521835878385
 30
0.0
  0
VERTEX
  5
14F2
  8
TOWNS
 10
657.32891365535227
 20
4682.5008663631561
 30
0.0
  0
VERTEX
  5
14F3
  8
TOWNS
 10
657.28797784568769
 20
4682.5654062580043
 30
0.0
  0
VERTEX
  5
14F4
  8
TOWNS
 10
657.1147905854823
 20
4682.5115512675402
 30
0.0
  0
VERTEX
  5
14F5
  8
TOWNS
 10
657.09870465745075
 20
4682.6718238385311
 30
0.0
  0
SEQEND
  5
14F6
  8
TOWNS
  0
POLYLINE
  5
A6
  8
TOWNS
 66
     1
 10
0.0
 20
0.0
 30
0.0
 70
     1
  0
VERTEX
  5
14F7
  8
TOWNS
 10
656.44270558312235
 20
4676.8656283552773
 30
0.0
  0
VERTEX
  5
14F8
  8
TOWNS
 10
656.5754609832461
 20
4676.7747345172793
 30
0.0
  0
VERTEX
  5
14F9
  8
TOWNS
 10
656.60298010498434
 20
4676.6964017730088
 30
0.0
  0
VERTEX
  5
14FA
  8
TOWNS
 10
656.66950349327306
 20
4676.6652118312868
 30
0.0
  0
VERTEX
  5
14FB
  8
TOWNS
 10
656.73564400682437
 20
4676.7510537654271
 30
0.0
  0
VERTEX
  5
14FC
  8
TOWNS
 10
656.83726981695395
 20
4676.5898862912181
 30
0.0
  0
VERTEX
  5
14FD
  8
TOWNS
 10
656.89306486265548
 20
4676.6192934513438
 30
0.0
  0
VERTEX
  5
14FE
  8
TOWNS
 10
656.86004191656946
 20
4676.7132927444691
 30
0.0
  0
VERTEX
  5
14FF
  8
TOWNS
 10
656.77475859464505
 20
4676.8379612662948
 30
0.0
  0
VERTEX
  5
1500
  8
TOWNS
 10
656.44862317553896
 20
4676.9174904097126
 30
0.0
  0
SEQEND
  5
1501
  8
TOWNS
  0
POLYLINE
  5
A7
  8
TOWNS
 66
     1
 10
0.0
 20
0.0
 30
0.0
 70
     1
  0
VERTEX
  5
1502
  8
TOWNS
 10
656.45591149058635
 20
4679.6381110377361
 30
0.0
  0
VERTEX
  5
1503
  8
TOWNS
 10
656.18897384980221
 20
4679.3057644862074
 30
0.0
  0
VERTEX
  5
1504
  8
TOWNS
 10
656.49632817569125
 20
4679.1134188136984
 30
0.0
  0
VERTEX
  5
1505
  8
TOWNS
 10
656.61314000390576
 20
4679.1829036405252
 30
0.0
  0
VERTEX
  5
1506
  8
TOWNS
 10
656.71727971855933
 20
4679.2534583685729
 30
0.0
  0
VERTEX
  5
1507
  8
TOWNS
 10
656.79637442392891
 20
4679.1326665753522
 30
0.0
  0
VERTEX
  5
1508
  8
TOWNS
 10
656.90005741387415
 20
4679.068021957276
 30
0.0
  0
VERTEX
  5
1509
  8
TOWNS
 10
656.94585778933424
 20
4679.1064471526361
 30
0.0
  0
VERTEX
  5
150A
  8
TOWNS
 10
656.9489012139635
 20
4679.2258931287734
 30
0.0
  0
VERTEX
  5
150B
  8
TOWNS
 10
656.81318379835216
 20
4679.3526097727981
 30
0.0
  0
VERTEX
  5
150C
  8
TOWNS
 10
656.86270745537195
 20
4679.4492078173134
 30
0.0
  0
SEQEND
  5
150D
  8
TOWNS
  0
POLYLINE
  5
A8
  8
TOWNS
 66
     1
 10
0.0
 20
0.0
 30
0.0
 70
     1
  0
VERTEX
  5
150E
  8
TOWNS
 10
656.43198593908357
 20
4689.0
 30
0.0
  0
VERTEX
  5
150F
  8
TOWNS
 10
656.41055742281765
 20
4688.9514459678912
 30
0.0
  0
VERTEX
  5
1510
  8
TOWNS
 10
657.06967041693724
 20
4688.5814945163011
 30
0.0
  0
VERTEX
  5
1511
  8
TOWNS
 10
657.18156091714775
 20
4688.789797686416
 30
0.0
  0
VERTEX
  5
1512
  8
TOWNS
 10
656.76502167470665
 20
4689.0
 30
0.0
  0
SEQEND
  5
1513
  8
TOWNS
  0
POLYLINE
  5
A9
  8
TOWNS
 66
     1
 10
0.0
 20
0.0
 30
0.0
 70
     1
  0
VERTEX
  5
1514
  8
TOWNS
 10
656.45656937331353
 20
4686.2703680685781
 30
0.0
  0
VERTEX
  5
1515
  8
TOWNS
 10
656.59013799407694
 20
4686.0113907654741
 30
0.0
  0
VERTEX
  5
1516
  8
TOWNS
 10
656.83081634573273
 20
4686.1077473619407
 30
0.0
  0
VERTEX
  5
1517
  8
TOWNS
 10
656.8954172951062
 20
4686.0544352799889
 30
0.0
  0
VERTEX
  5
1518
  8
TOWNS
 10
657.02170294874441
 20
4686.0913012908759
 30
0.0
  0
VERTEX
  5
1519
  8
TOWNS
 10
656.88964167793824
 20
4686.4011231911627
 30
0.0
  0
SEQEND
  5
151A
  8
TOWNS
  0
POLYLINE
  5
AA
  8
TOWNS
 66
     1
 10
0.0
 20
0.0
 30
0.0
 70
     1
  0
VERTEX
  5
151B
  8
TOWNS
 10
655.99050058209286
 20
4669.4934548025203
 30
0.0
  0
VERTEX
  5
151C
  8
TOWNS
 10
655.92137363580241
 20
4669.376948727363
 30
0.0
  0
VERTEX
  5
151D
  8
TOWNS
 10
656.02167344371594
 20
4669.159145366938
 30
0.0
  0
VERTEX
  5
151E
  8
TOWNS
 10
656.05963137674155
 20
4669.1809144339868
 30
0.0
  0
VERTEX
  5
151F
  8
TOWNS
 10
656.16669801819353
 20
4669.0336560556871
 30
0.0
  0
VERTEX
  5
1520
  8
TOWNS
 10
656.24217977286162
 20
4669.0697013553654
 30
0.0
  0
VERTEX
  5
1521
  8
TOWNS
 10
656.07545213901903
 20
4669.4103012648338
 30
0.0
  0
SEQEND
  5
1522
  8
TOWNS
  0
POLYLINE
  5
AB
  8
TOWNS
 66
     1
 10
0.0
 20
0.0
 30
0.0
 70
     1
  0
VERTEX
  5
1523
  8
TOWNS
 10
655.83629469490313
 20
4671.959323914316
 30
0.0
  0
VERTEX
  5
1524
  8
TOWNS
 10
655.78050774780911
 20
4671.843340556331
 30
0.0
  0
VERTEX
  5
1525
  8
TOWNS
 10
655.64020438994635
 20
4671.5645659024403
 30
0.0
  0
VERTEX
  5
1526
  8
TOWNS
 10
655.78376887563445
 20
4671.4747678393587
 30
0.0
  0
VERTEX
  5
1527
  8
TOWNS
 10
655.78376887563445
 20
4671.4747678393587
 30
0.0
  0
VERTEX
  5
1528
  8
TOWNS
 10
656.01455082619577
 20
4671.3556661446219
 30
0.0
  0
VERTEX
  5
1529
  8
TOWNS
 10
656.15334201581766
 20
4671.5805305835984
 30
0.0
  0
VERTEX
  5
152A
  8
TOWNS
 10
656.25902292860246
 20
4671.7741116858851
 30
0.0
  0
VERTEX
  5
152B
  8
TOWNS
 10
656.32953249017487
 20
4671.913887741116
 30
0.0
  0
VERTEX
  5
152C
  8
TOWNS
 10
656.24701692583255
 20
4671.9560996780328
 30
0.0
  0
SEQEND
  5
152D
  8
TOWNS
  0
POLYLINE
  5
AC
  8
TOWNS
 66
     1
 10
0.0
 20
0.0
 30
0.0
 70
     1
  0
VERTEX
  5
152E
  8
TOWNS
 10
655.51774886390194
 20
4666.774251318946
 30
0.0
  0
VERTEX
  5
152F
  8
TOWNS
 10
655.52548595769395
 20
4667.1038270698436
 30
0.0
  0
VERTEX
  5
1530
  8
TOWNS
 10
655.84616514703805
 20
4667.1224096494179
 30
0.0
  0
VERTEX
  5
1531
  8
TOWNS
 10
655.97234239358124
 20
4667.1276225633092
 30
0.0
  0
VERTEX
  5
1532
  8
TOWNS
 10
655.96842911720717
 20
4666.9689092079134
 30
0.0
  0
VERTEX
  5
1533
  8
TOWNS
 10
655.97530769588911
 20
4666.802414971351
 30
0.0
  0
VERTEX
  5
1534
  8
TOWNS
 10
655.8590831565424
 20
4666.7916301634277
 30
0.0
  0
VERTEX
  5
1535
  8
TOWNS
 10
655.52529268197338
 20
4666.7723128353073
 30
0.0
  0
SEQEND
  5
1536
  8
TOWNS
  0
POLYLINE
  5
AD
  8
TOWNS
 66
     1
 10
0.0
 20
0.0
 30
0.0
 70
     1
  0
VERTEX
  5
1537
  8
TOWNS
 10
655.75345181397029
 20
4680.8919287814861
 30
0.0
  0
VERTEX
  5
1538
  8
TOWNS
 10
655.64924974980204
 20
4680.9082076875029
 30
0.0
  0
VERTEX
  5
1539
  8
TOWNS
 10
655.61594193803569
 20
4680.8491058511599
 30
0.0
  0
VERTEX
  5
153A
  8
TOWNS
 10
655.5392115901534
 20
4680.8082281359011
 30
0.0
  0
VERTEX
  5
153B
  8
TOWNS
 10
655.51156994897519
 20
4680.6823261169911
 30
0.0
  0
VERTEX
  5
153C
  8
TOWNS
 10
655.70590835999906
 20
4680.6873511996273
 30
0.0
  0
VERTEX
  5
153D
  8
TOWNS
 10
655.7341604700033
 20
4680.6361926062318
 30
0.0
  0
VERTEX
  5
153E
  8
TOWNS
 10
655.79118887368895
 20
4680.6381566768259
 30
0.0
  0
VERTEX
  5
153F
  8
TOWNS
 10
655.76298955916354
 20
4680.6998184184476
 30
0.0
  0
SEQEND
  5
1540
  8
TOWNS
  0
POLYLINE
  5
AE
  8
TOWNS
 66
     1
 10
0.0
 20
0.0
 30
0.0
 70
     1
  0
VERTEX
  5
1541
  8
TOWNS
 10
656.06525239355915
 20
4687.1861998353797
 30
0.0
  0
VERTEX
  5
1542
  8
TOWNS
 10
656.2397156457929
 20
4686.8971964426846
 30
0.0
  0
VERTEX
  5
1543
  8
TOWNS
 10
656.34280092026188
 20
4686.976117309131
 30
0.0
  0
VERTEX
  5
1544
  8
TOWNS
 10
656.156604241369
 20
4687.244049873224
 30
0.0
  0
SEQEND
  5
1545
  8
TOWNS
  0
POLYLINE
  5
AF
  8
TOWNS
 66
     1
 10
0.0
 20
0.0
 30
0.0
 70
     1
  0
VERTEX
  5
1546
  8
TOWNS
 10
655.9006228965527
 20
4677.5911948712519
 30
0.0
  0
VERTEX
  5
1547
  8
TOWNS
 10
655.83797651767566
 20
4677.4855619963619
 30
0.0
  0
VERTEX
  5
1548
  8
TOWNS
 10
655.93320129896415
 20
4677.4348374163555
 30
0.0
  0
VERTEX
  5
1549
  8
TOWNS
 10
655.87189906770891
 20
4677.1996798612618
 30
0.0
  0
VERTEX
  5
154A
  8
TOWNS
 10
655.96862259329714
 20
4677.1578862408478
 30
0.0
  0
VERTEX
  5
154B
  8
TOWNS
 10
656.09828857153923
 20
4677.2857758657028
 30
0.0
  0
VERTEX
  5
154C
  8
TOWNS
 10
656.28129428251452
 20
4677.1843350173431
 30
0.0
  0
VERTEX
  5
154D
  8
TOWNS
 10
656.32303637070072
 20
4677.2349066629986
 30
0.0
  0
VERTEX
  5
154E
  8
TOWNS
 10
656.27846967622202
 20
4677.321305211477
 30
0.0
  0
VERTEX
  5
154F
  8
TOWNS
 10
656.30089099684085
 20
4677.4016738738301
 30
0.0
  0
SEQEND
  5
1550
  8
TOWNS
  0
POLYLINE
  5
B0
  8
TOWNS
 66
     1
 10
0.0
 20
0.0
 30
0.0
 70
     1
  0
VERTEX
  5
1551
  8
TOWNS
 10
655.86781225898915
 20
4683.1684130557751
 30
0.0
  0
VERTEX
  5
1552
  8
TOWNS
 10
655.86721321948403
 20
4683.0839493442318
 30
0.0
  0
VERTEX
  5
1553
  8
TOWNS
 10
655.93551808851112
 20
4683.0774586492862
 30
0.0
  0
VERTEX
  5
1554
  8
TOWNS
 10
655.92925666464032
 20
4682.9744458066261
 30
0.0
  0
VERTEX
  5
1555
  8
TOWNS
 10
656.320804230607
 20
4682.9006713854096
 30
0.0
  0
VERTEX
  5
1556
  8
TOWNS
 10
656.45094149316412
 20
4682.9917757045723
 30
0.0
  0
VERTEX
  5
1557
  8
TOWNS
 10
656.4756450549836
 20
4683.1053232172299
 30
0.0
  0
SEQEND
  5
1558
  8
TOWNS
  0
POLYLINE
  5
B1
  8
TOWNS
 66
     1
 10
0.0
 20
0.0
 30
0.0
 70
     1
  0
VERTEX
  5
1559
  8
TOWNS
 10
655.77377094654332
 20
4682.692271857989
 30
0.0
  0
VERTEX
  5
155A
  8
TOWNS
 10
655.77117137926496
 20
4682.5603586310745
 30
0.0
  0
VERTEX
  5
155B
  8
TOWNS
 10
655.88574590410065
 20
4682.5553305633503
 30
0.0
  0
VERTEX
  5
155C
  8
TOWNS
 10
655.99428063377138
 20
4682.4137386117854
 30
0.0
  0
VERTEX
  5
155D
  8
TOWNS
 10
656.18018756758579
 20
4682.4693448585813
 30
0.0
  0
VERTEX
  5
155E
  8
TOWNS
 10
656.24382942965985
 20
4682.6433126994207
 30
0.0
  0
SEQEND
  5
155F
  8
TOWNS
  0
POLYLINE
  5
B2
  8
TOWNS
 66
     1
 10
0.0
 20
0.0
 30
0.0
 70
     1
  0
VERTEX
  5
1560
  8
TOWNS
 10
655.95145637538246
 20
4685.246363776916
 30
0.0
  0
VERTEX
  5
1561
  8
TOWNS
 10
656.11895947063022
 20
4685.1303552409308
 30
0.0
  0
VERTEX
  5
1562
  8
TOWNS
 10
656.26554702586498
 20
4685.2933984174479
 30
0.0
  0
VERTEX
  5
1563
  8
TOWNS
 10
656.44939822035428
 20
4685.435602993407
 30
0.0
  0
VERTEX
  5
1564
  8
TOWNS
 10
656.37705454434501
 20
4685.5573565639688
 30
0.0
  0
VERTEX
  5
1565
  8
TOWNS
 10
656.19981580551485
 20
4685.4648299905566
 30
0.0
  0
SEQEND
  5
1566
  8
TOWNS
  0
POLYLINE
  5
B3
  8
TOWNS
 66
     1
 10
0.0
 20
0.0
 30
0.0
 70
     1
  0
VERTEX
  5
1567
  8
TOWNS
 10
656.46897865248775
 20
4685.135113041405
 30
0.0
  0
VERTEX
  5
1568
  8
TOWNS
 10
656.45369569297657
 20
4684.9457588539408
 30
0.0
  0
VERTEX
  5
1569
  8
TOWNS
 10
656.53231037166415
 20
4684.9527200547382
 30
0.0
  0
VERTEX
  5
156A
  8
TOWNS
 10
656.52105973877269
 20
4684.8043493359582
 30
0.0
  0
VERTEX
  5
156B
  8
TOWNS
 10
656.56880008641997
 20
4684.801638891402
 30
0.0
  0
VERTEX
  5
156C
  8
TOWNS
 10
656.60031216202754
 20
4685.1295256622607
 30
0.0
  0
SEQEND
  5
156D
  8
TOWNS
  0
POLYLINE
  5
B4
  8
TOWNS
 66
     1
 10
0.0
 20
0.0
 30
0.0
 70
     1
  0
VERTEX
  5
156E
  8
TOWNS
 10
660.64039937905352
 20
4666.4604484201727
 30
0.0
  0
VERTEX
  5
156F
  8
TOWNS
 10
661.06675041599715
 20
4666.4567680006503
 30
0.0
  0
VERTEX
  5
1570
  8
TOWNS
 10
661.03641315550692
 20
4666.005082582009
 30
0.0
  0
VERTEX
  5
1571
  8
TOWNS
 10
660.71047431369425
 20
4665.9737768139539
 30
0.0
  0
VERTEX
  5
1572
  8
TOWNS
 10
660.62386316443485
 20
4666.3484224116664
 30
0.0
  0
SEQEND
  5
1573
  8
TOWNS
  0
POLYLINE
  5
B5
  8
TOWNS
 66
     1
 10
0.0
 20
0.0
 30
0.0
 70
     1
  0
VERTEX
  5
1574
  8
TOWNS
 10
660.72867631555698
 20
4664.6779181952552
 30
0.0
  0
VERTEX
  5
1575
  8
TOWNS
 10
660.57171476995381
 20
4664.5350895192887
 30
0.0
  0
VERTEX
  5
1576
  8
TOWNS
 10
660.56051592425297
 20
4664.1506634695897
 30
0.0
  0
VERTEX
  5
1577
  8
TOWNS
 10
660.71797371500315
 20
4664.1451829824146
 30
0.0
  0
VERTEX
  5
1578
  8
TOWNS
 10
660.71915233748075
 20
4663.857829616355
 30
0.0
  0
VERTEX
  5
1579
  8
TOWNS
 10
661.10200667585764
 20
4663.8837371445943
 30
0.0
  0
VERTEX
  5
157A
  8
TOWNS
 10
661.0924423369363
 20
4664.6764031071907
 30
0.0
  0
SEQEND
  5
157B
  8
TOWNS
  0
POLYLINE
  5
B6
  8
TOWNS
 66
     1
 10
0.0
 20
0.0
 30
0.0
 70
     1
  0
VERTEX
  5
157C
  8
TOWNS
 10
659.98858375853672
 20
4665.3821461182979
 30
0.0
  0
VERTEX
  5
157D
  8
TOWNS
 10
660.33545095812156
 20
4665.2315127449092
 30
0.0
  0
VERTEX
  5
157E
  8
TOWNS
 10
660.17702362157274
 20
4665.0157225071853
 30
0.0
  0
VERTEX
  5
157F
  8
TOWNS
 10
659.85813743484164
 20
4665.1750624442457
 30
0.0
  0
SEQEND
  5
1580
  8
TOWNS
  0
POLYLINE
  5
B7
  8
TOWNS
 66
     1
 10
0.0
 20
0.0
 30
0.0
 70
     1
  0
VERTEX
  5
1581
  8
TOWNS
 10
659.85227690096156
 20
4660.7887680954409
 30
0.0
  0
VERTEX
  5
1582
  8
TOWNS
 10
659.73104656239775
 20
4660.8097410007958
 30
0.0
  0
VERTEX
  5
1583
  8
TOWNS
 10
659.86578189650709
 20
4661.5763362474672
 30
0.0
  0
VERTEX
  5
1584
  8
TOWNS
 10
660.00617035163668
 20
4661.5862603184978
 30
0.0
  0
VERTEX
  5
1585
  8
TOWNS
 10
660.03467852432561
 20
4661.2751861553297
 30
0.0
  0
SEQEND
  5
1586
  8
TOWNS
  0
POLYLINE
  5
B8
  8
TOWNS
 66
     1
 10
0.0
 20
0.0
 30
0.0
 70
     1
  0
VERTEX
  5
1587
  8
TOWNS
 10
656.86943024563607
 20
4660.9297943270167
 30
0.0
  0
VERTEX
  5
1588
  8
TOWNS
 10
657.192964530837
 20
4660.9441491276193
 30
0.0
  0
VERTEX
  5
1589
  8
TOWNS
 10
657.2062827501444
 20
4660.6843579769993
 30
0.0
  0
VERTEX
  5
158A
  8
TOWNS
 10
656.87121379771031
 20
4660.6725520816854
 30
0.0
  0
SEQEND
  5
158B
  8
TOWNS
  0
POLYLINE
  5
B9
  8
TOWNS
 66
     1
 10
0.0
 20
0.0
 30
0.0
 70
     1
  0
VERTEX
  5
158C
  8
TOWNS
 10
658.39519724219497
 20
4662.0785838351749
 30
0.0
  0
VERTEX
  5
158D
  8
TOWNS
 10
658.29820721241015
 20
4661.9797352476289
 30
0.0
  0
VERTEX
  5
158E
  8
TOWNS
 10
658.53402407621445
 20
4661.7224256447716
 30
0.0
  0
VERTEX
  5
158F
  8
TOWNS
 10
658.66325533459747
 20
4661.8113578094544
 30
0.0
  0
SEQEND
  5
1590
  8
TOWNS
  0
POLYLINE
  5
BA
  8
TOWNS
 66
     1
 10
0.0
 20
0.0
 30
0.0
 70
     1
  0
VERTEX
  5
1591
  8
TOWNS
 10
657.53581131818896
 20
4663.9959322362329
 30
0.0
  0
VERTEX
  5
1592
  8
TOWNS
 10
658.04251437795619
 20
4663.4968287152224
 30
0.0
  0
VERTEX
  5
1593
  8
TOWNS
 10
657.92558037594426
 20
4663.3856363382583
 30
0.0
  0
VERTEX
  5
1594
  8
TOWNS
 10
657.39909620961066
 20
4663.8805029100486
 30
0.0
  0
SEQEND
  5
1595
  8
TOWNS
  0
POLYLINE
  5
BB
  8
TOWNS
 66
     1
 10
0.0
 20
0.0
 30
0.0
 70
     1
  0
VERTEX
  5
1596
  8
TOWNS
 10
657.01620607245411
 20
4664.4871848488019
 30
0.0
  0
VERTEX
  5
1597
  8
TOWNS
 10
657.31775934364725
 20
4664.5031398333667
 30
0.0
  0
VERTEX
  5
1598
  8
TOWNS
 10
657.334050471772
 20
4664.3336587784024
 30
0.0
  0
VERTEX
  5
1599
  8
TOWNS
 10
657.01999054550117
 20
4664.3295409258681
 30
0.0
  0
SEQEND
  5
159A
  8
TOWNS
  0
POLYLINE
  5
BC
  8
TOWNS
 66
     1
 10
0.0
 20
0.0
 30
0.0
 70
     1
  0
VERTEX
  5
159B
  8
TOWNS
 10
658.21636562122433
 20
4665.7491058255209
 30
0.0
  0
VERTEX
  5
159C
  8
TOWNS
 10
658.73769014761103
 20
4665.5741130466649
 30
0.0
  0
VERTEX
  5
159D
  8
TOWNS
 10
658.66274051916389
 20
4665.3612800994024
 30
0.0
  0
VERTEX
  5
159E
  8
TOWNS
 10
658.13333241910482
 20
4665.5375938639463
 30
0.0
  0
SEQEND
  5
159F
  8
TOWNS
  0
POLYLINE
  5
BD
  8
TOWNS
 66
     1
 10
0.0
 20
0.0
 30
0.0
 70
     1
  0
VERTEX
  5
15A0
  8
TOWNS
 10
660.48670444904735
 20
4666.6357979298382
 30
0.0
  0
VERTEX
  5
15A1
  8
TOWNS
 10
660.60050408174925
 20
4666.650969866384
 30
0.0
  0
VERTEX
  5
15A2
  8
TOWNS
 10
660.72926046315854
 20
4666.6480625970171
 30
0.0
  0
VERTEX
  5
15A3
  8
TOWNS
 10
660.73562729681225
 20
4666.5301597619509
 30
0.0
  0
VERTEX
  5
15A4
  8
TOWNS
 10
660.73876092160674
 20
4666.418106431719
 30
0.0
  0
VERTEX
  5
15A5
  8
TOWNS
 10
660.63632099648328
 20
4666.4176136330807
 30
0.0
  0
VERTEX
  5
15A6
  8
TOWNS
 10
660.49013948315235
 20
4666.4078348321618
 30
0.0
  0
VERTEX
  5
15A7
  8
TOWNS
 10
660.48666655627039
 20
4666.528100882585
 30
0.0
  0
SEQEND
  5
15A8
  8
TOWNS
  0
POLYLINE
  5
BE
  8
TOWNS
 66
     1
 10
0.0
 20
0.0
 30
0.0
 70
     1
  0
VERTEX
  5
15A9
  8
TOWNS
 10
657.94236480910365
 20
4667.7890383015183
 30
0.0
  0
VERTEX
  5
15AA
  8
TOWNS
 10
658.06647045417742
 20
4667.8198937525876
 30
0.0
  0
VERTEX
  5
15AB
  8
TOWNS
 10
658.22961321295816
 20
4667.8450196194844
 30
0.0
  0
VERTEX
  5
15AC
  8
TOWNS
 10
658.23984734821761
 20
4667.7959215945339
 30
0.0
  0
VERTEX
  5
15AD
  8
TOWNS
 10
658.25213227919835
 20
4667.7251874483463
 30
0.0
  0
VERTEX
  5
15AE
  8
TOWNS
 10
658.14671151895675
 20
4667.6948113118751
 30
0.0
  0
VERTEX
  5
15AF
  8
TOWNS
 10
657.97308605208627
 20
4667.6701644241966
 30
0.0
  0
VERTEX
  5
15B0
  8
TOWNS
 10
657.95060600177453
 20
4667.7301666187041
 30
0.0
  0
SEQEND
  5
15B1
  8
TOWNS
  0
POLYLINE
  5
BF
  8
TOWNS
 66
     1
 10
0.0
 20
0.0
 30
0.0
 70
     1
  0
VERTEX
  5
15B2
  8
TOWNS
 10
659.35176213653392
 20
4667.7160013770772
 30
0.0
  0
VERTEX
  5
15B3
  8
TOWNS
 10
659.36101914077335
 20
4667.6466853313414
 30
0.0
  0
VERTEX
  5
15B4
  8
TOWNS
 10
659.36324316051082
 20
4667.5599874657173
 30
0.0
  0
VERTEX
  5
15B5
  8
TOWNS
 10
659.21966655466315
 20
4667.5592959111736
 30
0.0
  0
VERTEX
  5
15B6
  8
TOWNS
 10
659.10244051341988
 20
4667.5518014431364
 30
0.0
  0
VERTEX
  5
15B7
  8
TOWNS
 10
659.00690811116624
 20
4667.5441155846393
 30
0.0
  0
VERTEX
  5
15B8
  8
TOWNS
 10
659.00410924929122
 20
4667.6240677191354
 30
0.0
  0
VERTEX
  5
15B9
  8
TOWNS
 10
659.00349472046355
 20
4667.7354871504904
 30
0.0
  0
VERTEX
  5
15BA
  8
TOWNS
 10
659.18904050383935
 20
4667.7327679973741
 30
0.0
  0
SEQEND
  5
15BB
  8
TOWNS
  0
POLYLINE
  5
C0
  8
TOWNS
 66
     1
 10
0.0
 20
0.0
 30
0.0
 70
     1
  0
VERTEX
  5
15BC
  8
TOWNS
 10
660.54834126684852
 20
4671.1578102650928
 30
0.0
  0
VERTEX
  5
15BD
  8
TOWNS
 10
660.65113672461177
 20
4671.1739091987538
 30
0.0
  0
VERTEX
  5
15BE
  8
TOWNS
 10
660.7615403443956
 20
4671.1849680905061
 30
0.0
  0
VERTEX
  5
15BF
  8
TOWNS
 10
660.77265641851636
 20
4671.1014898774638
 30
0.0
  0
VERTEX
  5
15C0
  8
TOWNS
 10
660.79373821172214
 20
4670.9793771749792
 30
0.0
  0
VERTEX
  5
15C1
  8
TOWNS
 10
660.81395623250887
 20
4670.9784000439577
 30
0.0
  0
VERTEX
  5
15C2
  8
TOWNS
 10
660.84229973970207
 20
4670.9813707883277
 30
0.0
  0
VERTEX
  5
15C3
  8
TOWNS
 10
660.85452681755032
 20
4670.9420464212417
 30
0.0
  0
VERTEX
  5
15C4
  8
TOWNS
 10
660.85864758157607
 20
4670.8980267833749
 30
0.0
  0
VERTEX
  5
15C5
  8
TOWNS
 10
660.92347925495324
 20
4670.9071687521109
 30
0.0
  0
VERTEX
  5
15C6
  8
TOWNS
 10
661.00998539473562
 20
4670.9168667257791
 30
0.0
  0
VERTEX
  5
15C7
  8
TOWNS
 10
661.02934098462538
 20
4670.9203547945363
 30
0.0
  0
VERTEX
  5
15C8
  8
TOWNS
 10
661.04795018526318
 20
4670.8363209119407
 30
0.0
  0
VERTEX
  5
15C9
  8
TOWNS
 10
661.06228591196475
 20
4670.7439506445162
 30
0.0
  0
VERTEX
  5
15CA
  8
TOWNS
 10
661.04293032207477
 20
4670.7404625757608
 30
0.0
  0
VERTEX
  5
15CB
  8
TOWNS
 10
661.00644215589125
 20
4670.7342913513939
 30
0.0
  0
VERTEX
  5
15CC
  8
TOWNS
 10
661.02135306011121
 20
4670.619499222169
 30
0.0
  0
VERTEX
  5
15CD
  8
TOWNS
 10
661.03674327892952
 20
4670.4860222081143
 30
0.0
  0
VERTEX
  5
15CE
  8
TOWNS
 10
660.91074021880615
 20
4670.4708237151353
 30
0.0
  0
VERTEX
  5
15CF
  8
TOWNS
 10
660.5668428103528
 20
4670.4365737105654
 30
0.0
  0
VERTEX
  5
15D0
  8
TOWNS
 10
660.54051007681005
 20
4670.559299600357
 30
0.0
  0
VERTEX
  5
15D1
  8
TOWNS
 10
660.53794128594245
 20
4670.630282990136
 30
0.0
  0
VERTEX
  5
15D2
  8
TOWNS
 10
660.5758858977448
 20
4670.6379873504548
 30
0.0
  0
VERTEX
  5
15D3
  8
TOWNS
 10
660.61536364550182
 20
4670.6442352651584
 30
0.0
  0
VERTEX
  5
15D4
  8
TOWNS
 10
660.5874782680404
 20
4670.7983325888817
 30
0.0
  0
VERTEX
  5
15D5
  8
TOWNS
 10
660.55447783523175
 20
4670.8019733675501
 30
0.0
  0
VERTEX
  5
15D6
  8
TOWNS
 10
660.52989047758899
 20
4670.798351090707
 30
0.0
  0
VERTEX
  5
15D7
  8
TOWNS
 10
660.52207074638432
 20
4670.8699476677912
 30
0.0
  0
VERTEX
  5
15D8
  8
TOWNS
 10
660.51994292494726
 20
4670.9237409635243
 30
0.0
  0
VERTEX
  5
15D9
  8
TOWNS
 10
660.53699881090495
 20
4670.9294137007082
 30
0.0
  0
VERTEX
  5
15DA
  8
TOWNS
 10
660.57653407641385
 20
4670.9334194292287
 30
0.0
  0
VERTEX
  5
15DB
  8
TOWNS
 10
660.56775605139239
 20
4671.013218183055
 30
0.0
  0
SEQEND
  5
15DC
  8
TOWNS
  0
POLYLINE
  5
C1
  8
TOWNS
 66
     1
 10
0.0
 20
0.0
 30
0.0
 70
     1
  0
VERTEX
  5
15DD
  8
TOWNS
 10
660.71626565688325
 20
4668.6641746406658
 30
0.0
  0
VERTEX
  5
15DE
  8
TOWNS
 10
660.67230621981014
 20
4668.4244709470831
 30
0.0
  0
VERTEX
  5
15DF
  8
TOWNS
 10
660.59992792672995
 20
4668.068115719012
 30
0.0
  0
VERTEX
  5
15E0
  8
TOWNS
 10
660.7950559775112
 20
4668.041709984318
 30
0.0
  0
VERTEX
  5
15E1
  8
TOWNS
 10
661.03023661818736
 20
4668.0282978954519
 30
0.0
  0
VERTEX
  5
15E2
  8
TOWNS
 10
661.05838672263883
 20
4668.1845805583662
 30
0.0
  0
VERTEX
  5
15E3
  8
TOWNS
 10
661.08485031046439
 20
4668.3482988300448
 30
0.0
  0
VERTEX
  5
15E4
  8
TOWNS
 10
661.12760522855365
 20
4668.3434125041831
 30
0.0
  0
VERTEX
  5
15E5
  8
TOWNS
 10
661.18848936192126
 20
4668.3315123664033
 30
0.0
  0
VERTEX
  5
15E6
  8
TOWNS
 10
661.21297951512258
 20
4668.4555419919006
 30
0.0
  0
VERTEX
  5
15E7
  8
TOWNS
 10
661.23028296776965
 20
4668.5973365535847
 30
0.0
  0
VERTEX
  5
15E8
  8
TOWNS
 10
661.06963096799939
 20
4668.6208872501729
 30
0.0
  0
VERTEX
  5
15E9
  8
TOWNS
 10
660.7846237441837
 20
4668.6524662287266
 30
0.0
  0
SEQEND
  5
15EA
  8
TOWNS
  0
POLYLINE
  5
C2
  8
TOWNS
 66
     1
 10
0.0
 20
0.0
 30
0.0
 70
     1
  0
VERTEX
  5
15EB
  8
TOWNS
 10
661.19010801989907
 20
4670.892319725589
 30
0.0
  0
VERTEX
  5
15EC
  8
TOWNS
 10
661.24349869136961
 20
4670.9101428502854
 30
0.0
  0
VERTEX
  5
15ED
  8
TOWNS
 10
661.30683557395992
 20
4670.9192464738526
 30
0.0
  0
VERTEX
  5
15EE
  8
TOWNS
 10
661.3923864383496
 20
4670.6746382879646
 30
0.0
  0
VERTEX
  5
15EF
  8
TOWNS
 10
661.5106131431429
 20
4670.3224246734071
 30
0.0
  0
VERTEX
  5
15F0
  8
TOWNS
 10
661.45789317672995
 20
4670.3076103028679
 30
0.0
  0
VERTEX
  5
15F1
  8
TOWNS
 10
661.3814291109876
 20
4670.2854558511026
 30
0.0
  0
VERTEX
  5
15F2
  8
TOWNS
 10
661.27111732955802
 20
4670.6206710974548
 30
0.0
  0
VERTEX
  5
15F3
  8
TOWNS
 10
661.23075630141796
 20
4670.7654737425328
 30
0.0
  0
SEQEND
  5
15F4
  8
TOWNS
  0
POLYLINE
  5
C3
  8
TOWNS
 66
     1
 10
0.0
 20
0.0
 30
0.0
 70
     1
  0
VERTEX
  5
15F5
  8
TOWNS
 10
660.1151962548231
 20
4677.4221404153832
 30
0.0
  0
VERTEX
  5
15F6
  8
TOWNS
 10
660.06447581873431
 20
4677.2172578635382
 30
0.0
  0
VERTEX
  5
15F7
  8
TOWNS
 10
660.2695997774905
 20
4677.1515364357601
 30
0.0
  0
VERTEX
  5
15F8
  8
TOWNS
 10
660.34349426414258
 20
4677.2217480320833
 30
0.0
  0
VERTEX
  5
15F9
  8
TOWNS
 10
660.35288617469416
 20
4677.3374367232691
 30
0.0
  0
SEQEND
  5
15FA
  8
TOWNS
  0
POLYLINE
  5
C4
  8
TOWNS
 66
     1
 10
0.0
 20
0.0
 30
0.0
 70
     1
  0
VERTEX
  5
15FB
  8
TOWNS
 10
660.88878360394199
 20
4672.9878943718986
 30
0.0
  0
VERTEX
  5
15FC
  8
TOWNS
 10
660.9464099658469
 20
4672.8102637060292
 30
0.0
  0
VERTEX
  5
15FD
  8
TOWNS
 10
661.08058434904115
 20
4672.8176746449726
 30
0.0
  0
VERTEX
  5
15FE
  8
TOWNS
 10
661.07378899771925
 20
4672.913596499362
 30
0.0
  0
VERTEX
  5
15FF
  8
TOWNS
 10
660.97434960829457
 20
4672.9855201433693
 30
0.0
  0
SEQEND
  5
1600
  8
TOWNS
  0
POLYLINE
  5
C5
  8
TOWNS
 66
     1
 10
0.0
 20
0.0
 30
0.0
 70
     1
  0
VERTEX
  5
1601
  8
TOWNS
 10
660.08682942343592
 20
4674.4762266420057
 30
0.0
  0
VERTEX
  5
1602
  8
TOWNS
 10
660.21072232005235
 20
4674.1901267865278
 30
0.0
  0
VERTEX
  5
1603
  8
TOWNS
 10
660.2876273872281
 20
4674.2131214700667
 30
0.0
  0
VERTEX
  5
1604
  8
TOWNS
 10
660.28651860359753
 20
4674.3286411764147
 30
0.0
  0
VERTEX
  5
1605
  8
TOWNS
 10
660.17244539733122
 20
4674.5173673597201
 30
0.0
  0
SEQEND
  5
1606
  8
TOWNS
  0
POLYLINE
  5
C6
  8
TOWNS
 66
     1
 10
0.0
 20
0.0
 30
0.0
 70
     1
  0
VERTEX
  5
1607
  8
TOWNS
 10
660.24561372186565
 20
4674.9124228481742
 30
0.0
  0
VERTEX
  5
1608
  8
TOWNS
 10
660.22182602506336
 20
4674.8055054154347
 30
0.0
  0
VERTEX
  5
1609
  8
TOWNS
 10
660.32062762755845
 20
4674.4934934823377
 30
0.0
  0
VERTEX
  5
160A
  8
TOWNS
 10
660.42211196986193
 20
4674.4343568923041
 30
0.0
  0
VERTEX
  5
160B
  8
TOWNS
 10
660.4931132031262
 20
4674.4512546164042
 30
0.0
  0
VERTEX
  5
160C
  8
TOWNS
 10
660.55740357748766
 20
4674.5588238478022
 30
0.0
  0
VERTEX
  5
160D
  8
TOWNS
 10
660.4633489971153
 20
4674.6690965833814
 30
0.0
  0
VERTEX
  5
160E
  8
TOWNS
 10
660.37205126678475
 20
4675.0742595090933
 30
0.0
  0
SEQEND
  5
160F
  8
TOWNS
  0
POLYLINE
  5
C7
  8
TOWNS
 66
     1
 10
0.0
 20
0.0
 30
0.0
 70
     1
  0
VERTEX
  5
1610
  8
TOWNS
 10
659.12167387329021
 20
4677.1548202450131
 30
0.0
  0
VERTEX
  5
1611
  8
TOWNS
 10
659.134831731654
 20
4677.0364934658546
 30
0.0
  0
VERTEX
  5
1612
  8
TOWNS
 10
659.26873887908573
 20
4677.0138903510788
 30
0.0
  0
VERTEX
  5
1613
  8
TOWNS
 10
659.40725495713446
 20
4676.9846092121143
 30
0.0
  0
VERTEX
  5
1614
  8
TOWNS
 10
659.61300995017928
 20
4676.9729154951056
 30
0.0
  0
VERTEX
  5
1615
  8
TOWNS
 10
659.56417898741336
 20
4677.1634418480571
 30
0.0
  0
VERTEX
  5
1616
  8
TOWNS
 10
659.51978121778518
 20
4677.1717302926809
 30
0.0
  0
VERTEX
  5
1617
  8
TOWNS
 10
659.52409176608319
 20
4677.2768337972693
 30
0.0
  0
VERTEX
  5
1618
  8
TOWNS
 10
659.45560791733453
 20
4677.2899863379271
 30
0.0
  0
VERTEX
  5
1619
  8
TOWNS
 10
659.44570736410992
 20
4677.1592845847072
 30
0.0
  0
SEQEND
  5
161A
  8
TOWNS
  0
POLYLINE
  5
C8
  8
TOWNS
 66
     1
 10
0.0
 20
0.0
 30
0.0
 70
     1
  0
VERTEX
  5
161B
  8
TOWNS
 10
659.33070371716894
 20
4679.8532132426608
 30
0.0
  0
VERTEX
  5
161C
  8
TOWNS
 10
659.40317448238636
 20
4679.6190428791306
 30
0.0
  0
VERTEX
  5
161D
  8
TOWNS
 10
659.53040940691415
 20
4679.7457828251254
 30
0.0
  0
VERTEX
  5
161E
  8
TOWNS
 10
659.50569330815074
 20
4680.007123259541
 30
0.0
  0
SEQEND
  5
161F
  8
TOWNS
  0
POLYLINE
  5
C9
  8
TOWNS
 66
     1
 10
0.0
 20
0.0
 30
0.0
 70
     1
  0
VERTEX
  5
1620
  8
TOWNS
 10
659.03009068535459
 20
4679.3133055835888
 30
0.0
  0
VERTEX
  5
1621
  8
TOWNS
 10
659.11119674592919
 20
4679.1834982779455
 30
0.0
  0
VERTEX
  5
1622
  8
TOWNS
 10
659.18148517431985
 20
4679.0689070403796
 30
0.0
  0
VERTEX
  5
1623
  8
TOWNS
 10
659.25452700368339
 20
4679.0916976967792
 30
0.0
  0
VERTEX
  5
1624
  8
TOWNS
 10
659.26023770543236
 20
4679.051960024547
 30
0.0
  0
VERTEX
  5
1625
  8
TOWNS
 10
659.31569070483965
 20
4679.0587643515137
 30
0.0
  0
VERTEX
  5
1626
  8
TOWNS
 10
659.32847715783828
 20
4679.179456124104
 30
0.0
  0
VERTEX
  5
1627
  8
TOWNS
 10
659.31231493317705
 20
4679.2194600959901
 30
0.0
  0
VERTEX
  5
1628
  8
TOWNS
 10
659.16180953658477
 20
4679.4107974230737
 30
0.0
  0
SEQEND
  5
1629
  8
TOWNS
  0
POLYLINE
  5
CA
  8
TOWNS
 66
     1
 10
0.0
 20
0.0
 30
0.0
 70
     1
  0
VERTEX
  5
162A
  8
TOWNS
 10
657.77633828386945
 20
4683.3201546756682
 30
0.0
  0
VERTEX
  5
162B
  8
TOWNS
 10
657.83106334530135
 20
4683.0931596619894
 30
0.0
  0
VERTEX
  5
162C
  8
TOWNS
 10
657.94689504367773
 20
4682.8309916909957
 30
0.0
  0
VERTEX
  5
162D
  8
TOWNS
 10
658.26992237336583
 20
4682.901945446496
 30
0.0
  0
VERTEX
  5
162E
  8
TOWNS
 10
658.36760912948864
 20
4682.748557990687
 30
0.0
  0
VERTEX
  5
162F
  8
TOWNS
 10
658.4943351787075
 20
4682.8260074501231
 30
0.0
  0
VERTEX
  5
1630
  8
TOWNS
 10
658.38193652721975
 20
4683.0470017383968
 30
0.0
  0
VERTEX
  5
1631
  8
TOWNS
 10
658.16273088395849
 20
4683.3566249469932
 30
0.0
  0
VERTEX
  5
1632
  8
TOWNS
 10
658.04227207081453
 20
4683.3492358701151
 30
0.0
  0
SEQEND
  5
1633
  8
TOWNS
  0
POLYLINE
  5
CB
  8
TOWNS
 66
     1
 10
0.0
 20
0.0
 30
0.0
 70
     1
  0
VERTEX
  5
1634
  8
TOWNS
 10
657.20599342430569
 20
4680.7843536502869
 30
0.0
  0
VERTEX
  5
1635
  8
TOWNS
 10
657.29678074644039
 20
4680.6826865071298
 30
0.0
  0
VERTEX
  5
1636
  8
TOWNS
 10
657.57120257112331
 20
4680.8983069322712
 30
0.0
  0
VERTEX
  5
1637
  8
TOWNS
 10
657.61438782006383
 20
4681.0100069164391
 30
0.0
  0
VERTEX
  5
1638
  8
TOWNS
 10
657.5442466492932
 20
4681.0424219812003
 30
0.0
  0
SEQEND
  5
1639
  8
TOWNS
  0
POLYLINE
  5
CC
  8
TOWNS
 66
     1
 10
0.0
 20
0.0
 30
0.0
 70
     1
  0
VERTEX
  5
163A
  8
TOWNS
 10
657.83632720985179
 20
4680.4851717153488
 30
0.0
  0
VERTEX
  5
163B
  8
TOWNS
 10
658.00679868986379
 20
4680.1685729871506
 30
0.0
  0
VERTEX
  5
163C
  8
TOWNS
 10
658.11660165826379
 20
4680.2561649244381
 30
0.0
  0
VERTEX
  5
163D
  8
TOWNS
 10
658.07411100708805
 20
4680.3476372281302
 30
0.0
  0
VERTEX
  5
163E
  8
TOWNS
 10
658.0492140994802
 20
4680.5432443328609
 30
0.0
  0
SEQEND
  5
163F
  8
TOWNS
  0
POLYLINE
  5
CD
  8
TOWNS
 66
     1
 10
0.0
 20
0.0
 30
0.0
 70
     1
  0
VERTEX
  5
1640
  8
TOWNS
 10
657.8656165846694
 20
4679.641037590759
 30
0.0
  0
VERTEX
  5
1641
  8
TOWNS
 10
658.13525870132503
 20
4679.3465637698182
 30
0.0
  0
VERTEX
  5
1642
  8
TOWNS
 10
658.31575467222387
 20
4679.5406726752217
 30
0.0
  0
VERTEX
  5
1643
  8
TOWNS
 10
658.16547304089568
 20
4679.887384878306
 30
0.0
  0
SEQEND
  5
1644
  8
TOWNS
  0
POLYLINE
  5
CE
  8
TOWNS
 66
     1
 10
0.0
 20
0.0
 30
0.0
 70
     1
  0
VERTEX
  5
1645
  8
TOWNS
 10
658.08926799125231
 20
4684.5193689439766
 30
0.0
  0
VERTEX
  5
1646
  8
TOWNS
 10
658.06611550615219
 20
4684.3436616642712
 30
0.0
  0
VERTEX
  5
1647
  8
TOWNS
 10
657.96809534792567
 20
4684.1907785921876
 30
0.0
  0
VERTEX
  5
1648
  8
TOWNS
 10
657.96719172573137
 20
4684.0966768431699
 30
0.0
  0
VERTEX
  5
1649
  8
TOWNS
 10
658.04371896359839
 20
4684.1096674069877
 30
0.0
  0
VERTEX
  5
164A
  8
TOWNS
 10
658.20300199955625
 20
4683.8523684933689
 30
0.0
  0
VERTEX
  5
164B
  8
TOWNS
 10
658.05663772236778
 20
4683.7664551422276
 30
0.0
  0
VERTEX
  5
164C
  8
TOWNS
 10
658.07460655837451
 20
4683.5628073192711
 30
0.0
  0
VERTEX
  5
164D
  8
TOWNS
 10
658.19787050106345
 20
4683.387104531148
 30
0.0
  0
VERTEX
  5
164E
  8
TOWNS
 10
658.54483489601
 20
4683.6352396196498
 30
0.0
  0
VERTEX
  5
164F
  8
TOWNS
 10
658.50671404311322
 20
4683.692984592727
 30
0.0
  0
VERTEX
  5
1650
  8
TOWNS
 10
658.87863283190757
 20
4683.9823170879508
 30
0.0
  0
VERTEX
  5
1651
  8
TOWNS
 10
658.67252717828876
 20
4684.2490262608744
 30
0.0
  0
VERTEX
  5
1652
  8
TOWNS
 10
658.97681990220076
 20
4684.405617873681
 30
0.0
  0
VERTEX
  5
1653
  8
TOWNS
 10
658.90549961540034
 20
4684.5090300723896
 30
0.0
  0
VERTEX
  5
1654
  8
TOWNS
 10
658.68511892566448
 20
4684.5086690877433
 30
0.0
  0
VERTEX
  5
1655
  8
TOWNS
 10
658.50549815036049
 20
4684.4661833501787
 30
0.0
  0
VERTEX
  5
1656
  8
TOWNS
 10
658.33202128852679
 20
4684.6648291769443
 30
0.0
  0
SEQEND
  5
1657
  8
TOWNS
  0
POLYLINE
  5
CF
  8
TOWNS
 66
     1
 10
0.0
 20
0.0
 30
0.0
 70
     1
  0
VERTEX
  5
1658
  8
TOWNS
 10
657.97658422971961
 20
4684.8464476216886
 30
0.0
  0
VERTEX
  5
1659
  8
TOWNS
 10
658.13350412000671
 20
4684.6429945043537
 30
0.0
  0
VERTEX
  5
165A
  8
TOWNS
 10
658.20772997901145
 20
4684.6829364984169
 30
0.0
  0
VERTEX
  5
165B
  8
TOWNS
 10
658.22729682396266
 20
4684.6592802626346
 30
0.0
  0
VERTEX
  5
165C
  8
TOWNS
 10
658.27085758737053
 20
4684.6977625222062
 30
0.0
  0
VERTEX
  5
165D
  8
TOWNS
 10
658.08880270540556
 20
4684.9115673528331
 30
0.0
  0
SEQEND
  5
165E
  8
TOWNS
  0
POLYLINE
  5
D0
  8
TOWNS
 66
     1
 10
0.0
 20
0.0
 30
0.0
 70
     1
  0
VERTEX
  5
165F
  8
TOWNS
 10
660.48091396548637
 20
4685.4743809120846
 30
0.0
  0
VERTEX
  5
1660
  8
TOWNS
 10
660.47642021156071
 20
4685.3273320753688
 30
0.0
  0
VERTEX
  5
1661
  8
TOWNS
 10
660.54164936853294
 20
4685.2487268018758
 30
0.0
  0
VERTEX
  5
1662
  8
TOWNS
 10
660.50086551908555
 20
4685.2019565458313
 30
0.0
  0
VERTEX
  5
1663
  8
TOWNS
 10
660.52152598925613
 20
4685.1625849828706
 30
0.0
  0
VERTEX
  5
1664
  8
TOWNS
 10
660.71810318558914
 20
4685.225555295372
 30
0.0
  0
VERTEX
  5
1665
  8
TOWNS
 10
660.67194182548235
 20
4685.407510789747
 30
0.0
  0
VERTEX
  5
1666
  8
TOWNS
 10
660.52099402298825
 20
4685.4935292861492
 30
0.0
  0
SEQEND
  5
1667
  8
TOWNS
  0
POLYLINE
  5
D1
  8
TOWNS
 66
     1
 10
0.0
 20
0.0
 30
0.0
 70
     1
  0
VERTEX
  5
1668
  8
TOWNS
 10
658.94395471445785
 20
4685.2266854260133
 30
0.0
  0
VERTEX
  5
1669
  8
TOWNS
 10
658.96281285385226
 20
4685.0872588366337
 30
0.0
  0
VERTEX
  5
166A
  8
TOWNS
 10
659.09903444217491
 20
4685.0389666572582
 30
0.0
  0
VERTEX
  5
166B
  8
TOWNS
 10
659.29331966484085
 20
4685.0706204438329
 30
0.0
  0
VERTEX
  5
166C
  8
TOWNS
 10
659.29769437673156
 20
4685.1250415848299
 30
0.0
  0
VERTEX
  5
166D
  8
TOWNS
 10
659.43969826083605
 20
4685.1864143104158
 30
0.0
  0
VERTEX
  5
166E
  8
TOWNS
 10
659.46400122435296
 20
4685.231363425296
 30
0.0
  0
VERTEX
  5
166F
  8
TOWNS
 10
659.43621306334705
 20
4685.3134968526974
 30
0.0
  0
VERTEX
  5
1670
  8
TOWNS
 10
659.36342812844396
 20
4685.3594256753886
 30
0.0
  0
VERTEX
  5
1671
  8
TOWNS
 10
659.26878907751961
 20
4685.3685602298456
 30
0.0
  0
SEQEND
  5
1672
  8
TOWNS
  0
POLYLINE
  5
D2
  8
TOWNS
 66
     1
 10
0.0
 20
0.0
 30
0.0
 70
     1
  0
VERTEX
  5
1673
  8
TOWNS
 10
658.73015564149694
 20
4685.6019088144649
 30
0.0
  0
VERTEX
  5
1674
  8
TOWNS
 10
658.80439539728025
 20
4685.4371664245646
 30
0.0
  0
VERTEX
  5
1675
  8
TOWNS
 10
658.86104183152338
 20
4685.4028541330244
 30
0.0
  0
VERTEX
  5
1676
  8
TOWNS
 10
658.92665633018635
 20
4685.4273280781617
 30
0.0
  0
VERTEX
  5
1677
  8
TOWNS
 10
658.8884737104803
 20
4685.511967417272
 30
0.0
  0
VERTEX
  5
1678
  8
TOWNS
 10
658.97230944802652
 20
4685.5479294463303
 30
0.0
  0
VERTEX
  5
1679
  8
TOWNS
 10
659.09596364601737
 20
4685.5634543484521
 30
0.0
  0
VERTEX
  5
167A
  8
TOWNS
 10
659.08521290526812
 20
4685.757206971808
 30
0.0
  0
SEQEND
  5
167B
  8
TOWNS
  0
POLYLINE
  5
D3
  8
TOWNS
 66
     1
 10
0.0
 20
0.0
 30
0.0
 70
     1
  0
VERTEX
  5
167C
  8
TOWNS
 10
658.00735019000479
 20
4685.4089183133528
 30
0.0
  0
VERTEX
  5
167D
  8
TOWNS
 10
658.02594224075779
 20
4685.3763226507608
 30
0.0
  0
VERTEX
  5
167E
  8
TOWNS
 10
658.00213383374364
 20
4685.3507835070031
 30
0.0
  0
VERTEX
  5
167F
  8
TOWNS
 10
658.00267583824836
 20
4685.3134185966537
 30
0.0
  0
VERTEX
  5
1680
  8
TOWNS
 10
658.01690279332036
 20
4685.2854162865933
 30
0.0
  0
VERTEX
  5
1681
  8
TOWNS
 10
658.05591294960448
 20
4685.2918925470958
 30
0.0
  0
VERTEX
  5
1682
  8
TOWNS
 10
658.15069455555113
 20
4685.229715797921
 30
0.0
  0
VERTEX
  5
1683
  8
TOWNS
 10
658.21230536520693
 20
4685.2729673052527
 30
0.0
  0
VERTEX
  5
1684
  8
TOWNS
 10
658.19455495882426
 20
4685.3092766331929
 30
0.0
  0
VERTEX
  5
1685
  8
TOWNS
 10
658.22695570477686
 20
4685.3495372885263
 30
0.0
  0
VERTEX
  5
1686
  8
TOWNS
 10
658.21714150440357
 20
4685.4334538142857
 30
0.0
  0
VERTEX
  5
1687
  8
TOWNS
 10
658.14111843924832
 20
4685.4988877151181
 30
0.0
  0
SEQEND
  5
1688
  8
TOWNS
  0
POLYLINE
  5
D4
  8
TOWNS
 66
     1
 10
0.0
 20
0.0
 30
0.0
 70
     1
  0
VERTEX
  5
1689
  8
TOWNS
 10
657.2088395415085
 20
4686.7755318559603
 30
0.0
  0
VERTEX
  5
168A
  8
TOWNS
 10
657.2463131489601
 20
4686.6330977479811
 30
0.0
  0
VERTEX
  5
168B
  8
TOWNS
 10
657.54484407644156
 20
4686.7575572116548
 30
0.0
  0
VERTEX
  5
168C
  8
TOWNS
 10
657.4221123416479
 20
4686.8997967278601
 30
0.0
  0
SEQEND
  5
168D
  8
TOWNS
  0
POLYLINE
  5
D5
  8
TOWNS
 66
     1
 10
0.0
 20
0.0
 30
0.0
 70
     1
  0
VERTEX
  5
168E
  8
TOWNS
 10
656.8982680190519
 20
4686.9284091427053
 30
0.0
  0
VERTEX
  5
168F
  8
TOWNS
 10
656.94150468115674
 20
4686.8735427126167
 30
0.0
  0
VERTEX
  5
1690
  8
TOWNS
 10
657.12796393904466
 20
4686.9877885099413
 30
0.0
  0
VERTEX
  5
1691
  8
TOWNS
 10
657.14934063352496
 20
4686.9483862688439
 30
0.0
  0
VERTEX
  5
1692
  8
TOWNS
 10
657.29551757819593
 20
4687.0532119977697
 30
0.0
  0
VERTEX
  5
1693
  8
TOWNS
 10
657.12927703321918
 20
4687.1396261530253
 30
0.0
  0
SEQEND
  5
1694
  8
TOWNS
  0
POLYLINE
  5
D6
  8
TOWNS
 66
     1
 10
0.0
 20
0.0
 30
0.0
 70
     1
  0
VERTEX
  5
1695
  8
TOWNS
 10
660.10145331241438
 20
4675.8237980546919
 30
0.0
  0
VERTEX
  5
1696
  8
TOWNS
 10
660.1403059634431
 20
4675.9532778519897
 30
0.0
  0
VERTEX
  5
1697
  8
TOWNS
 10
659.99915039209554
 20
4676.202060416832
 30
0.0
  0
VERTEX
  5
1698
  8
TOWNS
 10
659.89498966422514
 20
4676.2498174301736
 30
0.0
  0
VERTEX
  5
1699
  8
TOWNS
 10
659.94124460860905
 20
4676.3420696578123
 30
0.0
  0
VERTEX
  5
169A
  8
TOWNS
 10
659.90564544497965
 20
4676.4597224090403
 30
0.0
  0
VERTEX
  5
169B
  8
TOWNS
 10
659.8296965483521
 20
4676.4404531736982
 30
0.0
  0
VERTEX
  5
169C
  8
TOWNS
 10
659.82054117422695
 20
4676.2409679247457
 30
0.0
  0
VERTEX
  5
169D
  8
TOWNS
 10
659.7861132759125
 20
4676.0742638824504
 30
0.0
  0
VERTEX
  5
169E
  8
TOWNS
 10
659.78602351009931
 20
4675.9938702851496
 30
0.0
  0
VERTEX
  5
169F
  8
TOWNS
 10
659.90492066915522
 20
4675.8106185493552
 30
0.0
  0
SEQEND
  5
16A0
  8
TOWNS
  0
POLYLINE
  5
D7
  8
TOWNS
 66
     1
 10
0.0
 20
0.0
 30
0.0
 70
     1
  0
VERTEX
  5
16A1
  8
TOWNS
 10
658.65153632030911
 20
4677.2888800512528
 30
0.0
  0
VERTEX
  5
16A2
  8
TOWNS
 10
658.59474528292151
 20
4677.0939143078167
 30
0.0
  0
VERTEX
  5
16A3
  8
TOWNS
 10
658.39380284791696
 20
4677.1313579803609
 30
0.0
  0
VERTEX
  5
16A4
  8
TOWNS
 10
658.33407915279531
 20
4676.9765923602363
 30
0.0
  0
VERTEX
  5
16A5
  8
TOWNS
 10
658.36225607511085
 20
4676.878301934823
 30
0.0
  0
VERTEX
  5
16A6
  8
TOWNS
 10
658.42168553784518
 20
4676.7695552082423
 30
0.0
  0
VERTEX
  5
16A7
  8
TOWNS
 10
658.80712245414554
 20
4676.6306690250076
 30
0.0
  0
VERTEX
  5
16A8
  8
TOWNS
 10
658.92792729064956
 20
4676.8225857476173
 30
0.0
  0
VERTEX
  5
16A9
  8
TOWNS
 10
658.81490708337105
 20
4676.9358586290373
 30
0.0
  0
VERTEX
  5
16AA
  8
TOWNS
 10
658.94478750216672
 20
4677.255799625219
 30
0.0
  0
SEQEND
  5
16AB
  8
TOWNS
  0
POLYLINE
  5
D8
  8
TOWNS
 66
     1
 10
0.0
 20
0.0
 30
0.0
 70
     1
  0
VERTEX
  5
16AC
  8
TOWNS
 10
660.36371823447132
 20
4673.372986212632
 30
0.0
  0
VERTEX
  5
16AD
  8
TOWNS
 10
660.20586868459429
 20
4673.33743193191
 30
0.0
  0
VERTEX
  5
16AE
  8
TOWNS
 10
660.27696727206012
 20
4673.0128002102329
 30
0.0
  0
VERTEX
  5
16AF
  8
TOWNS
 10
660.43489827610119
 20
4673.1213042366544
 30
0.0
  0
SEQEND
  5
16B0
  8
TOWNS
  0
POLYLINE
  5
D9
  8
TOWNS
 66
     1
 10
0.0
 20
0.0
 30
0.0
 70
     1
  0
VERTEX
  5
16B1
  8
TOWNS
 10
659.35000000000002
 20
4678.5500000000002
 30
0.0
  0
VERTEX
  5
16B2
  8
TOWNS
 10
659.20000000000005
 20
4678.0
 30
0.0
  0
VERTEX
  5
16B3
  8
TOWNS
 10
659.4000000000002
 20
4677.9499999999998
 30
0.0
  0
VERTEX
  5
16B4
  8
TOWNS
 10
659.49999999999977
 20
4677.8000000000002
 30
0.0
  0
VERTEX
  5
16B5
  8
TOWNS
 10
659.79999999999995
 20
4677.8000000000002
 30
0.0
  0
VERTEX
  5
16B6
  8
TOWNS
 10
659.79999999999995
 20
4678.0500000000002
 30
0.0
  0
VERTEX
  5
16B7
  8
TOWNS
 10
660.05000000000018
 20
4678.0
 30
0.0
  0
VERTEX
  5
16B8
  8
TOWNS
 10
660.0999999999998
 20
4678.6000000000004
 30
0.0
  0
SEQEND
  5
16B9
  8
TOWNS
  0
POLYLINE
  5
DA
  8
TOWNS
 66
     1
 10
0.0
 20
0.0
 30
0.0
 70
     1
  0
VERTEX
  5
16BA
  8
TOWNS
 10
657.28090151999015
 20
4685.7764411911357
 30
0.0
  0
VERTEX
  5
16BB
  8
TOWNS
 10
657.38021594332179
 20
4685.5777444722526
 30
0.0
  0
VERTEX
  5
16BC
  8
TOWNS
 10
657.78642073053948
 20
4685.7803634449374
 30
0.0
  0
VERTEX
  5
16BD
  8
TOWNS
 10
657.67834657271214
 20
4685.972530388688
 30
0.0
  0
SEQEND
  5
16BE
  8
TOWNS
  0
POLYLINE
  5
DB
  8
TOWNS
 66
     1
 10
0.0
 20
0.0
 30
0.0
 70
     1
  0
VERTEX
  5
16BF
  8
TOWNS
 10
658.01821605138161
 20
4686.2512924778466
 30
0.0
  0
VERTEX
  5
16C0
  8
TOWNS
 10
658.0613074057452
 20
4686.1937321950882
 30
0.0
  0
VERTEX
  5
16C1
  8
TOWNS
 10
658.27469480414754
 20
4686.2577754131271
 30
0.0
  0
VERTEX
  5
16C2
  8
TOWNS
 10
658.4160166677317
 20
4686.0548510428252
 30
0.0
  0
VERTEX
  5
16C3
  8
TOWNS
 10
658.27635125790232
 20
4685.9262479741856
 30
0.0
  0
VERTEX
  5
16C4
  8
TOWNS
 10
658.31622671061245
 20
4685.8394043042081
 30
0.0
  0
VERTEX
  5
16C5
  8
TOWNS
 10
658.58059300168566
 20
4685.9578382602194
 30
0.0
  0
VERTEX
  5
16C6
  8
TOWNS
 10
658.78514276017245
 20
4685.706655298708
 30
0.0
  0
VERTEX
  5
16C7
  8
TOWNS
 10
658.98474799890653
 20
4685.8237730732972
 30
0.0
  0
VERTEX
  5
16C8
  8
TOWNS
 10
658.78079707052564
 20
4686.1079972807356
 30
0.0
  0
VERTEX
  5
16C9
  8
TOWNS
 10
658.6359290661552
 20
4686.3603931937496
 30
0.0
  0
VERTEX
  5
16CA
  8
TOWNS
 10
658.53547385566196
 20
4686.5527149823783
 30
0.0
  0
SEQEND
  5
16CB
  8
TOWNS
  0
POLYLINE
  5
DC
  8
TOWNS
 66
     1
 10
0.0
 20
0.0
 30
0.0
 70
     1
  0
VERTEX
  5
16CC
  8
TOWNS
 10
659.60238691740233
 20
4684.7489069612238
 30
0.0
  0
VERTEX
  5
16CD
  8
TOWNS
 10
659.65168258287281
 20
4684.5110832065184
 30
0.0
  0
VERTEX
  5
16CE
  8
TOWNS
 10
659.85747684141995
 20
4684.5737017551292
 30
0.0
  0
VERTEX
  5
16CF
  8
TOWNS
 10
659.82235570589251
 20
4684.8016507956581
 30
0.0
  0
SEQEND
  5
16D0
  8
TOWNS
  0
POLYLINE
  5
DD
  8
TOWNS
 66
     1
 10
0.0
 20
0.0
 30
0.0
 70
     1
  0
VERTEX
  5
16D1
  8
TOWNS
 10
657.86002042922212
 20
4700.7149018234832
 30
0.0
  0
VERTEX
  5
16D2
  8
TOWNS
 10
657.92571852240962
 20
4700.7201852111384
 30
0.0
  0
VERTEX
  5
16D3
  8
TOWNS
 10
657.91296324204825
 20
4700.7857923665952
 30
0.0
  0
VERTEX
  5
16D4
  8
TOWNS
 10
657.85624960765597
 20
4700.7791237256761
 30
0.0
  0
SEQEND
  5
16D5
  8
TOWNS
  0
POLYLINE
  5
DE
  8
TOWNS
 66
     1
 10
0.0
 20
0.0
 30
0.0
 70
     1
  0
VERTEX
  5
16D6
  8
TOWNS
 10
657.40677841975105
 20
4699.6407466519249
 30
0.0
  0
VERTEX
  5
16D7
  8
TOWNS
 10
657.20501912910288
 20
4699.6397857117399
 30
0.0
  0
VERTEX
  5
16D8
  8
TOWNS
 10
657.19501616772504
 20
4699.7248561633278
 30
0.0
  0
VERTEX
  5
16D9
  8
TOWNS
 10
657.41004298978555
 20
4699.7409245768422
 30
0.0
  0
SEQEND
  5
16DA
  8
TOWNS
  0
POLYLINE
  5
DF
  8
TOWNS
 66
     1
 10
0.0
 20
0.0
 30
0.0
 70
     1
  0
VERTEX
  5
16DB
  8
TOWNS
 10
655.30332661970181
 20
4700.913953602555
 30
0.0
  0
VERTEX
  5
16DC
  8
TOWNS
 10
655.5366315476366
 20
4700.9018470743358
 30
0.0
  0
VERTEX
  5
16DD
  8
TOWNS
 10
655.54760444847795
 20
4700.9826890159457
 30
0.0
  0
VERTEX
  5
16DE
  8
TOWNS
 10
655.4309337969645
 20
4700.9902366585957
 30
0.0
  0
VERTEX
  5
16DF
  8
TOWNS
 10
655.39796953108078
 20
4701.1198656532388
 30
0.0
  0
VERTEX
  5
16E0
  8
TOWNS
 10
655.27814643456918
 20
4701.1408263276717
 30
0.0
  0
SEQEND
  5
16E1
  8
TOWNS
  0
POLYLINE
  5
E0
  8
TOWNS
 66
     1
 10
0.0
 20
0.0
 30
0.0
 70
     1
  0
VERTEX
  5
16E2
  8
TOWNS
 10
661.14643803266074
 20
4699.5039195227082
 30
0.0
  0
VERTEX
  5
16E3
  8
TOWNS
 10
661.31397211722333
 20
4699.4925071209991
 30
0.0
  0
VERTEX
  5
16E4
  8
TOWNS
 10
661.31951912980185
 20
4699.7735594120777
 30
0.0
  0
VERTEX
  5
16E5
  8
TOWNS
 10
661.1501996659598
 20
4699.8088636829043
 30
0.0
  0
SEQEND
  5
16E6
  8
TOWNS
  0
POLYLINE
  5
E1
  8
TOWNS
 66
     1
 10
0.0
 20
0.0
 30
0.0
 70
     1
  0
VERTEX
  5
16E7
  8
TOWNS
 10
659.74946709854123
 20
4698.7276607427293
 30
0.0
  0
VERTEX
  5
16E8
  8
TOWNS
 10
660.041889416716
 20
4698.647522115898
 30
0.0
  0
VERTEX
  5
16E9
  8
TOWNS
 10
660.04971287231899
 20
4698.8643343172389
 30
0.0
  0
VERTEX
  5
16EA
  8
TOWNS
 10
659.77443803239964
 20
4698.8863922439577
 30
0.0
  0
SEQEND
  5
16EB
  8
TOWNS
  0
POLYLINE
  5
E2
  8
TOWNS
 66
     1
 10
0.0
 20
0.0
 30
0.0
 70
     1
  0
VERTEX
  5
16EC
  8
TOWNS
 10
661.14042433239058
 20
4698.7699977833709
 30
0.0
  0
VERTEX
  5
16ED
  8
TOWNS
 10
661.41382285530005
 20
4698.7793036184767
 30
0.0
  0
VERTEX
  5
16EE
  8
TOWNS
 10
661.39411093304216
 20
4699.0480916929391
 30
0.0
  0
VERTEX
  5
16EF
  8
TOWNS
 10
661.11178251397598
 20
4699.0356879754754
 30
0.0
  0
SEQEND
  5
16F0
  8
TOWNS
  0
POLYLINE
  5
E3
  8
TOWNS
 66
     1
 10
0.0
 20
0.0
 30
0.0
 70
     1
  0
VERTEX
  5
16F1
  8
TOWNS
 10
659.69762191597795
 20
4697.3385464505573
 30
0.0
  0
VERTEX
  5
16F2
  8
TOWNS
 10
659.70825225320266
 20
4697.570338812403
 30
0.0
  0
VERTEX
  5
16F3
  8
TOWNS
 10
659.48538978751264
 20
4697.5840670319867
 30
0.0
  0
VERTEX
  5
16F4
  8
TOWNS
 10
659.44654813346051
 20
4697.3369853213489
 30
0.0
  0
SEQEND
  5
16F5
  8
TOWNS
  0
POLYLINE
  5
E4
  8
TOWNS
 66
     1
 10
0.0
 20
0.0
 30
0.0
 70
     1
  0
VERTEX
  5
16F6
  8
TOWNS
 10
660.34693483683895
 20
4693.846096050097
 30
0.0
  0
VERTEX
  5
16F7
  8
TOWNS
 10
660.43164153750502
 20
4693.8859865823042
 30
0.0
  0
VERTEX
  5
16F8
  8
TOWNS
 10
660.57123711843212
 20
4693.8368691536816
 30
0.0
  0
VERTEX
  5
16F9
  8
TOWNS
 10
660.75284198619613
 20
4693.8973687974258
 30
0.0
  0
VERTEX
  5
16FA
  8
TOWNS
 10
660.82192596272137
 20
4693.7472550043121
 30
0.0
  0
VERTEX
  5
16FB
  8
TOWNS
 10
660.83726687439162
 20
4693.5920033239117
 30
0.0
  0
VERTEX
  5
16FC
  8
TOWNS
 10
660.76684620772039
 20
4693.4835350667099
 30
0.0
  0
VERTEX
  5
16FD
  8
TOWNS
 10
660.71972022090472
 20
4693.5487239086042
 30
0.0
  0
VERTEX
  5
16FE
  8
TOWNS
 10
660.59574136459867
 20
4693.542731206654
 30
0.0
  0
VERTEX
  5
16FF
  8
TOWNS
 10
660.52929758202049
 20
4693.5987173392014
 30
0.0
  0
VERTEX
  5
1700
  8
TOWNS
 10
660.41457899746115
 20
4693.6914809338105
 30
0.0
  0
SEQEND
  5
1701
  8
TOWNS
  0
POLYLINE
  5
E5
  8
TOWNS
 66
     1
 10
0.0
 20
0.0
 30
0.0
 70
     1
  0
VERTEX
  5
1702
  8
TOWNS
 10
659.16128308715452
 20
4694.986991626517
 30
0.0
  0
VERTEX
  5
1703
  8
TOWNS
 10
659.11182009515676
 20
4694.8757892378771
 30
0.0
  0
VERTEX
  5
1704
  8
TOWNS
 10
659.23661739103795
 20
4694.8145349054621
 30
0.0
  0
VERTEX
  5
1705
  8
TOWNS
 10
659.27766892643774
 20
4694.5116307501912
 30
0.0
  0
VERTEX
  5
1706
  8
TOWNS
 10
659.50674834415315
 20
4694.6011055876988
 30
0.0
  0
VERTEX
  5
1707
  8
TOWNS
 10
659.42813728220881
 20
4694.9199932182728
 30
0.0
  0
VERTEX
  5
1708
  8
TOWNS
 10
659.29313396218265
 20
4694.9601989382854
 30
0.0
  0
SEQEND
  5
1709
  8
TOWNS
  0
POLYLINE
  5
E6
  8
TOWNS
 66
     1
 10
0.0
 20
0.0
 30
0.0
 70
     1
  0
VERTEX
  5
170A
  8
TOWNS
 10
660.54959826122627
 20
4690.5798726223711
 30
0.0
  0
VERTEX
  5
170B
  8
TOWNS
 10
660.90396603856846
 20
4690.5677449068462
 30
0.0
  0
VERTEX
  5
170C
  8
TOWNS
 10
660.89051963145448
 20
4690.6901384468774
 30
0.0
  0
VERTEX
  5
170D
  8
TOWNS
 10
660.65291644311628
 20
4690.8098038549942
 30
0.0
  0
VERTEX
  5
170E
  8
TOWNS
 10
660.58155902332589
 20
4691.1467149657974
 30
0.0
  0
VERTEX
  5
170F
  8
TOWNS
 10
660.33017605252405
 20
4691.170558271795
 30
0.0
  0
VERTEX
  5
1710
  8
TOWNS
 10
660.33527756471665
 20
4691.119803964023
 30
0.0
  0
VERTEX
  5
1711
  8
TOWNS
 10
660.11142997177637
 20
4691.0916713968991
 30
0.0
  0
VERTEX
  5
1712
  8
TOWNS
 10
660.12225137272969
 20
4690.9393539109442
 30
0.0
  0
VERTEX
  5
1713
  8
TOWNS
 10
660.29851529044174
 20
4690.9474775555509
 30
0.0
  0
VERTEX
  5
1714
  8
TOWNS
 10
660.37266740382734
 20
4690.8721554396961
 30
0.0
  0
VERTEX
  5
1715
  8
TOWNS
 10
660.43971137542735
 20
4690.7668548152778
 30
0.0
  0
VERTEX
  5
1716
  8
TOWNS
 10
660.53675204313458
 20
4690.652951670535
 30
0.0
  0
SEQEND
  5
1717
  8
TOWNS
  0
POLYLINE
  5
E7
  8
TOWNS
 66
     1
 10
0.0
 20
0.0
 30
0.0
 70
     1
  0
VERTEX
  5
1718
  8
TOWNS
 10
659.83212668488545
 20
4691.0763152974432
 30
0.0
  0
VERTEX
  5
1719
  8
TOWNS
 10
659.80279073995837
 20
4691.2762346461732
 30
0.0
  0
VERTEX
  5
171A
  8
TOWNS
 10
659.9640744971631
 20
4691.2871651724008
 30
0.0
  0
VERTEX
  5
171B
  8
TOWNS
 10
659.97737240414835
 20
4691.054169432753
 30
0.0
  0
SEQEND
  5
171C
  8
TOWNS
  0
POLYLINE
  5
E8
  8
TOWNS
 66
     1
 10
0.0
 20
0.0
 30
0.0
 70
     1
  0
VERTEX
  5
171D
  8
TOWNS
 10
657.5656876868037
 20
4691.9873400144061
 30
0.0
  0
VERTEX
  5
171E
  8
TOWNS
 10
657.68515003215248
 20
4692.1188241387554
 30
0.0
  0
VERTEX
  5
171F
  8
TOWNS
 10
657.97514740717361
 20
4691.9923234020453
 30
0.0
  0
VERTEX
  5
1720
  8
TOWNS
 10
658.1721993121248
 20
4691.7660478661919
 30
0.0
  0
VERTEX
  5
1721
  8
TOWNS
 10
657.95019166110183
 20
4691.709540294326
 30
0.0
  0
VERTEX
  5
1722
  8
TOWNS
 10
657.77700743820333
 20
4691.6939811321026
 30
0.0
  0
VERTEX
  5
1723
  8
TOWNS
 10
657.66872105646326
 20
4691.7494580133589
 30
0.0
  0
VERTEX
  5
1724
  8
TOWNS
 10
657.60991585426677
 20
4691.9146429047123
 30
0.0
  0
SEQEND
  5
1725
  8
TOWNS
  0
POLYLINE
  5
E9
  8
TOWNS
 66
     1
 10
0.0
 20
0.0
 30
0.0
 70
     1
  0
VERTEX
  5
1726
  8
TOWNS
 10
655.68050290279575
 20
4693.8700109723513
 30
0.0
  0
VERTEX
  5
1727
  8
TOWNS
 10
655.87805487077082
 20
4693.9710588997241
 30
0.0
  0
VERTEX
  5
1728
  8
TOWNS
 10
656.31808128968476
 20
4693.4293907419096
 30
0.0
  0
VERTEX
  5
1729
  8
TOWNS
 10
656.68306740521314
 20
4693.1588264764368
 30
0.0
  0
VERTEX
  5
172A
  8
TOWNS
 10
656.28748459354449
 20
4692.7504700078707
 30
0.0
  0
VERTEX
  5
172B
  8
TOWNS
 10
656.20917672036455
 20
4692.7988387473433
 30
0.0
  0
VERTEX
  5
172C
  8
TOWNS
 10
656.27522337668813
 20
4692.8982861706563
 30
0.0
  0
VERTEX
  5
172D
  8
TOWNS
 10
656.19356299550282
 20
4692.9765061058661
 30
0.0
  0
VERTEX
  5
172E
  8
TOWNS
 10
656.0796598507593
 20
4692.8794654381591
 30
0.0
  0
VERTEX
  5
172F
  8
TOWNS
 10
655.93084637269715
 20
4693.0719522690342
 30
0.0
  0
VERTEX
  5
1730
  8
TOWNS
 10
656.05513741704669
 20
4693.1750977637303
 30
0.0
  0
VERTEX
  5
1731
  8
TOWNS
 10
655.95807856179351
 20
4693.2904952870149
 30
0.0
  0
VERTEX
  5
1732
  8
TOWNS
 10
655.84045915812214
 20
4693.2531933858754
 30
0.0
  0
VERTEX
  5
1733
  8
TOWNS
 10
655.79344229658295
 20
4693.3094159565217
 30
0.0
  0
VERTEX
  5
1734
  8
TOWNS
 10
656.01864176745585
 20
4693.472078967473
 30
0.0
  0
VERTEX
  5
1735
  8
TOWNS
 10
655.69098174013232
 20
4693.8686439066323
 30
0.0
  0
SEQEND
  5
1736
  8
TOWNS
  0
POLYLINE
  5
EA
  8
TOWNS
 66
     1
 10
0.0
 20
0.0
 30
0.0
 70
     1
  0
VERTEX
  5
1737
  8
TOWNS
 10
661.50291193118755
 20
4689.0354654019284
 30
0.0
  0
VERTEX
  5
1738
  8
TOWNS
 10
661.49794978383125
 20
4689.406502246351
 30
0.0
  0
VERTEX
  5
1739
  8
TOWNS
 10
661.18702898343702
 20
4689.6850984936764
 30
0.0
  0
VERTEX
  5
173A
  8
TOWNS
 10
660.93895213799135
 20
4689.7770926767043
 30
0.0
  0
VERTEX
  5
173B
  8
TOWNS
 10
660.83043472695681
 20
4689.5302353470561
 30
0.0
  0
VERTEX
  5
173C
  8
TOWNS
 10
661.21203506329323
 20
4689.4068868280319
 30
0.0
  0
VERTEX
  5
173D
  8
TOWNS
 10
661.14671800986252
 20
4689.1614341174991
 30
0.0
  0
VERTEX
  5
173E
  8
TOWNS
 10
661.49950150100938
 20
4688.905840698907
 30
0.0
  0
SEQEND
  5
173F
  8
TOWNS
  0
POLYLINE
  5
EB
  8
TOWNS
 66
     1
 10
0.0
 20
0.0
 30
0.0
 70
     1
  0
VERTEX
  5
1740
  8
TOWNS
 10
653.2691587575838
 20
4688.7132572687269
 30
0.0
  0
VERTEX
  5
1741
  8
TOWNS
 10
653.42009726055755
 20
4688.5372056739234
 30
0.0
  0
VERTEX
  5
1742
  8
TOWNS
 10
653.83366769543022
 20
4688.502419069654
 30
0.0
  0
VERTEX
  5
1743
  8
TOWNS
 10
654.03550289352938
 20
4688.6348263538703
 30
0.0
  0
VERTEX
  5
1744
  8
TOWNS
 10
654.3555297471288
 20
4688.7023072246902
 30
0.0
  0
VERTEX
  5
1745
  8
TOWNS
 10
654.41025646530784
 20
4688.947326490882
 30
0.0
  0
VERTEX
  5
1746
  8
TOWNS
 10
654.21014033508925
 20
4688.9178524181116
 30
0.0
  0
VERTEX
  5
1747
  8
TOWNS
 10
654.1725512318111
 20
4688.7671872812207
 30
0.0
  0
VERTEX
  5
1748
  8
TOWNS
 10
654.04558932563066
 20
4688.7010894980731
 30
0.0
  0
VERTEX
  5
1749
  8
TOWNS
 10
653.80869464016325
 20
4688.6060801486001
 30
0.0
  0
VERTEX
  5
174A
  8
TOWNS
 10
653.48219488448365
 20
4688.6070665738707
 30
0.0
  0
SEQEND
  5
174B
  8
TOWNS
  0
POLYLINE
  5
EC
  8
TOWNS
 66
     1
 10
0.0
 20
0.0
 30
0.0
 70
     1
  0
VERTEX
  5
174C
  8
TOWNS
 10
650.13727144108361
 20
4666.6488621574754
 30
0.0
  0
VERTEX
  5
174D
  8
TOWNS
 10
650.3616177141032
 20
4666.5839092764072
 30
0.0
  0
VERTEX
  5
174E
  8
TOWNS
 10
650.22655339980565
 20
4666.1335173396519
 30
0.0
  0
VERTEX
  5
174F
  8
TOWNS
 10
650.0273735833772
 20
4666.2039556041691
 30
0.0
  0
SEQEND
  5
1750
  8
TOWNS
  0
POLYLINE
  5
ED
  8
TOWNS
 66
     1
 10
0.0
 20
0.0
 30
0.0
 70
     1
  0
VERTEX
  5
1751
  8
TOWNS
 10
650.47087716548072
 20
4679.266555816982
 30
0.0
  0
VERTEX
  5
1752
  8
TOWNS
 10
650.16555823373119
 20
4679.1278989334569
 30
0.0
  0
VERTEX
  5
1753
  8
TOWNS
 10
650.04435552141047
 20
4678.9088635834287
 30
0.0
  0
VERTEX
  5
1754
  8
TOWNS
 10
650.09609443898921
 20
4678.8780848194983
 30
0.0
  0
VERTEX
  5
1755
  8
TOWNS
 10
650.19987174507798
 20
4679.0126842659438
 30
0.0
  0
VERTEX
  5
1756
  8
TOWNS
 10
650.28057399589159
 20
4678.9961162922718
 30
0.0
  0
VERTEX
  5
1757
  8
TOWNS
 10
650.32410415113407
 20
4679.0204364309557
 30
0.0
  0
VERTEX
  5
1758
  8
TOWNS
 10
650.30173305489257
 20
4679.0796947632944
 30
0.0
  0
VERTEX
  5
1759
  8
TOWNS
 10
650.51990064210599
 20
4679.1930132963171
 30
0.0
  0
SEQEND
  5
175A
  8
TOWNS
  0
POLYLINE
  5
EE
  8
TOWNS
 66
     1
 10
0.0
 20
0.0
 30
0.0
 70
     1
  0
VERTEX
  5
175B
  8
TOWNS
 10
650.07129722628713
 20
4663.8748805886098
 30
0.0
  0
VERTEX
  5
175C
  8
TOWNS
 10
650.63104056405075
 20
4663.7572872643459
 30
0.0
  0
VERTEX
  5
175D
  8
TOWNS
 10
650.54546084834635
 20
4663.2609409725401
 30
0.0
  0
VERTEX
  5
175E
  8
TOWNS
 10
650.27022551932464
 20
4663.3196853936161
 30
0.0
  0
SEQEND
  5
175F
  8
TOWNS
  0
POLYLINE
  5
EF
  8
TOWNS
 66
     1
 10
0.0
 20
0.0
 30
0.0
 70
     1
  0
VERTEX
  5
1760
  8
TOWNS
 10
650.15688498129725
 20
4666.1193573199698
 30
0.0
  0
VERTEX
  5
1761
  8
TOWNS
 10
651.13227556766503
 20
4665.8545731527138
 30
0.0
  0
VERTEX
  5
1762
  8
TOWNS
 10
651.0842940057795
 20
4665.626844501895
 30
0.0
  0
VERTEX
  5
1763
  8
TOWNS
 10
650.07821614523357
 20
4665.8853229512024
 30
0.0
  0
SEQEND
  5
1764
  8
TOWNS
  0
POLYLINE
  5
F0
  8
TOWNS
 66
     1
 10
0.0
 20
0.0
 30
0.0
 70
     1
  0
VERTEX
  5
1765
  8
TOWNS
 10
649.68611511553274
 20
4662.2006526025598
 30
0.0
  0
VERTEX
  5
1766
  8
TOWNS
 10
649.23080040999082
 20
4662.1211590234743
 30
0.0
  0
VERTEX
  5
1767
  8
TOWNS
 10
649.25116759559683
 20
4661.6653513064157
 30
0.0
  0
VERTEX
  5
1768
  8
TOWNS
 10
649.7642928327449
 20
4661.3199145340614
 30
0.0
  0
VERTEX
  5
1769
  8
TOWNS
 10
650.09271874602348
 20
4661.3521501133582
 30
0.0
  0
VERTEX
  5
176A
  8
TOWNS
 10
650.31134180919526
 20
4661.7218002383524
 30
0.0
  0
SEQEND
  5
176B
  8
TOWNS
  0
POLYLINE
  5
F1
  8
TOWNS
 66
     1
 10
0.0
 20
0.0
 30
0.0
 70
     1
  0
VERTEX
  5
176C
  8
TOWNS
 10
649.71549138807416
 20
4665.1047072765869
 30
0.0
  0
VERTEX
  5
176D
  8
TOWNS
 10
650.21815392186761
 20
4664.9379641920559
 30
0.0
  0
VERTEX
  5
176E
  8
TOWNS
 10
650.40078743178162
 20
4665.4265349810821
 30
0.0
  0
VERTEX
  5
176F
  8
TOWNS
 10
649.85501008838685
 20
4665.5545984522632
 30
0.0
  0
SEQEND
  5
1770
  8
TOWNS
  0
POLYLINE
  5
F2
  8
TOWNS
 66
     1
 10
0.0
 20
0.0
 30
0.0
 70
     1
  0
VERTEX
  5
1771
  8
TOWNS
 10
649.80188922483489
 20
4670.9689384445801
 30
0.0
  0
VERTEX
  5
1772
  8
TOWNS
 10
650.33857501248974
 20
4670.8604678630008
 30
0.0
  0
VERTEX
  5
1773
  8
TOWNS
 10
650.11280131415583
 20
4670.3258147697097
 30
0.0
  0
VERTEX
  5
1774
  8
TOWNS
 10
649.8416416694148
 20
4670.4038298739633
 30
0.0
  0
VERTEX
  5
1775
  8
TOWNS
 10
649.69909244815551
 20
4670.6266047977024
 30
0.0
  0
SEQEND
  5
1776
  8
TOWNS
  0
POLYLINE
  5
F3
  8
TOWNS
 66
     1
 10
0.0
 20
0.0
 30
0.0
 70
     1
  0
VERTEX
  5
1777
  8
TOWNS
 10
649.3798614721693
 20
4682.978898463266
 30
0.0
  0
VERTEX
  5
1778
  8
TOWNS
 10
649.30107965759976
 20
4683.0891555704566
 30
0.0
  0
VERTEX
  5
1779
  8
TOWNS
 10
649.93405140625237
 20
4683.3072983173579
 30
0.0
  0
VERTEX
  5
177A
  8
TOWNS
 10
650.29172864503471
 20
4683.640383909953
 30
0.0
  0
VERTEX
  5
177B
  8
TOWNS
 10
650.47066201722885
 20
4683.891786614513
 30
0.0
  0
VERTEX
  5
177C
  8
TOWNS
 10
650.23845041850677
 20
4683.9247988850211
 30
0.0
  0
VERTEX
  5
177D
  8
TOWNS
 10
650.02703173437408
 20
4683.9131247733003
 30
0.0
  0
VERTEX
  5
177E
  8
TOWNS
 10
649.84819810197234
 20
4683.7510482879634
 30
0.0
  0
VERTEX
  5
177F
  8
TOWNS
 10
649.86446319939512
 20
4683.6512823908688
 30
0.0
  0
VERTEX
  5
1780
  8
TOWNS
 10
648.95882705456995
 20
4683.236926168046
 30
0.0
  0
VERTEX
  5
1781
  8
TOWNS
 10
649.17285091745214
 20
4682.9151124033424
 30
0.0
  0
VERTEX
  5
1782
  8
TOWNS
 10
648.92098442285806
 20
4682.6786788561503
 30
0.0
  0
VERTEX
  5
1783
  8
TOWNS
 10
649.00131152696383
 20
4682.6190382775221
 30
0.0
  0
SEQEND
  5
1784
  8
TOWNS
  0
POLYLINE
  5
F4
  8
TOWNS
 66
     1
 10
0.0
 20
0.0
 30
0.0
 70
     1
  0
VERTEX
  5
1785
  8
TOWNS
 10
649.04739077372312
 20
4662.5104091645117
 30
0.0
  0
VERTEX
  5
1786
  8
TOWNS
 10
649.27453557832587
 20
4663.0190711237301
 30
0.0
  0
VERTEX
  5
1787
  8
TOWNS
 10
649.69599517813117
 20
4662.8717366767878
 30
0.0
  0
VERTEX
  5
1788
  8
TOWNS
 10
649.75687159319955
 20
4662.6160196699793
 30
0.0
  0
VERTEX
  5
1789
  8
TOWNS
 10
649.50700547702672
 20
4662.2513585119623
 30
0.0
  0
SEQEND
  5
178A
  8
TOWNS
  0
POLYLINE
  5
F5
  8
TOWNS
 66
     1
 10
0.0
 20
0.0
 30
0.0
 70
     1
  0
VERTEX
  5
178B
  8
TOWNS
 10
648.86469790236879
 20
4666.2632352795044
 30
0.0
  0
VERTEX
  5
178C
  8
TOWNS
 10
649.23122295843143
 20
4666.2106363611692
 30
0.0
  0
VERTEX
  5
178D
  8
TOWNS
 10
649.19473223853106
 20
4666.0340223297508
 30
0.0
  0
VERTEX
  5
178E
  8
TOWNS
 10
648.85052572099266
 20
4666.1048436337096
 30
0.0
  0
SEQEND
  5
178F
  8
TOWNS
  0
POLYLINE
  5
F6
  8
TOWNS
 66
     1
 10
0.0
 20
0.0
 30
0.0
 70
     1
  0
VERTEX
  5
1790
  8
TOWNS
 10
649.3233476228969
 20
4664.3410485866134
 30
0.0
  0
VERTEX
  5
1791
  8
TOWNS
 10
649.72381080039258
 20
4664.194287474912
 30
0.0
  0
VERTEX
  5
1792
  8
TOWNS
 10
649.59747989908715
 20
4663.8510279866123
 30
0.0
  0
VERTEX
  5
1793
  8
TOWNS
 10
649.22216314685591
 20
4664.0332897054968
 30
0.0
  0
SEQEND
  5
1794
  8
TOWNS
  0
POLYLINE
  5
F7
  8
TOWNS
 66
     1
 10
0.0
 20
0.0
 30
0.0
 70
     1
  0
VERTEX
  5
1795
  8
TOWNS
 10
649.03426579671816
 20
4668.665681540986
 30
0.0
  0
VERTEX
  5
1796
  8
TOWNS
 10
649.67040514045073
 20
4668.4260179065568
 30
0.0
  0
VERTEX
  5
1797
  8
TOWNS
 10
649.70481554573348
 20
4669.1126127143143
 30
0.0
  0
VERTEX
  5
1798
  8
TOWNS
 10
649.26094620421827
 20
4669.2499413962787
 30
0.0
  0
SEQEND
  5
1799
  8
TOWNS
  0
POLYLINE
  5
F8
  8
TOWNS
 66
     1
 10
0.0
 20
0.0
 30
0.0
 70
     1
  0
VERTEX
  5
179A
  8
TOWNS
 10
649.06944465746994
 20
4668.0705302340739
 30
0.0
  0
VERTEX
  5
179B
  8
TOWNS
 10
649.45024075332731
 20
4668.0158234742812
 30
0.0
  0
VERTEX
  5
179C
  8
TOWNS
 10
649.53112488478894
 20
4668.3286301429871
 30
0.0
  0
VERTEX
  5
179D
  8
TOWNS
 10
649.11393344689168
 20
4668.3477242362032
 30
0.0
  0
SEQEND
  5
179E
  8
TOWNS
  0
POLYLINE
  5
F9
  8
TOWNS
 66
     1
 10
0.0
 20
0.0
 30
0.0
 70
     1
  0
VERTEX
  5
179F
  8
TOWNS
 10
649.08206243910365
 20
4667.782655082754
 30
0.0
  0
VERTEX
  5
17A0
  8
TOWNS
 10
649.59714217252065
 20
4667.5740355722783
 30
0.0
  0
VERTEX
  5
17A1
  8
TOWNS
 10
649.3296042094006
 20
4666.9503685877253
 30
0.0
  0
VERTEX
  5
17A2
  8
TOWNS
 10
648.86345654766467
 20
4667.1407254942733
 30
0.0
  0
SEQEND
  5
17A3
  8
TOWNS
  0
POLYLINE
  5
FA
  8
TOWNS
 66
     1
 10
0.0
 20
0.0
 30
0.0
 70
     1
  0
VERTEX
  5
17A4
  8
TOWNS
 10
648.62474245613589
 20
4687.9323507365762
 30
0.0
  0
VERTEX
  5
17A5
  8
TOWNS
 10
648.65315367318885
 20
4687.7430696578367
 30
0.0
  0
VERTEX
  5
17A6
  8
TOWNS
 10
648.74743546565651
 20
4687.7531567766137
 30
0.0
  0
VERTEX
  5
17A7
  8
TOWNS
 10
648.75699446631893
 20
4687.7988556248383
 30
0.0
  0
VERTEX
  5
17A8
  8
TOWNS
 10
648.9232368237075
 20
4687.7830142779212
 30
0.0
  0
VERTEX
  5
17A9
  8
TOWNS
 10
649.09204979524247
 20
4687.879468164032
 30
0.0
  0
VERTEX
  5
17AA
  8
TOWNS
 10
649.04316748992608
 20
4687.9391693596326
 30
0.0
  0
VERTEX
  5
17AB
  8
TOWNS
 10
648.9431994060842
 20
4687.8489637729472
 30
0.0
  0
VERTEX
  5
17AC
  8
TOWNS
 10
648.92711533821523
 20
4687.9454686508552
 30
0.0
  0
SEQEND
  5
17AD
  8
TOWNS
  0
POLYLINE
  5
FB
  8
TOWNS
 66
     1
 10
0.0
 20
0.0
 30
0.0
 70
     1
  0
VERTEX
  5
17AE
  8
TOWNS
 10
648.71847761382708
 20
4677.1278717556397
 30
0.0
  0
VERTEX
  5
17AF
  8
TOWNS
 10
648.74074743831204
 20
4677.0849205093518
 30
0.0
  0
VERTEX
  5
17B0
  8
TOWNS
 10
648.84291256661402
 20
4677.0863372342674
 30
0.0
  0
VERTEX
  5
17B1
  8
TOWNS
 10
649.15108065987135
 20
4677.1898347818124
 30
0.0
  0
VERTEX
  5
17B2
  8
TOWNS
 10
649.12934656181096
 20
4677.3192252053586
 30
0.0
  0
VERTEX
  5
17B3
  8
TOWNS
 10
649.00875155757785
 20
4677.4104692520232
 30
0.0
  0
VERTEX
  5
17B4
  8
TOWNS
 10
648.95189805325697
 20
4677.3750264167247
 30
0.0
  0
VERTEX
  5
17B5
  8
TOWNS
 10
649.06283867436775
 20
4677.2797489007107
 30
0.0
  0
SEQEND
  5
17B6
  8
TOWNS
  0
POLYLINE
  5
FC
  8
TOWNS
 66
     1
 10
0.0
 20
0.0
 30
0.0
 70
     1
  0
VERTEX
  5
17B7
  8
TOWNS
 10
650.25508555645638
 20
4663.1077165079159
 30
0.0
  0
VERTEX
  5
17B8
  8
TOWNS
 10
650.68338540218099
 20
4663.0530435568598
 30
0.0
  0
VERTEX
  5
17B9
  8
TOWNS
 10
650.63430546873485
 20
4662.8124762946782
 30
0.0
  0
VERTEX
  5
17BA
  8
TOWNS
 10
650.19683742539951
 20
4662.8765264075637
 30
0.0
  0
SEQEND
  5
17BB
  8
TOWNS
  0
POLYLINE
  5
FD
  8
TOWNS
 66
     1
 10
0.0
 20
0.0
 30
0.0
 70
     1
  0
VERTEX
  5
17BC
  8
TOWNS
 10
653.73773133068153
 20
4665.5017032035048
 30
0.0
  0
VERTEX
  5
17BD
  8
TOWNS
 10
654.12020975187465
 20
4665.2898909872229
 30
0.0
  0
VERTEX
  5
17BE
  8
TOWNS
 10
654.04114055074047
 20
4665.1655848486653
 30
0.0
  0
VERTEX
  5
17BF
  8
TOWNS
 10
653.67595698217679
 20
4665.3690875662369
 30
0.0
  0
SEQEND
  5
17C0
  8
TOWNS
  0
POLYLINE
  5
FE
  8
TOWNS
 66
     1
 10
0.0
 20
0.0
 30
0.0
 70
     1
  0
VERTEX
  5
17C1
  8
TOWNS
 10
652.16474860476478
 20
4665.9216807052353
 30
0.0
  0
VERTEX
  5
17C2
  8
TOWNS
 10
652.61307612298515
 20
4665.7925912316696
 30
0.0
  0
VERTEX
  5
17C3
  8
TOWNS
 10
652.71179102421092
 20
4666.1172231652226
 30
0.0
  0
VERTEX
  5
17C4
  8
TOWNS
 10
652.24100990295403
 20
4666.2083109799532
 30
0.0
  0
SEQEND
  5
17C5
  8
TOWNS
  0
POLYLINE
  5
FF
  8
TOWNS
 66
     1
 10
0.0
 20
0.0
 30
0.0
 70
     1
  0
VERTEX
  5
17C6
  8
TOWNS
 10
651.26692120811617
 20
4664.532604013094
 30
0.0
  0
VERTEX
  5
17C7
  8
TOWNS
 10
651.737718668139
 20
4664.545846905482
 30
0.0
  0
VERTEX
  5
17C8
  8
TOWNS
 10
651.74378513374438
 20
4664.8784781699214
 30
0.0
  0
VERTEX
  5
17C9
  8
TOWNS
 10
651.26708776678686
 20
4664.8560278991317
 30
0.0
  0
SEQEND
  5
17CA
  8
TOWNS
  0
POLYLINE
  5
100
  8
TOWNS
 66
     1
 10
0.0
 20
0.0
 30
0.0
 70
     1
  0
VERTEX
  5
17CB
  8
TOWNS
 10
651.35039816762389
 20
4664.4308102218893
 30
0.0
  0
VERTEX
  5
17CC
  8
TOWNS
 10
651.7261767810412
 20
4664.447442225829
 30
0.0
  0
VERTEX
  5
17CD
  8
TOWNS
 10
651.72536699094815
 20
4663.9640515543551
 30
0.0
  0
VERTEX
  5
17CE
  8
TOWNS
 10
651.37752395906489
 20
4663.9575378687723
 30
0.0
  0
SEQEND
  5
17CF
  8
TOWNS
  0
POLYLINE
  5
101
  8
TOWNS
 66
     1
 10
0.0
 20
0.0
 30
0.0
 70
     1
  0
VERTEX
  5
17D0
  8
TOWNS
 10
651.89754168318711
 20
4663.7093989321611
 30
0.0
  0
VERTEX
  5
17D1
  8
TOWNS
 10
651.97630394125235
 20
4663.6007028722188
 30
0.0
  0
VERTEX
  5
17D2
  8
TOWNS
 10
651.79488263607595
 20
4663.4462507428098
 30
0.0
  0
VERTEX
  5
17D3
  8
TOWNS
 10
651.70281540906115
 20
4663.7115930564596
 30
0.0
  0
SEQEND
  5
17D4
  8
TOWNS
  0
POLYLINE
  5
102
  8
TOWNS
 66
     1
 10
0.0
 20
0.0
 30
0.0
 70
     1
  0
VERTEX
  5
17D5
  8
TOWNS
 10
654.64529765310067
 20
4661.8909020064193
 30
0.0
  0
VERTEX
  5
17D6
  8
TOWNS
 10
654.37901500046655
 20
4661.7153806619217
 30
0.0
  0
VERTEX
  5
17D7
  8
TOWNS
 10
654.03729395374523
 20
4662.1493062027876
 30
0.0
  0
VERTEX
  5
17D8
  8
TOWNS
 10
654.61153402295486
 20
4662.0837149787894
 30
0.0
  0
SEQEND
  5
17D9
  8
TOWNS
  0
POLYLINE
  5
103
  8
TOWNS
 66
     1
 10
0.0
 20
0.0
 30
0.0
 70
     1
  0
VERTEX
  5
17DA
  8
TOWNS
 10
654.15730638282025
 20
4660.557487459384
 30
0.0
  0
VERTEX
  5
17DB
  8
TOWNS
 10
654.17787936163279
 20
4660.8401082868968
 30
0.0
  0
VERTEX
  5
17DC
  8
TOWNS
 10
654.50990985394139
 20
4660.7807239129006
 30
0.0
  0
VERTEX
  5
17DD
  8
TOWNS
 10
654.42312536922122
 20
4660.4860975858019
 30
0.0
  0
SEQEND
  5
17DE
  8
TOWNS
  0
POLYLINE
  5
104
  8
TOWNS
 66
     1
 10
0.0
 20
0.0
 30
0.0
 70
     1
  0
VERTEX
  5
17DF
  8
TOWNS
 10
653.91871772371451
 20
4660.5764050632133
 30
0.0
  0
VERTEX
  5
17E0
  8
TOWNS
 10
653.51691683051945
 20
4660.5136969864716
 30
0.0
  0
VERTEX
  5
17E1
  8
TOWNS
 10
653.57188027838924
 20
4660.247613516296
 30
0.0
  0
VERTEX
  5
17E2
  8
TOWNS
 10
653.95649080106409
 20
4660.3279037714656
 30
0.0
  0
SEQEND
  5
17E3
  8
TOWNS
  0
POLYLINE
  5
105
  8
TOWNS
 66
     1
 10
0.0
 20
0.0
 30
0.0
 70
     1
  0
VERTEX
  5
17E4
  8
TOWNS
 10
651.38578240766265
 20
4660.0
 30
0.0
  0
VERTEX
  5
17E5
  8
TOWNS
 10
651.26511179727436
 20
4660.0510330071984
 30
0.0
  0
VERTEX
  5
17E6
  8
TOWNS
 10
651.27492978331213
 20
4660.4079658751107
 30
0.0
  0
VERTEX
  5
17E7
  8
TOWNS
 10
651.66983163252894
 20
4660.1670328718019
 30
0.0
  0
VERTEX
  5
17E8
  8
TOWNS
 10
651.56462766099116
 20
4660.0
 30
0.0
  0
SEQEND
  5
17E9
  8
TOWNS
  0
POLYLINE
  5
106
  8
TOWNS
 66
     1
 10
0.0
 20
0.0
 30
0.0
 70
     1
  0
VERTEX
  5
17EA
  8
TOWNS
 10
650.49678239708214
 20
4662.1300789148409
 30
0.0
  0
VERTEX
  5
17EB
  8
TOWNS
 10
650.552480551965
 20
4662.4436032284993
 30
0.0
  0
VERTEX
  5
17EC
  8
TOWNS
 10
650.90265153554003
 20
4662.3480782563674
 30
0.0
  0
VERTEX
  5
17ED
  8
TOWNS
 10
650.77154755661149
 20
4662.0296074350208
 30
0.0
  0
SEQEND
  5
17EE
  8
TOWNS
  0
POLYLINE
  5
107
  8
TOWNS
 66
     1
 10
0.0
 20
0.0
 30
0.0
 70
     1
  0
VERTEX
  5
17EF
  8
TOWNS
 10
651.07562082060849
 20
4664.5400049050768
 30
0.0
  0
VERTEX
  5
17F0
  8
TOWNS
 10
651.37119695668378
 20
4664.532449342777
 30
0.0
  0
VERTEX
  5
17F1
  8
TOWNS
 10
651.37645740236314
 20
4664.2302508572802
 30
0.0
  0
VERTEX
  5
17F2
  8
TOWNS
 10
651.05542107472684
 20
4664.2338027793703
 30
0.0
  0
SEQEND
  5
17F3
  8
TOWNS
  0
POLYLINE
  5
108
  8
TOWNS
 66
     1
 10
0.0
 20
0.0
 30
0.0
 70
     1
  0
VERTEX
  5
17F4
  8
TOWNS
 10
650.28637954388125
 20
4664.8651436254722
 30
0.0
  0
VERTEX
  5
17F5
  8
TOWNS
 10
650.53515386161268
 20
4664.8878719235381
 30
0.0
  0
VERTEX
  5
17F6
  8
TOWNS
 10
650.5482031992824
 20
4664.7072513867342
 30
0.0
  0
VERTEX
  5
17F7
  8
TOWNS
 10
650.28752715512951
 20
4664.674654497444
 30
0.0
  0
SEQEND
  5
17F8
  8
TOWNS
  0
POLYLINE
  5
109
  8
TOWNS
 66
     1
 10
0.0
 20
0.0
 30
0.0
 70
     1
  0
VERTEX
  5
17F9
  8
TOWNS
 10
650.73415417670117
 20
4665.4651060156011
 30
0.0
  0
VERTEX
  5
17FA
  8
TOWNS
 10
651.31555738764621
 20
4665.449897772859
 30
0.0
  0
VERTEX
  5
17FB
  8
TOWNS
 10
651.31589704637918
 20
4665.1146501704379
 30
0.0
  0
VERTEX
  5
17FC
  8
TOWNS
 10
650.75422354725538
 20
4665.1068048881234
 30
0.0
  0
SEQEND
  5
17FD
  8
TOWNS
  0
POLYLINE
  5
10A
  8
TOWNS
 66
     1
 10
0.0
 20
0.0
 30
0.0
 70
     1
  0
VERTEX
  5
17FE
  8
TOWNS
 10
654.10406464795858
 20
4669.0054589087358
 30
0.0
  0
VERTEX
  5
17FF
  8
TOWNS
 10
654.60309091622526
 20
4668.905189853027
 30
0.0
  0
VERTEX
  5
1800
  8
TOWNS
 10
654.58245023521283
 20
4668.749064773936
 30
0.0
  0
VERTEX
  5
1801
  8
TOWNS
 10
654.08900032493909
 20
4668.8592629136238
 30
0.0
  0
SEQEND
  5
1802
  8
TOWNS
  0
POLYLINE
  5
10B
  8
TOWNS
 66
     1
 10
0.0
 20
0.0
 30
0.0
 70
     1
  0
VERTEX
  5
1803
  8
TOWNS
 10
652.7760882817629
 20
4671.5021604288177
 30
0.0
  0
VERTEX
  5
1804
  8
TOWNS
 10
652.66849604205265
 20
4671.2798436139819
 30
0.0
  0
VERTEX
  5
1805
  8
TOWNS
 10
653.05850360352622
 20
4671.067702917313
 30
0.0
  0
VERTEX
  5
1806
  8
TOWNS
 10
653.21240447980892
 20
4671.3269619727689
 30
0.0
  0
SEQEND
  5
1807
  8
TOWNS
  0
POLYLINE
  5
10C
  8
TOWNS
 66
     1
 10
0.0
 20
0.0
 30
0.0
 70
     1
  0
VERTEX
  5
1808
  8
TOWNS
 10
652.18005324331295
 20
4667.2098252438964
 30
0.0
  0
VERTEX
  5
1809
  8
TOWNS
 10
652.1948349341576
 20
4667.0267433429526
 30
0.0
  0
VERTEX
  5
180A
  8
TOWNS
 10
651.99001028927023
 20
4666.8834180810018
 30
0.0
  0
VERTEX
  5
180B
  8
TOWNS
 10
651.66800976001673
 20
4666.9258031240488
 30
0.0
  0
VERTEX
  5
180C
  8
TOWNS
 10
651.63229600567411
 20
4667.1095419237454
 30
0.0
  0
SEQEND
  5
180D
  8
TOWNS
  0
POLYLINE
  5
10D
  8
TOWNS
 66
     1
 10
0.0
 20
0.0
 30
0.0
 70
     1
  0
VERTEX
  5
180E
  8
TOWNS
 10
651.31749061898699
 20
4666.672873963199
 30
0.0
  0
VERTEX
  5
180F
  8
TOWNS
 10
651.66111313215663
 20
4666.7246823968462
 30
0.0
  0
VERTEX
  5
1810
  8
TOWNS
 10
651.87346136898702
 20
4666.3994206869529
 30
0.0
  0
VERTEX
  5
1811
  8
TOWNS
 10
651.7987540716216
 20
4666.0828483973137
 30
0.0
  0
VERTEX
  5
1812
  8
TOWNS
 10
651.2897407664957
 20
4666.2275165823967
 30
0.0
  0
SEQEND
  5
1813
  8
TOWNS
  0
POLYLINE
  5
10E
  8
TOWNS
 66
     1
 10
0.0
 20
0.0
 30
0.0
 70
     1
  0
VERTEX
  5
1814
  8
TOWNS
 10
650.52919447144404
 20
4667.9771086586788
 30
0.0
  0
VERTEX
  5
1815
  8
TOWNS
 10
651.09313898102312
 20
4667.9899356849837
 30
0.0
  0
VERTEX
  5
1816
  8
TOWNS
 10
651.12266610486665
 20
4667.4751898130353
 30
0.0
  0
VERTEX
  5
1817
  8
TOWNS
 10
650.52715611376448
 20
4667.7291439652272
 30
0.0
  0
SEQEND
  5
1818
  8
TOWNS
  0
POLYLINE
  5
10F
  8
TOWNS
 66
     1
 10
0.0
 20
0.0
 30
0.0
 70
     1
  0
VERTEX
  5
1819
  8
TOWNS
 10
650.91475701266813
 20
4669.0908164017719
 30
0.0
  0
VERTEX
  5
181A
  8
TOWNS
 10
651.60359993759221
 20
4668.9115219624673
 30
0.0
  0
VERTEX
  5
181B
  8
TOWNS
 10
651.37755331562539
 20
4668.271582247462
 30
0.0
  0
VERTEX
  5
181C
  8
TOWNS
 10
650.72738908892893
 20
4668.5666575076239
 30
0.0
  0
SEQEND
  5
181D
  8
TOWNS
  0
POLYLINE
  5
110
  8
TOWNS
 66
     1
 10
0.0
 20
0.0
 30
0.0
 70
     1
  0
VERTEX
  5
181E
  8
TOWNS
 10
651.28861224032903
 20
4670.460152607372
 30
0.0
  0
VERTEX
  5
181F
  8
TOWNS
 10
651.08185315702849
 20
4670.4026132249919
 30
0.0
  0
VERTEX
  5
1820
  8
TOWNS
 10
650.92544625480832
 20
4670.1126419494803
 30
0.0
  0
VERTEX
  5
1821
  8
TOWNS
 10
650.97583145755402
 20
4669.9541283682993
 30
0.0
  0
VERTEX
  5
1822
  8
TOWNS
 10
651.43562928428787
 20
4670.1255607593721
 30
0.0
  0
SEQEND
  5
1823
  8
TOWNS
  0
POLYLINE
  5
111
  8
TOWNS
 66
     1
 10
0.0
 20
0.0
 30
0.0
 70
     1
  0
VERTEX
  5
1824
  8
TOWNS
 10
651.19280093729049
 20
4671.6808078270969
 30
0.0
  0
VERTEX
  5
1825
  8
TOWNS
 10
651.73553722355791
 20
4671.5143413723281
 30
0.0
  0
VERTEX
  5
1826
  8
TOWNS
 10
651.48596477379169
 20
4670.8839145535621
 30
0.0
  0
VERTEX
  5
1827
  8
TOWNS
 10
650.98661248328358
 20
4671.0297153961046
 30
0.0
  0
SEQEND
  5
1828
  8
TOWNS
  0
POLYLINE
  5
112
  8
TOWNS
 66
     1
 10
0.0
 20
0.0
 30
0.0
 70
     1
  0
VERTEX
  5
1829
  8
TOWNS
 10
653.99643578325072
 20
4686.3574138667764
 30
0.0
  0
VERTEX
  5
182A
  8
TOWNS
 10
653.88538333798385
 20
4686.228989379304
 30
0.0
  0
VERTEX
  5
182B
  8
TOWNS
 10
653.75637691643772
 20
4686.2958739854312
 30
0.0
  0
VERTEX
  5
182C
  8
TOWNS
 10
653.7005851442168
 20
4686.2028407859452
 30
0.0
  0
VERTEX
  5
182D
  8
TOWNS
 10
653.58514034402924
 20
4686.2465708801201
 30
0.0
  0
VERTEX
  5
182E
  8
TOWNS
 10
653.54351189636782
 20
4686.1693110907863
 30
0.0
  0
VERTEX
  5
182F
  8
TOWNS
 10
654.1507571999532
 20
4685.7314428064556
 30
0.0
  0
VERTEX
  5
1830
  8
TOWNS
 10
654.40320566128901
 20
4686.0804803998362
 30
0.0
  0
SEQEND
  5
1831
  8
TOWNS
  0
POLYLINE
  5
113
  8
TOWNS
 66
     1
 10
0.0
 20
0.0
 30
0.0
 70
     1
  0
VERTEX
  5
1832
  8
TOWNS
 10
653.78641213483525
 20
4678.8516380751062
 30
0.0
  0
VERTEX
  5
1833
  8
TOWNS
 10
653.76797074258513
 20
4678.7048488518421
 30
0.0
  0
VERTEX
  5
1834
  8
TOWNS
 10
653.64164615081393
 20
4678.6498057113076
 30
0.0
  0
VERTEX
  5
1835
  8
TOWNS
 10
653.58328417586927
 20
4678.5530016156708
 30
0.0
  0
VERTEX
  5
1836
  8
TOWNS
 10
653.69086345286405
 20
4678.4770475765772
 30
0.0
  0
VERTEX
  5
1837
  8
TOWNS
 10
653.81291629201769
 20
4678.5404793217513
 30
0.0
  0
VERTEX
  5
1838
  8
TOWNS
 10
653.8177723750423
 20
4678.6057301504889
 30
0.0
  0
VERTEX
  5
1839
  8
TOWNS
 10
653.88955380002778
 20
4678.5661157161176
 30
0.0
  0
VERTEX
  5
183A
  8
TOWNS
 10
653.92937667127887
 20
4678.8573560422883
 30
0.0
  0
SEQEND
  5
183B
  8
TOWNS
  0
POLYLINE
  5
114
  8
TOWNS
 66
     1
 10
0.0
 20
0.0
 30
0.0
 70
     1
  0
VERTEX
  5
183C
  8
TOWNS
 10
653.07597723037475
 20
4672.4389698914219
 30
0.0
  0
VERTEX
  5
183D
  8
TOWNS
 10
653.61327937670842
 20
4672.1770174135727
 30
0.0
  0
VERTEX
  5
183E
  8
TOWNS
 10
653.6349475623872
 20
4672.2603029700576
 30
0.0
  0
VERTEX
  5
183F
  8
TOWNS
 10
653.51988763304098
 20
4672.3682384635722
 30
0.0
  0
VERTEX
  5
1840
  8
TOWNS
 10
653.3109437280018
 20
4672.5005453010463
 30
0.0
  0
VERTEX
  5
1841
  8
TOWNS
 10
653.12705883626506
 20
4672.5711928065321
 30
0.0
  0
SEQEND
  5
1842
  8
TOWNS
  0
POLYLINE
  5
115
  8
TOWNS
 66
     1
 10
0.0
 20
0.0
 30
0.0
 70
     1
  0
VERTEX
  5
1843
  8
TOWNS
 10
654.46853784012671
 20
4672.3597597071384
 30
0.0
  0
VERTEX
  5
1844
  8
TOWNS
 10
654.56114081936732
 20
4672.6276353003532
 30
0.0
  0
VERTEX
  5
1845
  8
TOWNS
 10
654.3498401606555
 20
4672.7216638813807
 30
0.0
  0
VERTEX
  5
1846
  8
TOWNS
 10
654.24984319970929
 20
4672.4984597094262
 30
0.0
  0
SEQEND
  5
1847
  8
TOWNS
  0
POLYLINE
  5
116
  8
TOWNS
 66
     1
 10
0.0
 20
0.0
 30
0.0
 70
     1
  0
VERTEX
  5
1848
  8
TOWNS
 10
653.81289511353555
 20
4674.5043237182881
 30
0.0
  0
VERTEX
  5
1849
  8
TOWNS
 10
653.8815929888267
 20
4674.6962986224453
 30
0.0
  0
VERTEX
  5
184A
  8
TOWNS
 10
653.81015528606645
 20
4674.7172211987609
 30
0.0
  0
VERTEX
  5
184B
  8
TOWNS
 10
653.7713225829965
 20
4674.6056066453102
 30
0.0
  0
VERTEX
  5
184C
  8
TOWNS
 10
653.33368062802083
 20
4674.6567135611858
 30
0.0
  0
VERTEX
  5
184D
  8
TOWNS
 10
653.13099841088513
 20
4674.4693545776809
 30
0.0
  0
VERTEX
  5
184E
  8
TOWNS
 10
653.02493499255581
 20
4674.1464094435778
 30
0.0
  0
VERTEX
  5
184F
  8
TOWNS
 10
653.24820067071653
 20
4674.1014969844873
 30
0.0
  0
VERTEX
  5
1850
  8
TOWNS
 10
653.45840985594737
 20
4674.3632861723599
 30
0.0
  0
VERTEX
  5
1851
  8
TOWNS
 10
653.60004085363835
 20
4674.5402919191492
 30
0.0
  0
SEQEND
  5
1852
  8
TOWNS
  0
POLYLINE
  5
117
  8
TOWNS
 66
     1
 10
0.0
 20
0.0
 30
0.0
 70
     1
  0
VERTEX
  5
1853
  8
TOWNS
 10
652.79658295439151
 20
4673.6360155601587
 30
0.0
  0
VERTEX
  5
1854
  8
TOWNS
 10
652.73710029710094
 20
4673.6971216364891
 30
0.0
  0
VERTEX
  5
1855
  8
TOWNS
 10
652.75959974722366
 20
4673.8474625039007
 30
0.0
  0
VERTEX
  5
1856
  8
TOWNS
 10
652.45155561496517
 20
4673.9654194614941
 30
0.0
  0
VERTEX
  5
1857
  8
TOWNS
 10
652.43214341925488
 20
4673.9133341105689
 30
0.0
  0
VERTEX
  5
1858
  8
TOWNS
 10
652.51541149274385
 20
4673.8209372602332
 30
0.0
  0
VERTEX
  5
1859
  8
TOWNS
 10
652.58830804388651
 20
4673.7732151558184
 30
0.0
  0
VERTEX
  5
185A
  8
TOWNS
 10
652.50486210110114
 20
4673.7063135818726
 30
0.0
  0
VERTEX
  5
185B
  8
TOWNS
 10
652.31537268794466
 20
4673.3343321176708
 30
0.0
  0
VERTEX
  5
185C
  8
TOWNS
 10
652.42991491214104
 20
4673.2508329803304
 30
0.0
  0
VERTEX
  5
185D
  8
TOWNS
 10
652.40598487324326
 20
4673.1526007364637
 30
0.0
  0
VERTEX
  5
185E
  8
TOWNS
 10
652.51015391276349
 20
4673.1122875747224
 30
0.0
  0
SEQEND
  5
185F
  8
TOWNS
  0
POLYLINE
  5
118
  8
TOWNS
 66
     1
 10
0.0
 20
0.0
 30
0.0
 70
     1
  0
VERTEX
  5
1860
  8
TOWNS
 10
652.34462612277207
 20
4672.866824990474
 30
0.0
  0
VERTEX
  5
1861
  8
TOWNS
 10
652.22414544059325
 20
4672.9652184803399
 30
0.0
  0
VERTEX
  5
1862
  8
TOWNS
 10
652.27791737909342
 20
4673.1229682904241
 30
0.0
  0
VERTEX
  5
1863
  8
TOWNS
 10
652.23326590579097
 20
4673.1334395525637
 30
0.0
  0
VERTEX
  5
1864
  8
TOWNS
 10
652.04233426755059
 20
4672.8031453196627
 30
0.0
  0
VERTEX
  5
1865
  8
TOWNS
 10
651.97226398503039
 20
4672.7153860002636
 30
0.0
  0
VERTEX
  5
1866
  8
TOWNS
 10
652.03774161951935
 20
4672.6900037623036
 30
0.0
  0
VERTEX
  5
1867
  8
TOWNS
 10
651.87511490299471
 20
4672.376054418658
 30
0.0
  0
VERTEX
  5
1868
  8
TOWNS
 10
651.72899930871426
 20
4672.1826771853393
 30
0.0
  0
VERTEX
  5
1869
  8
TOWNS
 10
651.75417209311115
 20
4672.0605697594592
 30
0.0
  0
VERTEX
  5
186A
  8
TOWNS
 10
651.90304580048917
 20
4672.0574259858322
 30
0.0
  0
SEQEND
  5
186B
  8
TOWNS
  0
POLYLINE
  5
119
  8
TOWNS
 66
     1
 10
0.0
 20
0.0
 30
0.0
 70
     1
  0
VERTEX
  5
186C
  8
TOWNS
 10
653.68715888311272
 20
4677.8958871308114
 30
0.0
  0
VERTEX
  5
186D
  8
TOWNS
 10
653.91334392036867
 20
4677.7988643858462
 30
0.0
  0
VERTEX
  5
186E
  8
TOWNS
 10
653.95065959351075
 20
4677.885171506181
 30
0.0
  0
VERTEX
  5
186F
  8
TOWNS
 10
653.76612687862803
 20
4677.9523722995027
 30
0.0
  0
VERTEX
  5
1870
  8
TOWNS
 10
653.8067159871282
 20
4678.303677212205
 30
0.0
  0
VERTEX
  5
1871
  8
TOWNS
 10
653.47169611980632
 20
4678.2623656674559
 30
0.0
  0
VERTEX
  5
1872
  8
TOWNS
 10
653.4060256550523
 20
4678.1150505482519
 30
0.0
  0
VERTEX
  5
1873
  8
TOWNS
 10
653.43717346868914
 20
4678.0108017168996
 30
0.0
  0
VERTEX
  5
1874
  8
TOWNS
 10
653.32061219094305
 20
4677.6193847843697
 30
0.0
  0
VERTEX
  5
1875
  8
TOWNS
 10
653.50217733916406
 20
4677.5611199376299
 30
0.0
  0
SEQEND
  5
1876
  8
TOWNS
  0
POLYLINE
  5
11A
  8
TOWNS
 66
     1
 10
0.0
 20
0.0
 30
0.0
 70
     1
  0
VERTEX
  5
1877
  8
TOWNS
 10
653.08339236172151
 20
4677.1670629174241
 30
0.0
  0
VERTEX
  5
1878
  8
TOWNS
 10
652.99412931103382
 20
4677.2237359293904
 30
0.0
  0
VERTEX
  5
1879
  8
TOWNS
 10
652.66164480460645
 20
4676.7864081547596
 30
0.0
  0
VERTEX
  5
187A
  8
TOWNS
 10
652.47349288975215
 20
4676.2789469290756
 30
0.0
  0
VERTEX
  5
187B
  8
TOWNS
 10
652.58508915757545
 20
4676.2237377524789
 30
0.0
  0
VERTEX
  5
187C
  8
TOWNS
 10
652.64483446298573
 20
4676.3978573867698
 30
0.0
  0
VERTEX
  5
187D
  8
TOWNS
 10
652.74901015182525
 20
4676.3634993063106
 30
0.0
  0
VERTEX
  5
187E
  8
TOWNS
 10
652.81916521316896
 20
4676.5271859120503
 30
0.0
  0
VERTEX
  5
187F
  8
TOWNS
 10
652.91290953578653
 20
4676.4839068459751
 30
0.0
  0
VERTEX
  5
1880
  8
TOWNS
 10
652.99046024116615
 20
4676.6044108007727
 30
0.0
  0
VERTEX
  5
1881
  8
TOWNS
 10
652.80593750026253
 20
4676.6805442160139
 30
0.0
  0
VERTEX
  5
1882
  8
TOWNS
 10
653.02944587858474
 20
4676.8529922236976
 30
0.0
  0
VERTEX
  5
1883
  8
TOWNS
 10
653.12170309321175
 20
4676.8112035902759
 30
0.0
  0
VERTEX
  5
1884
  8
TOWNS
 10
653.15607280998074
 20
4676.925800671359
 30
0.0
  0
VERTEX
  5
1885
  8
TOWNS
 10
653.0340917211721
 20
4677.0137744313088
 30
0.0
  0
SEQEND
  5
1886
  8
TOWNS
  0
POLYLINE
  5
11B
  8
TOWNS
 66
     1
 10
0.0
 20
0.0
 30
0.0
 70
     1
  0
VERTEX
  5
1887
  8
TOWNS
 10
652.42614413231229
 20
4675.2070838306281
 30
0.0
  0
VERTEX
  5
1888
  8
TOWNS
 10
652.56900125220363
 20
4675.1488622044653
 30
0.0
  0
VERTEX
  5
1889
  8
TOWNS
 10
652.56151251769506
 20
4675.1086737174628
 30
0.0
  0
VERTEX
  5
188A
  8
TOWNS
 10
652.60614736769855
 20
4675.0833147521216
 30
0.0
  0
VERTEX
  5
188B
  8
TOWNS
 10
652.63151298236085
 20
4675.1339046834073
 30
0.0
  0
VERTEX
  5
188C
  8
TOWNS
 10
652.7966501248319
 20
4675.0295062423629
 30
0.0
  0
VERTEX
  5
188D
  8
TOWNS
 10
652.77003179069106
 20
4675.1903233589019
 30
0.0
  0
VERTEX
  5
188E
  8
TOWNS
 10
652.46201758037034
 20
4675.3350781822619
 30
0.0
  0
SEQEND
  5
188F
  8
TOWNS
  0
POLYLINE
  5
11C
  8
TOWNS
 66
     1
 10
0.0
 20
0.0
 30
0.0
 70
     1
  0
VERTEX
  5
1890
  8
TOWNS
 10
652.23815013879585
 20
4674.8410557853767
 30
0.0
  0
VERTEX
  5
1891
  8
TOWNS
 10
651.9167785538383
 20
4675.0230448277171
 30
0.0
  0
VERTEX
  5
1892
  8
TOWNS
 10
651.7628134994668
 20
4674.4664159478707
 30
0.0
  0
VERTEX
  5
1893
  8
TOWNS
 10
651.82827949764635
 20
4674.4306123176693
 30
0.0
  0
VERTEX
  5
1894
  8
TOWNS
 10
651.88941217125478
 20
4674.5139153000837
 30
0.0
  0
VERTEX
  5
1895
  8
TOWNS
 10
652.03234077133095
 20
4674.5197107976992
 30
0.0
  0
VERTEX
  5
1896
  8
TOWNS
 10
652.09047761866975
 20
4674.5866406312489
 30
0.0
  0
VERTEX
  5
1897
  8
TOWNS
 10
652.22288176205109
 20
4674.5001440053093
 30
0.0
  0
VERTEX
  5
1898
  8
TOWNS
 10
652.28550985529932
 20
4674.5894004066768
 30
0.0
  0
VERTEX
  5
1899
  8
TOWNS
 10
652.18735906559607
 20
4674.6862801912739
 30
0.0
  0
SEQEND
  5
189A
  8
TOWNS
  0
POLYLINE
  5
11D
  8
TOWNS
 66
     1
 10
0.0
 20
0.0
 30
0.0
 70
     1
  0
VERTEX
  5
189B
  8
TOWNS
 10
653.93694155485957
 20
4684.2660643719464
 30
0.0
  0
VERTEX
  5
189C
  8
TOWNS
 10
653.87932335444066
 20
4684.66363087835
 30
0.0
  0
VERTEX
  5
189D
  8
TOWNS
 10
652.28920860083394
 20
4684.5686361758308
 30
0.0
  0
VERTEX
  5
189E
  8
TOWNS
 10
651.74256392047505
 20
4684.3310429996327
 30
0.0
  0
VERTEX
  5
189F
  8
TOWNS
 10
652.00451934133719
 20
4684.269710846439
 30
0.0
  0
VERTEX
  5
18A0
  8
TOWNS
 10
652.31586516856169
 20
4684.4420607766597
 30
0.0
  0
VERTEX
  5
18A1
  8
TOWNS
 10
653.37742656251692
 20
4684.501915118597
 30
0.0
  0
VERTEX
  5
18A2
  8
TOWNS
 10
653.44704635364167
 20
4684.1862176811728
 30
0.0
  0
SEQEND
  5
18A3
  8
TOWNS
  0
POLYLINE
  5
11E
  8
TOWNS
 66
     1
 10
0.0
 20
0.0
 30
0.0
 70
     1
  0
VERTEX
  5
18A4
  8
TOWNS
 10
653.27517751399989
 20
4686.2617580003771
 30
0.0
  0
VERTEX
  5
18A5
  8
TOWNS
 10
652.90622013567599
 20
4686.4929296578439
 30
0.0
  0
VERTEX
  5
18A6
  8
TOWNS
 10
652.04552637188056
 20
4686.3286369789494
 30
0.0
  0
VERTEX
  5
18A7
  8
TOWNS
 10
652.05572999891024
 20
4686.13359643067
 30
0.0
  0
VERTEX
  5
18A8
  8
TOWNS
 10
651.0085343365788
 20
4685.6062515848353
 30
0.0
  0
VERTEX
  5
18A9
  8
TOWNS
 10
650.54492999051649
 20
4685.0723000244079
 30
0.0
  0
VERTEX
  5
18AA
  8
TOWNS
 10
650.65476819057994
 20
4684.7759117182432
 30
0.0
  0
VERTEX
  5
18AB
  8
TOWNS
 10
650.9736060769726
 20
4684.9914276761046
 30
0.0
  0
VERTEX
  5
18AC
  8
TOWNS
 10
650.88447268801485
 20
4685.1642247730624
 30
0.0
  0
VERTEX
  5
18AD
  8
TOWNS
 10
651.09169269629626
 20
4685.4155958933543
 30
0.0
  0
SEQEND
  5
18AE
  8
TOWNS
  0
POLYLINE
  5
11F
  8
TOWNS
 66
     1
 10
0.0
 20
0.0
 30
0.0
 70
     1
  0
VERTEX
  5
18AF
  8
TOWNS
 10
651.84964308444069
 20
4679.6605085048568
 30
0.0
  0
VERTEX
  5
18B0
  8
TOWNS
 10
651.67300218734135
 20
4679.7785109075521
 30
0.0
  0
VERTEX
  5
18B1
  8
TOWNS
 10
651.59236082214295
 20
4679.7259139812613
 30
0.0
  0
VERTEX
  5
18B2
  8
TOWNS
 10
651.77549712184702
 20
4679.5003550721494
 30
0.0
  0
VERTEX
  5
18B3
  8
TOWNS
 10
652.03224441830332
 20
4679.515934867557
 30
0.0
  0
VERTEX
  5
18B4
  8
TOWNS
 10
652.31601678385732
 20
4679.6439205279048
 30
0.0
  0
VERTEX
  5
18B5
  8
TOWNS
 10
652.31188110037635
 20
4679.7445507243337
 30
0.0
  0
SEQEND
  5
18B6
  8
TOWNS
  0
POLYLINE
  5
120
  8
TOWNS
 66
     1
 10
0.0
 20
0.0
 30
0.0
 70
     1
  0
VERTEX
  5
18B7
  8
TOWNS
 10
654.61119848426711
 20
4681.261503219057
 30
0.0
  0
VERTEX
  5
18B8
  8
TOWNS
 10
654.57326720379399
 20
4681.3989336253244
 30
0.0
  0
VERTEX
  5
18B9
  8
TOWNS
 10
654.26186424903005
 20
4681.6005055823698
 30
0.0
  0
VERTEX
  5
18BA
  8
TOWNS
 10
654.05489561759146
 20
4681.5806266790169
 30
0.0
  0
VERTEX
  5
18BB
  8
TOWNS
 10
654.25238893363723
 20
4681.2834296661604
 30
0.0
  0
SEQEND
  5
18BC
  8
TOWNS
  0
POLYLINE
  5
121
  8
TOWNS
 66
     1
 10
0.0
 20
0.0
 30
0.0
 70
     1
  0
VERTEX
  5
18BD
  8
TOWNS
 10
653.68260144246676
 20
4682.067571191481
 30
0.0
  0
VERTEX
  5
18BE
  8
TOWNS
 10
653.99029491347471
 20
4682.2524070318514
 30
0.0
  0
VERTEX
  5
18BF
  8
TOWNS
 10
653.95500141212585
 20
4682.5159660027593
 30
0.0
  0
VERTEX
  5
18C0
  8
TOWNS
 10
653.81516072486295
 20
4682.6677640024463
 30
0.0
  0
VERTEX
  5
18C1
  8
TOWNS
 10
653.4316752471799
 20
4682.3968107640831
 30
0.0
  0
SEQEND
  5
18C2
  8
TOWNS
  0
POLYLINE
  5
122
  8
TOWNS
 66
     1
 10
0.0
 20
0.0
 30
0.0
 70
     1
  0
VERTEX
  5
18C3
  8
TOWNS
 10
650.61736677022805
 20
4672.4929580164662
 30
0.0
  0
VERTEX
  5
18C4
  8
TOWNS
 10
650.70674862161763
 20
4672.4484261131684
 30
0.0
  0
VERTEX
  5
18C5
  8
TOWNS
 10
650.98445355724004
 20
4672.6191800624847
 30
0.0
  0
VERTEX
  5
18C6
  8
TOWNS
 10
651.09248975996638
 20
4672.9033545388947
 30
0.0
  0
VERTEX
  5
18C7
  8
TOWNS
 10
651.06650521483755
 20
4673.1588761215753
 30
0.0
  0
VERTEX
  5
18C8
  8
TOWNS
 10
650.86818829587025
 20
4673.2304560210778
 30
0.0
  0
SEQEND
  5
18C9
  8
TOWNS
  0
POLYLINE
  5
123
  8
TOWNS
 66
     1
 10
0.0
 20
0.0
 30
0.0
 70
     1
  0
VERTEX
  5
18CA
  8
TOWNS
 10
653.2691587575838
 20
4688.7132572687269
 30
0.0
  0
VERTEX
  5
18CB
  8
TOWNS
 10
653.42009726055755
 20
4688.5372056739234
 30
0.0
  0
VERTEX
  5
18CC
  8
TOWNS
 10
653.83366769543022
 20
4688.502419069654
 30
0.0
  0
VERTEX
  5
18CD
  8
TOWNS
 10
654.03550289352938
 20
4688.6348263538703
 30
0.0
  0
VERTEX
  5
18CE
  8
TOWNS
 10
654.3555297471288
 20
4688.7023072246902
 30
0.0
  0
VERTEX
  5
18CF
  8
TOWNS
 10
654.41025646530784
 20
4688.947326490882
 30
0.0
  0
VERTEX
  5
18D0
  8
TOWNS
 10
654.21014033508925
 20
4688.9178524181116
 30
0.0
  0
VERTEX
  5
18D1
  8
TOWNS
 10
654.1725512318111
 20
4688.7671872812207
 30
0.0
  0
VERTEX
  5
18D2
  8
TOWNS
 10
654.04558932563066
 20
4688.7010894980731
 30
0.0
  0
VERTEX
  5
18D3
  8
TOWNS
 10
653.80869464016325
 20
4688.6060801486001
 30
0.0
  0
VERTEX
  5
18D4
  8
TOWNS
 10
653.48219488448365
 20
4688.6070665738707
 30
0.0
  0
SEQEND
  5
18D5
  8
TOWNS
  0
POLYLINE
  5
124
  8
TOWNS
 66
     1
 10
0.0
 20
0.0
 30
0.0
 70
     1
  0
VERTEX
  5
18D6
  8
TOWNS
 10
650.61627157773728
 20
4687.5452447754878
 30
0.0
  0
VERTEX
  5
18D7
  8
TOWNS
 10
650.61974029608689
 20
4687.4995827064422
 30
0.0
  0
VERTEX
  5
18D8
  8
TOWNS
 10
650.68729907232546
 20
4687.4882522572652
 30
0.0
  0
VERTEX
  5
18D9
  8
TOWNS
 10
650.71062570703907
 20
4687.5281071605887
 30
0.0
  0
SEQEND
  5
18DA
  8
TOWNS
  0
POLYLINE
  5
125
  8
TOWNS
 66
     1
 10
0.0
 20
0.0
 30
0.0
 70
     1
  0
VERTEX
  5
18DB
  8
TOWNS
 10
649.499274190459
 20
4694.3253644140141
 30
0.0
  0
VERTEX
  5
18DC
  8
TOWNS
 10
649.4688499925245
 20
4694.7375037031843
 30
0.0
  0
VERTEX
  5
18DD
  8
TOWNS
 10
649.31341643666246
 20
4694.7371065769285
 30
0.0
  0
VERTEX
  5
18DE
  8
TOWNS
 10
649.26331688055052
 20
4694.6782074372422
 30
0.0
  0
VERTEX
  5
18DF
  8
TOWNS
 10
649.19081983386195
 20
4694.6175411058221
 30
0.0
  0
VERTEX
  5
18E0
  8
TOWNS
 10
649.14261478230594
 20
4694.5257838257703
 30
0.0
  0
VERTEX
  5
18E1
  8
TOWNS
 10
649.18157175014221
 20
4694.272175974821
 30
0.0
  0
SEQEND
  5
18E2
  8
TOWNS
  0
POLYLINE
  5
126
  8
TOWNS
 66
     1
 10
0.0
 20
0.0
 30
0.0
 70
     1
  0
VERTEX
  5
18E3
  8
TOWNS
 10
651.00354337930867
 20
4694.8817282980808
 30
0.0
  0
VERTEX
  5
18E4
  8
TOWNS
 10
650.99979074528881
 20
4694.944455821731
 30
0.0
  0
VERTEX
  5
18E5
  8
TOWNS
 10
651.09089327368167
 20
4694.950048397669
 30
0.0
  0
VERTEX
  5
18E6
  8
TOWNS
 10
651.07912312057044
 20
4695.0575163398316
 30
0.0
  0
VERTEX
  5
18E7
  8
TOWNS
 10
650.79748882801675
 20
4695.1108834657398
 30
0.0
  0
VERTEX
  5
18E8
  8
TOWNS
 10
650.7395718158208
 20
4695.0802865806099
 30
0.0
  0
VERTEX
  5
18E9
  8
TOWNS
 10
650.76413362438552
 20
4694.904222725906
 30
0.0
  0
VERTEX
  5
18EA
  8
TOWNS
 10
650.82279632597238
 20
4694.8735500908333
 30
0.0
  0
SEQEND
  5
18EB
  8
TOWNS
  0
POLYLINE
  5
127
  8
TOWNS
 66
     1
 10
0.0
 20
0.0
 30
0.0
 70
     1
  0
VERTEX
  5
18EC
  8
TOWNS
 10
652.71031754819785
 20
4695.37778360213
 30
0.0
  0
VERTEX
  5
18ED
  8
TOWNS
 10
652.93425307910923
 20
4695.2758870485968
 30
0.0
  0
VERTEX
  5
18EE
  8
TOWNS
 10
652.97147304179714
 20
4695.5334112214814
 30
0.0
  0
VERTEX
  5
18EF
  8
TOWNS
 10
653.00069067318009
 20
4695.7116242063857
 30
0.0
  0
VERTEX
  5
18F0
  8
TOWNS
 10
652.88892447061164
 20
4695.807412933169
 30
0.0
  0
VERTEX
  5
18F1
  8
TOWNS
 10
652.65924786363371
 20
4695.8898098154787
 30
0.0
  0
VERTEX
  5
18F2
  8
TOWNS
 10
652.63947237945843
 20
4695.7954093417202
 30
0.0
  0
VERTEX
  5
18F3
  8
TOWNS
 10
652.44463935513409
 20
4695.8393706955112
 30
0.0
  0
VERTEX
  5
18F4
  8
TOWNS
 10
652.43211751311264
 20
4695.7629937019792
 30
0.0
  0
VERTEX
  5
18F5
  8
TOWNS
 10
652.59724484206845
 20
4695.7037248118522
 30
0.0
  0
VERTEX
  5
18F6
  8
TOWNS
 10
652.60505929839235
 20
4695.5528653293441
 30
0.0
  0
SEQEND
  5
18F7
  8
TOWNS
  0
POLYLINE
  5
128
  8
TOWNS
 66
     1
 10
0.0
 20
0.0
 30
0.0
 70
     1
  0
VERTEX
  5
18F8
  8
TOWNS
 10
654.31898417266643
 20
4695.5841870945342
 30
0.0
  0
VERTEX
  5
18F9
  8
TOWNS
 10
654.27656257178808
 20
4695.7540551845204
 30
0.0
  0
VERTEX
  5
18FA
  8
TOWNS
 10
654.36868660252355
 20
4695.7985197900816
 30
0.0
  0
VERTEX
  5
18FB
  8
TOWNS
 10
654.23509272282763
 20
4696.0913300462453
 30
0.0
  0
VERTEX
  5
18FC
  8
TOWNS
 10
654.58357692349398
 20
4696.1942149157758
 30
0.0
  0
VERTEX
  5
18FD
  8
TOWNS
 10
654.65707128545932
 20
4696.0501331994647
 30
0.0
  0
VERTEX
  5
18FE
  8
TOWNS
 10
654.60407390999467
 20
4695.983725791978
 30
0.0
  0
VERTEX
  5
18FF
  8
TOWNS
 10
654.58854212358472
 20
4695.7862495739482
 30
0.0
  0
SEQEND
  5
1900
  8
TOWNS
  0
POLYLINE
  5
129
  8
TOWNS
 66
     1
 10
0.0
 20
0.0
 30
0.0
 70
     1
  0
VERTEX
  5
1901
  8
TOWNS
 10
654.19878232643396
 20
4695.022249200053
 30
0.0
  0
VERTEX
  5
1902
  8
TOWNS
 10
654.16625456165707
 20
4695.1160131096967
 30
0.0
  0
VERTEX
  5
1903
  8
TOWNS
 10
654.28248871206358
 20
4695.1443305520424
 30
0.0
  0
VERTEX
  5
1904
  8
TOWNS
 10
654.27594738396795
 20
4695.1905835366451
 30
0.0
  0
VERTEX
  5
1905
  8
TOWNS
 10
654.44705522684922
 20
4695.2539446246501
 30
0.0
  0
VERTEX
  5
1906
  8
TOWNS
 10
654.36337602804463
 20
4695.4980405779652
 30
0.0
  0
VERTEX
  5
1907
  8
TOWNS
 10
654.11252949535935
 20
4695.8462185901071
 30
0.0
  0
VERTEX
  5
1908
  8
TOWNS
 10
653.79920106539043
 20
4695.8020509848011
 30
0.0
  0
VERTEX
  5
1909
  8
TOWNS
 10
653.76585205026652
 20
4695.1036669546311
 30
0.0
  0
SEQEND
  5
190A
  8
TOWNS
  0
POLYLINE
  5
12A
  8
TOWNS
 66
     1
 10
0.0
 20
0.0
 30
0.0
 70
     1
  0
VERTEX
  5
190B
  8
TOWNS
 10
653.8227649917136
 20
4698.0412484165317
 30
0.0
  0
VERTEX
  5
190C
  8
TOWNS
 10
654.31316059118365
 20
4698.1503442385692
 30
0.0
  0
VERTEX
  5
190D
  8
TOWNS
 10
654.27614350227452
 20
4698.735776875913
 30
0.0
  0
VERTEX
  5
190E
  8
TOWNS
 10
654.06226549537951
 20
4698.748119842232
 30
0.0
  0
VERTEX
  5
190F
  8
TOWNS
 10
654.01785545245502
 20
4698.8357607373428
 30
0.0
  0
VERTEX
  5
1910
  8
TOWNS
 10
653.80384713297724
 20
4698.7360071255043
 30
0.0
  0
VERTEX
  5
1911
  8
TOWNS
 10
653.77879744941515
 20
4698.338138682544
 30
0.0
  0
SEQEND
  5
1912
  8
TOWNS
  0
POLYLINE
  5
12B
  8
TOWNS
 66
     1
 10
0.0
 20
0.0
 30
0.0
 70
     1
  0
VERTEX
  5
1913
  8
TOWNS
 10
653.8686845778883
 20
4702.0
 30
0.0
  0
VERTEX
  5
1914
  8
TOWNS
 10
653.88190562407772
 20
4701.9010251264481
 30
0.0
  0
VERTEX
  5
1915
  8
TOWNS
 10
653.87244528932399
 20
4701.8187069938449
 30
0.0
  0
VERTEX
  5
1916
  8
TOWNS
 10
653.65904015862782
 20
4701.7921961180873
 30
0.0
  0
VERTEX
  5
1917
  8
TOWNS
 10
653.42496835399652
 20
4701.7445093171
 30
0.0
  0
VERTEX
  5
1918
  8
TOWNS
 10
653.33107713152765
 20
4701.7224422021136
 30
0.0
  0
VERTEX
  5
1919
  8
TOWNS
 10
653.30534832025205
 20
4701.8715890555241
 30
0.0
  0
VERTEX
  5
191A
  8
TOWNS
 10
653.25230789169473
 20
4702.0
 30
0.0
  0
SEQEND
  5
191B
  8
TOWNS
  0
POLYLINE
  5
12C
  8
TOWNS
 66
     1
 10
0.0
 20
0.0
 30
0.0
 70
     1
  0
VERTEX
  5
191C
  8
TOWNS
 10
654.68687524099551
 20
4691.1452190753498
 30
0.0
  0
VERTEX
  5
191D
  8
TOWNS
 10
654.88263882993135
 20
4691.147601643891
 30
0.0
  0
VERTEX
  5
191E
  8
TOWNS
 10
654.93994965358615
 20
4690.9823985649919
 30
0.0
  0
VERTEX
  5
191F
  8
TOWNS
 10
654.6881635570104
 20
4690.9165609709553
 30
0.0
  0
SEQEND
  5
1920
  8
TOWNS
  0
POLYLINE
  5
12D
  8
TOWNS
 66
     1
 10
0.0
 20
0.0
 30
0.0
 70
     1
  0
VERTEX
  5
1921
  8
TOWNS
 10
652.69539008449851
 20
4690.83252364277
 30
0.0
  0
VERTEX
  5
1922
  8
TOWNS
 10
653.16137856403998
 20
4690.7365622287916
 30
0.0
  0
VERTEX
  5
1923
  8
TOWNS
 10
653.19436701698953
 20
4690.8505533115058
 30
0.0
  0
VERTEX
  5
1924
  8
TOWNS
 10
653.62379928478265
 20
4690.8109417809983
 30
0.0
  0
VERTEX
  5
1925
  8
TOWNS
 10
653.57715836219279
 20
4690.590667946376
 30
0.0
  0
VERTEX
  5
1926
  8
TOWNS
 10
653.65933099442896
 20
4690.5931626399552
 30
0.0
  0
VERTEX
  5
1927
  8
TOWNS
 10
653.65183791441575
 20
4690.4720088528156
 30
0.0
  0
VERTEX
  5
1928
  8
TOWNS
 10
653.54974429763524
 20
4690.3870687138096
 30
0.0
  0
VERTEX
  5
1929
  8
TOWNS
 10
653.1028705510895
 20
4690.3861137731446
 30
0.0
  0
VERTEX
  5
192A
  8
TOWNS
 10
652.92943470230466
 20
4690.5140331384519
 30
0.0
  0
VERTEX
  5
192B
  8
TOWNS
 10
652.93741584630368
 20
4690.4722814770203
 30
0.0
  0
VERTEX
  5
192C
  8
TOWNS
 10
652.72341052658555
 20
4690.49508509313
 30
0.0
  0
SEQEND
  5
192D
  8
TOWNS
  0
POLYLINE
  5
12E
  8
TOWNS
 66
     1
 10
0.0
 20
0.0
 30
0.0
 70
     1
  0
VERTEX
  5
192E
  8
TOWNS
 10
651.35159521255719
 20
4690.7220090031478
 30
0.0
  0
VERTEX
  5
192F
  8
TOWNS
 10
651.64217758881375
 20
4690.6702453810603
 30
0.0
  0
VERTEX
  5
1930
  8
TOWNS
 10
651.67497516702315
 20
4690.4315085653443
 30
0.0
  0
VERTEX
  5
1931
  8
TOWNS
 10
651.48349465070407
 20
4690.4456187233973
 30
0.0
  0
VERTEX
  5
1932
  8
TOWNS
 10
651.40993972658111
 20
4690.3490691194338
 30
0.0
  0
VERTEX
  5
1933
  8
TOWNS
 10
651.24184182808847
 20
4690.4068072559303
 30
0.0
  0
SEQEND
  5
1934
  8
TOWNS
  0
POLYLINE
  5
12F
  8
TOWNS
 66
     1
 10
0.0
 20
0.0
 30
0.0
 70
     1
  0
VERTEX
  5
1935
  8
TOWNS
 10
650.52744394704189
 20
4690.6506999574895
 30
0.0
  0
VERTEX
  5
1936
  8
TOWNS
 10
651.01488416476161
 20
4690.6342134194019
 30
0.0
  0
VERTEX
  5
1937
  8
TOWNS
 10
650.99605143322469
 20
4690.339548033533
 30
0.0
  0
VERTEX
  5
1938
  8
TOWNS
 10
650.61163239713778
 20
4690.3647614050133
 30
0.0
  0
SEQEND
  5
1939
  8
TOWNS
  0
POLYLINE
  5
130
  8
TOWNS
 66
     1
 10
0.0
 20
0.0
 30
0.0
 70
     1
  0
VERTEX
  5
193A
  8
TOWNS
 10
650.51838147044441
 20
4699.3775584517862
 30
0.0
  0
VERTEX
  5
193B
  8
TOWNS
 10
650.46897304108472
 20
4699.2618729275218
 30
0.0
  0
VERTEX
  5
193C
  8
TOWNS
 10
650.34625212522064
 20
4699.2753253341552
 30
0.0
  0
VERTEX
  5
193D
  8
TOWNS
 10
650.38775216076613
 20
4699.426785005684
 30
0.0
  0
SEQEND
  5
193E
  8
TOWNS
  0
POLYLINE
  5
131
  8
TOWNS
 66
     1
 10
0.0
 20
0.0
 30
0.0
 70
     1
  0
VERTEX
  5
193F
  8
TOWNS
 10
650.63685568878316
 20
4699.344624561475
 30
0.0
  0
VERTEX
  5
1940
  8
TOWNS
 10
650.5485934173447
 20
4699.228466161012
 30
0.0
  0
VERTEX
  5
1941
  8
TOWNS
 10
650.54481659625935
 20
4699.0475736073049
 30
0.0
  0
VERTEX
  5
1942
  8
TOWNS
 10
650.70090190402175
 20
4698.8716158781172
 30
0.0
  0
VERTEX
  5
1943
  8
TOWNS
 10
650.82763007955145
 20
4698.7745146482539
 30
0.0
  0
VERTEX
  5
1944
  8
TOWNS
 10
651.0306533101608
 20
4699.0400351529206
 30
0.0
  0
VERTEX
  5
1945
  8
TOWNS
 10
650.72861296883661
 20
4699.2964195099185
 30
0.0
  0
SEQEND
  5
1946
  8
TOWNS
  0
POLYLINE
  5
132
  8
TOWNS
 66
     1
 10
0.0
 20
0.0
 30
0.0
 70
     1
  0
VERTEX
  5
1947
  8
TOWNS
 10
650.29316362303723
 20
4699.9532275656111
 30
0.0
  0
VERTEX
  5
1948
  8
TOWNS
 10
650.29172080737465
 20
4699.8261690144918
 30
0.0
  0
VERTEX
  5
1949
  8
TOWNS
 10
650.56893871496925
 20
4699.5216553558839
 30
0.0
  0
VERTEX
  5
194A
  8
TOWNS
 10
650.5755346057033
 20
4699.4709192356577
 30
0.0
  0
VERTEX
  5
194B
  8
TOWNS
 10
651.13655712335958
 20
4699.1803218606019
 30
0.0
  0
VERTEX
  5
194C
  8
TOWNS
 10
651.25182733382155
 20
4699.2878413656454
 30
0.0
  0
VERTEX
  5
194D
  8
TOWNS
 10
651.45141630696207
 20
4699.221518896371
 30
0.0
  0
VERTEX
  5
194E
  8
TOWNS
 10
651.47899405943485
 20
4699.411668722063
 30
0.0
  0
VERTEX
  5
194F
  8
TOWNS
 10
651.06153800727952
 20
4699.5724886023481
 30
0.0
  0
VERTEX
  5
1950
  8
TOWNS
 10
651.03534850783115
 20
4699.513880463398
 30
0.0
  0
VERTEX
  5
1951
  8
TOWNS
 10
650.88667753037839
 20
4699.5718550379934
 30
0.0
  0
VERTEX
  5
1952
  8
TOWNS
 10
650.90047550038776
 20
4699.666182761569
 30
0.0
  0
VERTEX
  5
1953
  8
TOWNS
 10
650.82393481894121
 20
4699.692154010464
 30
0.0
  0
VERTEX
  5
1954
  8
TOWNS
 10
650.79609025279603
 20
4699.7695343187897
 30
0.0
  0
VERTEX
  5
1955
  8
TOWNS
 10
650.82477744558207
 20
4699.8685270534525
 30
0.0
  0
VERTEX
  5
1956
  8
TOWNS
 10
650.66382406396667
 20
4699.9532549414262
 30
0.0
  0
VERTEX
  5
1957
  8
TOWNS
 10
650.41555716307107
 20
4699.9666739727254
 30
0.0
  0
VERTEX
  5
1958
  8
TOWNS
 10
650.29939576284892
 20
4699.9323790162152
 30
0.0
  0
SEQEND
  5
1959
  8
TOWNS
  0
POLYLINE
  5
133
  8
TOWNS
 66
     1
 10
0.0
 20
0.0
 30
0.0
 70
     1
  0
VERTEX
  5
195A
  8
TOWNS
 10
648.88177053180925
 20
4698.151497730335
 30
0.0
  0
VERTEX
  5
195B
  8
TOWNS
 10
648.84288331439791
 20
4698.276570839168
 30
0.0
  0
VERTEX
  5
195C
  8
TOWNS
 10
648.64883235455659
 20
4698.2562739156729
 30
0.0
  0
VERTEX
  5
195D
  8
TOWNS
 10
648.64343984162633
 20
4698.3309382801099
 30
0.0
  0
VERTEX
  5
195E
  8
TOWNS
 10
648.80942798476872
 20
4698.4465480544286
 30
0.0
  0
VERTEX
  5
195F
  8
TOWNS
 10
648.8898334252716
 20
4698.4714402385844
 30
0.0
  0
VERTEX
  5
1960
  8
TOWNS
 10
648.93699578717963
 20
4698.4032626396047
 30
0.0
  0
VERTEX
  5
1961
  8
TOWNS
 10
649.04453647952903
 20
4698.409055278551
 30
0.0
  0
VERTEX
  5
1962
  8
TOWNS
 10
649.08008937648128
 20
4698.3123389869143
 30
0.0
  0
VERTEX
  5
1963
  8
TOWNS
 10
648.9296845826276
 20
4698.2671650670509
 30
0.0
  0
SEQEND
  5
1964
  8
TOWNS
  0
POLYLINE
  5
134
  8
TOWNS
 66
     1
 10
0.0
 20
0.0
 30
0.0
 70
     1
  0
VERTEX
  5
1965
  8
TOWNS
 10
648.93527678058899
 20
4699.6497380311266
 30
0.0
  0
VERTEX
  5
1966
  8
TOWNS
 10
648.97298480726238
 20
4699.744356755441
 30
0.0
  0
VERTEX
  5
1967
  8
TOWNS
 10
649.62061152990032
 20
4699.5833490001769
 30
0.0
  0
VERTEX
  5
1968
  8
TOWNS
 10
649.59788366373425
 20
4699.4859233942407
 30
0.0
  0
VERTEX
  5
1969
  8
TOWNS
 10
649.27650133958196
 20
4699.4894849645334
 30
0.0
  0
VERTEX
  5
196A
  8
TOWNS
 10
649.24591964223976
 20
4699.423350370238
 30
0.0
  0
VERTEX
  5
196B
  8
TOWNS
 10
649.12008265647
 20
4699.4472270515698
 30
0.0
  0
VERTEX
  5
196C
  8
TOWNS
 10
649.13218618493045
 20
4699.557974751554
 30
0.0
  0
VERTEX
  5
196D
  8
TOWNS
 10
648.96394278606931
 20
4699.627667916383
 30
0.0
  0
SEQEND
  5
196E
  8
TOWNS
  0
POLYLINE
  5
135
  8
TOWNS
 66
     1
 10
0.0
 20
0.0
 30
0.0
 70
     1
  0
VERTEX
  5
196F
  8
TOWNS
 10
649.94330969108591
 20
4692.3234988239556
 30
0.0
  0
VERTEX
  5
1970
  8
TOWNS
 10
649.68935203968499
 20
4692.3567942221352
 30
0.0
  0
VERTEX
  5
1971
  8
TOWNS
 10
649.4771609317454
 20
4692.376320252085
 30
0.0
  0
VERTEX
  5
1972
  8
TOWNS
 10
649.36399049388922
 20
4692.4399678545878
 30
0.0
  0
VERTEX
  5
1973
  8
TOWNS
 10
649.33036908662496
 20
4692.5433962225416
 30
0.0
  0
VERTEX
  5
1974
  8
TOWNS
 10
649.16935078635117
 20
4692.6074005758137
 30
0.0
  0
VERTEX
  5
1975
  8
TOWNS
 10
649.02457951647557
 20
4692.6443678734004
 30
0.0
  0
VERTEX
  5
1976
  8
TOWNS
 10
648.97602930097855
 20
4692.5505241450373
 30
0.0
  0
VERTEX
  5
1977
  8
TOWNS
 10
648.92235653422085
 20
4692.5718589294602
 30
0.0
  0
VERTEX
  5
1978
  8
TOWNS
 10
648.89310937944254
 20
4692.6603013950235
 30
0.0
  0
VERTEX
  5
1979
  8
TOWNS
 10
648.74993369142135
 20
4692.7107147554516
 30
0.0
  0
VERTEX
  5
197A
  8
TOWNS
 10
648.65326669857927
 20
4692.7817159533806
 30
0.0
  0
VERTEX
  5
197B
  8
TOWNS
 10
648.60297461937705
 20
4692.8553620404
 30
0.0
  0
VERTEX
  5
197C
  8
TOWNS
 10
648.66233715708665
 20
4692.9954803462542
 30
0.0
  0
VERTEX
  5
197D
  8
TOWNS
 10
648.7662226119653
 20
4693.0904068272403
 30
0.0
  0
VERTEX
  5
197E
  8
TOWNS
 10
648.89632013637492
 20
4693.0909321567824
 30
0.0
  0
VERTEX
  5
197F
  8
TOWNS
 10
649.02621698847599
 20
4693.0645430637169
 30
0.0
  0
VERTEX
  5
1980
  8
TOWNS
 10
649.22973763067489
 20
4693.0854555584519
 30
0.0
  0
VERTEX
  5
1981
  8
TOWNS
 10
649.34250672391431
 20
4692.9679791107283
 30
0.0
  0
VERTEX
  5
1982
  8
TOWNS
 10
649.2788145275656
 20
4692.8488276900689
 30
0.0
  0
VERTEX
  5
1983
  8
TOWNS
 10
649.34102397852541
 20
4692.7691114325562
 30
0.0
  0
VERTEX
  5
1984
  8
TOWNS
 10
649.46631246044785
 20
4692.7263080821695
 30
0.0
  0
VERTEX
  5
1985
  8
TOWNS
 10
649.59204688083332
 20
4692.7433145598043
 30
0.0
  0
VERTEX
  5
1986
  8
TOWNS
 10
649.80692747171145
 20
4692.6833945990138
 30
0.0
  0
VERTEX
  5
1987
  8
TOWNS
 10
649.98084556021138
 20
4692.5445276245609
 30
0.0
  0
SEQEND
  5
1988
  8
TOWNS
  0
POLYLINE
  5
136
  8
TOWNS
 66
     1
 10
0.0
 20
0.0
 30
0.0
 70
     1
  0
VERTEX
  5
1989
  8
TOWNS
 10
649.10423699432158
 20
4691.4953614161432
 30
0.0
  0
VERTEX
  5
198A
  8
TOWNS
 10
649.40198041257838
 20
4691.5185620492002
 30
0.0
  0
VERTEX
  5
198B
  8
TOWNS
 10
649.3653448651396
 20
4691.8193962950118
 30
0.0
  0
VERTEX
  5
198C
  8
TOWNS
 10
649.07662866339444
 20
4691.8036049996863
 30
0.0
  0
VERTEX
  5
198D
  8
TOWNS
 10
649.05432396281321
 20
4691.6198458569806
 30
0.0
  0
SEQEND
  5
198E
  8
TOWNS
  0
POLYLINE
  5
137
  8
TOWNS
 66
     1
 10
0.0
 20
0.0
 30
0.0
 70
     1
  0
VERTEX
  5
198F
  8
TOWNS
 10
649.27089067508905
 20
4691.3849598523093
 30
0.0
  0
VERTEX
  5
1990
  8
TOWNS
 10
649.23542977166551
 20
4691.2416726796691
 30
0.0
  0
VERTEX
  5
1991
  8
TOWNS
 10
649.33922739070158
 20
4691.1242631227151
 30
0.0
  0
VERTEX
  5
1992
  8
TOWNS
 10
649.47790619315958
 20
4691.0723879619718
 30
0.0
  0
VERTEX
  5
1993
  8
TOWNS
 10
649.51139246703485
 20
4691.151390717946
 30
0.0
  0
VERTEX
  5
1994
  8
TOWNS
 10
649.69475026512441
 20
4691.0752571721459
 30
0.0
  0
VERTEX
  5
1995
  8
TOWNS
 10
649.71618673755268
 20
4690.9420130778717
 30
0.0
  0
VERTEX
  5
1996
  8
TOWNS
 10
649.73936372183653
 20
4690.8416532405508
 30
0.0
  0
VERTEX
  5
1997
  8
TOWNS
 10
649.77879888497955
 20
4690.7157515932422
 30
0.0
  0
VERTEX
  5
1998
  8
TOWNS
 10
649.89967966903134
 20
4690.6834484081428
 30
0.0
  0
VERTEX
  5
1999
  8
TOWNS
 10
650.04226313673905
 20
4690.7541610979188
 30
0.0
  0
VERTEX
  5
199A
  8
TOWNS
 10
650.16069970400667
 20
4690.7951472490722
 30
0.0
  0
VERTEX
  5
199B
  8
TOWNS
 10
650.21698256262232
 20
4690.9233258862423
 30
0.0
  0
VERTEX
  5
199C
  8
TOWNS
 10
650.13382852339305
 20
4691.0017029765168
 30
0.0
  0
VERTEX
  5
199D
  8
TOWNS
 10
650.10320875599132
 20
4691.106604293248
 30
0.0
  0
VERTEX
  5
199E
  8
TOWNS
 10
650.00929813685752
 20
4691.1461830345443
 30
0.0
  0
VERTEX
  5
199F
  8
TOWNS
 10
649.77356214540225
 20
4691.2167257936962
 30
0.0
  0
VERTEX
  5
19A0
  8
TOWNS
 10
649.53029418313679
 20
4691.2798480666552
 30
0.0
  0
VERTEX
  5
19A1
  8
TOWNS
 10
649.55093641109352
 20
4691.441189672315
 30
0.0
  0
VERTEX
  5
19A2
  8
TOWNS
 10
649.35810545802997
 20
4691.4501040523601
 30
0.0
  0
VERTEX
  5
19A3
  8
TOWNS
 10
649.28399113562375
 20
4691.3370116537344
 30
0.0
  0
SEQEND
  5
19A4
  8
TOWNS
  0
POLYLINE
  5
138
  8
TOWNS
 66
     1
 10
0.0
 20
0.0
 30
0.0
 70
     1
  0
VERTEX
  5
19A5
  8
TOWNS
 10
650.27121397254734
 20
4689.3628117587887
 30
0.0
  0
VERTEX
  5
19A6
  8
TOWNS
 10
650.28722265271142
 20
4689.1176111038376
 30
0.0
  0
VERTEX
  5
19A7
  8
TOWNS
 10
650.42189476876729
 20
4689.1256528584199
 30
0.0
  0
VERTEX
  5
19A8
  8
TOWNS
 10
650.53192707323444
 20
4689.2937298220168
 30
0.0
  0
VERTEX
  5
19A9
  8
TOWNS
 10
650.53296542408214
 20
4689.3687059210433
 30
0.0
  0
SEQEND
  5
19AA
  8
TOWNS
  0
POLYLINE
  5
139
  8
TOWNS
 66
     1
 10
0.0
 20
0.0
 30
0.0
 70
     1
  0
VERTEX
  5
19AB
  8
TOWNS
 10
651.98024356840085
 20
4690.2144126563417
 30
0.0
  0
VERTEX
  5
19AC
  8
TOWNS
 10
651.94383788100276
 20
4690.0707076952767
 30
0.0
  0
VERTEX
  5
19AD
  8
TOWNS
 10
652.02820127820019
 20
4689.9108575895807
 30
0.0
  0
VERTEX
  5
19AE
  8
TOWNS
 10
652.13757725356174
 20
4689.8806991391721
 30
0.0
  0
VERTEX
  5
19AF
  8
TOWNS
 10
652.34100580023471
 20
4689.8444785550928
 30
0.0
  0
VERTEX
  5
19B0
  8
TOWNS
 10
652.44863058005535
 20
4689.9693433459806
 30
0.0
  0
VERTEX
  5
19B1
  8
TOWNS
 10
652.34643385658069
 20
4690.1431161749779
 30
0.0
  0
SEQEND
  5
19B2
  8
TOWNS
  0
POLYLINE
  5
13A
  8
TOWNS
 66
     1
 10
0.0
 20
0.0
 30
0.0
 70
     1
  0
VERTEX
  5
19B3
  8
TOWNS
 10
654.91080034463118
 20
4664.9807417006587
 30
0.0
  0
VERTEX
  5
19B4
  8
TOWNS
 10
655.34305739650495
 20
4664.8657440903662
 30
0.0
  0
VERTEX
  5
19B5
  8
TOWNS
 10
655.30280937231635
 20
4664.6888350794179
 30
0.0
  0
VERTEX
  5
19B6
  8
TOWNS
 10
654.82211889692087
 20
4664.8264038351199
 30
0.0
  0
SEQEND
  5
19B7
  8
TOWNS
  0
POLYLINE
  5
13B
  8
TOWNS
 66
     1
 10
0.0
 20
0.0
 30
0.0
 70
     1
  0
VERTEX
  5
19B8
  8
TOWNS
 10
655.08175349912869
 20
4661.5312591069223
 30
0.0
  0
VERTEX
  5
19B9
  8
TOWNS
 10
655.17451297386322
 20
4661.7388757000617
 30
0.0
  0
VERTEX
  5
19BA
  8
TOWNS
 10
655.53658169641255
 20
4661.4646949201506
 30
0.0
  0
VERTEX
  5
19BB
  8
TOWNS
 10
655.37581495638767
 20
4661.291462346554
 30
0.0
  0
SEQEND
  5
19BC
  8
TOWNS
  0
POLYLINE
  5
13C
  8
TOWNS
 66
     1
 10
0.0
 20
0.0
 30
0.0
 70
     1
  0
VERTEX
  5
19BD
  8
TOWNS
 10
655.58852735855555
 20
4676.7474095265407
 30
0.0
  0
VERTEX
  5
19BE
  8
TOWNS
 10
655.52901644165729
 20
4676.7832065074263
 30
0.0
  0
VERTEX
  5
19BF
  8
TOWNS
 10
655.49929422980563
 20
4676.8308804042736
 30
0.0
  0
VERTEX
  5
19C0
  8
TOWNS
 10
655.45476909357365
 20
4676.9544982107636
 30
0.0
  0
VERTEX
  5
19C1
  8
TOWNS
 10
655.33868490450095
 20
4676.9903583601808
 30
0.0
  0
VERTEX
  5
19C2
  8
TOWNS
 10
655.41331126379555
 20
4677.1585062898921
 30
0.0
  0
VERTEX
  5
19C3
  8
TOWNS
 10
655.35081615693707
 20
4677.1883515141526
 30
0.0
  0
VERTEX
  5
19C4
  8
TOWNS
 10
655.30005001868562
 20
4677.0559074748562
 30
0.0
  0
VERTEX
  5
19C5
  8
TOWNS
 10
655.10800197201627
 20
4677.0590994560498
 30
0.0
  0
VERTEX
  5
19C6
  8
TOWNS
 10
655.02427842014208
 20
4676.743573238602
 30
0.0
  0
VERTEX
  5
19C7
  8
TOWNS
 10
655.12846906995026
 20
4676.7226140910252
 30
0.0
  0
VERTEX
  5
19C8
  8
TOWNS
 10
655.18070569289387
 20
4676.8386799944701
 30
0.0
  0
VERTEX
  5
19C9
  8
TOWNS
 10
655.31759609519452
 20
4676.7700436253836
 30
0.0
  0
VERTEX
  5
19CA
  8
TOWNS
 10
655.30254382133319
 20
4676.6226719869637
 30
0.0
  0
VERTEX
  5
19CB
  8
TOWNS
 10
655.40371703458402
 20
4676.5659856763596
 30
0.0
  0
SEQEND
  5
19CC
  8
TOWNS
  0
POLYLINE
  5
13D
  8
TOWNS
 66
     1
 10
0.0
 20
0.0
 30
0.0
 70
     1
  0
VERTEX
  5
19CD
  8
TOWNS
 10
655.5135502476578
 20
4676.265131059231
 30
0.0
  0
VERTEX
  5
19CE
  8
TOWNS
 10
655.19504482723949
 20
4676.3473691654463
 30
0.0
  0
VERTEX
  5
19CF
  8
TOWNS
 10
655.02827096708961
 20
4676.3192687103046
 30
0.0
  0
VERTEX
  5
19D0
  8
TOWNS
 10
654.89696328417881
 20
4676.0544138783061
 30
0.0
  0
VERTEX
  5
19D1
  8
TOWNS
 10
654.76003963528046
 20
4676.0932748409841
 30
0.0
  0
VERTEX
  5
19D2
  8
TOWNS
 10
654.64073354307595
 20
4675.9102890779659
 30
0.0
  0
VERTEX
  5
19D3
  8
TOWNS
 10
654.51424458505937
 20
4675.9610485668991
 30
0.0
  0
VERTEX
  5
19D4
  8
TOWNS
 10
654.41885689544335
 20
4675.8658736555062
 30
0.0
  0
VERTEX
  5
19D5
  8
TOWNS
 10
654.51846985818895
 20
4675.7451718834554
 30
0.0
  0
VERTEX
  5
19D6
  8
TOWNS
 10
654.42597991737955
 20
4675.5785326720243
 30
0.0
  0
VERTEX
  5
19D7
  8
TOWNS
 10
654.720402364552
 20
4675.261095452468
 30
0.0
  0
VERTEX
  5
19D8
  8
TOWNS
 10
655.19480711406766
 20
4676.1344750096314
 30
0.0
  0
VERTEX
  5
19D9
  8
TOWNS
 10
655.38532150751007
 20
4676.0910878921177
 30
0.0
  0
SEQEND
  5
19DA
  8
TOWNS
  0
POLYLINE
  5
13E
  8
TOWNS
 66
     1
 10
0.0
 20
0.0
 30
0.0
 70
     1
  0
VERTEX
  5
19DB
  8
TOWNS
 10
655.0
 20
4680.5
 30
0.0
  0
VERTEX
  5
19DC
  8
TOWNS
 10
655.0
 20
4680.3500000000004
 30
0.0
  0
VERTEX
  5
19DD
  8
TOWNS
 10
655.10000000000002
 20
4680.1000000000004
 30
0.0
  0
VERTEX
  5
19DE
  8
TOWNS
 10
655.70000000000016
 20
4680.1000000000004
 30
0.0
  0
VERTEX
  5
19DF
  8
TOWNS
 10
655.75
 20
4680.3500000000004
 30
0.0
  0
VERTEX
  5
19E0
  8
TOWNS
 10
655.4000000000002
 20
4680.3500000000004
 30
0.0
  0
SEQEND
  5
19E1
  8
TOWNS
  0
POLYLINE
  5
13F
  8
TOWNS
 66
     1
 10
0.0
 20
0.0
 30
0.0
 70
     1
  0
VERTEX
  5
19E2
  8
TOWNS
 10
654.54999999999995
 20
4680.9499999999998
 30
0.0
  0
VERTEX
  5
19E3
  8
TOWNS
 10
654.49999999999989
 20
4680.6499999999987
 30
0.0
  0
VERTEX
  5
19E4
  8
TOWNS
 10
654.9000000000002
 20
4680.5500000000002
 30
0.0
  0
VERTEX
  5
19E5
  8
TOWNS
 10
655.04999999999995
 20
4680.6999999999998
 30
0.0
  0
VERTEX
  5
19E6
  8
TOWNS
 10
655.14999999999986
 20
4680.6000000000004
 30
0.0
  0
VERTEX
  5
19E7
  8
TOWNS
 10
655.29999999999995
 20
4680.7499999999982
 30
0.0
  0
VERTEX
  5
19E8
  8
TOWNS
 10
655.20000000000005
 20
4680.9499999999998
 30
0.0
  0
SEQEND
  5
19E9
  8
TOWNS
  0
POLYLINE
  5
140
  8
TOWNS
 66
     1
 10
0.0
 20
0.0
 30
0.0
 70
     1
  0
VERTEX
  5
19EA
  8
TOWNS
 10
655.24887162993525
 20
4688.5006928117464
 30
0.0
  0
VERTEX
  5
19EB
  8
TOWNS
 10
655.38584206279666
 20
4688.3243573346763
 30
0.0
  0
VERTEX
  5
19EC
  8
TOWNS
 10
655.00122381004212
 20
4687.8096712110464
 30
0.0
  0
VERTEX
  5
19ED
  8
TOWNS
 10
655.16961965086443
 20
4687.5247243942013
 30
0.0
  0
VERTEX
  5
19EE
  8
TOWNS
 10
655.29829010874062
 20
4687.5692609673797
 30
0.0
  0
VERTEX
  5
19EF
  8
TOWNS
 10
655.13073062342619
 20
4687.9380678198559
 30
0.0
  0
VERTEX
  5
19F0
  8
TOWNS
 10
655.56842343273036
 20
4688.466536103153
 30
0.0
  0
VERTEX
  5
19F1
  8
TOWNS
 10
655.35912461515363
 20
4688.6388609048208
 30
0.0
  0
SEQEND
  5
19F2
  8
TOWNS
  0
POLYLINE
  5
141
  8
TOWNS
 66
     1
 10
0.0
 20
0.0
 30
0.0
 70
     1
  0
VERTEX
  5
19F3
  8
TOWNS
 10
654.91840265500048
 20
4695.9457025775009
 30
0.0
  0
VERTEX
  5
19F4
  8
TOWNS
 10
654.94594722112879
 20
4695.5245606419912
 30
0.0
  0
VERTEX
  5
19F5
  8
TOWNS
 10
655.17872471022599
 20
4695.555791091474
 30
0.0
  0
VERTEX
  5
19F6
  8
TOWNS
 10
655.10572741152487
 20
4695.9046390430631
 30
0.0
  0
SEQEND
  5
19F7
  8
TOWNS
  0
POLYLINE
  5
142
  8
TOWNS
 66
     1
 10
0.0
 20
0.0
 30
0.0
 70
     1
  0
VERTEX
  5
19F8
  8
TOWNS
 10
655.01368945293018
 20
4691.1865616114883
 30
0.0
  0
VERTEX
  5
19F9
  8
TOWNS
 10
655.22045931804018
 20
4691.1442401366066
 30
0.0
  0
VERTEX
  5
19FA
  8
TOWNS
 10
655.17084782591348
 20
4690.922435548352
 30
0.0
  0
VERTEX
  5
19FB
  8
TOWNS
 10
654.98332300638197
 20
4690.979937246746
 30
0.0
  0
SEQEND
  5
19FC
  8
TOWNS
  0
POLYLINE
  5
143
  8
TOWNS
 66
     1
 10
0.0
 20
0.0
 30
0.0
 70
     1
  0
VERTEX
  5
19FD
  8
TOWNS
 10
655.08615612404571
 20
4691.4953311558884
 30
0.0
  0
VERTEX
  5
19FE
  8
TOWNS
 10
655.40804769948954
 20
4691.4499269864327
 30
0.0
  0
VERTEX
  5
19FF
  8
TOWNS
 10
655.38500764527976
 20
4691.2553485877552
 30
0.0
  0
VERTEX
  5
1A00
  8
TOWNS
 10
655.05418617367923
 20
4691.2976548748502
 30
0.0
  0
SEQEND
  5
1A01
  8
TOWNS
  0
POLYLINE
  5
144
  8
TOWNS
 66
     1
 10
0.0
 20
0.0
 30
0.0
 70
     1
  0
VERTEX
  5
1A02
  8
TOWNS
 10
661.59366155159069
 20
4688.8141584191144
 30
0.0
  0
VERTEX
  5
1A03
  8
TOWNS
 10
661.56492318340815
 20
4688.7076393303269
 30
0.0
  0
VERTEX
  5
1A04
  8
TOWNS
 10
661.60177233352601
 20
4688.6893492510599
 30
0.0
  0
VERTEX
  5
1A05
  8
TOWNS
 10
661.59607095310355
 20
4688.6638577208469
 30
0.0
  0
VERTEX
  5
1A06
  8
TOWNS
 10
661.71456320126561
 20
4688.634503813194
 30
0.0
  0
VERTEX
  5
1A07
  8
TOWNS
 10
661.68783678440002
 20
4688.5489480866181
 30
0.0
  0
VERTEX
  5
1A08
  8
TOWNS
 10
661.61735290677154
 20
4688.565370555254
 30
0.0
  0
VERTEX
  5
1A09
  8
TOWNS
 10
661.61008978159521
 20
4688.5458449381158
 30
0.0
  0
VERTEX
  5
1A0A
  8
TOWNS
 10
661.64756273782814
 20
4688.5387802124278
 30
0.0
  0
VERTEX
  5
1A0B
  8
TOWNS
 10
661.63634184318084
 20
4688.4713454244993
 30
0.0
  0
VERTEX
  5
1A0C
  8
TOWNS
 10
661.69310068383732
 20
4688.478703941707
 30
0.0
  0
VERTEX
  5
1A0D
  8
TOWNS
 10
661.75903159352913
 20
4688.468214319565
 30
0.0
  0
VERTEX
  5
1A0E
  8
TOWNS
 10
661.85445313613127
 20
4688.4961934588118
 30
0.0
  0
VERTEX
  5
1A0F
  8
TOWNS
 10
661.96737496775881
 20
4688.700121892799
 30
0.0
  0
SEQEND
  5
1A10
  8
TOWNS
  0
POLYLINE
  5
145
  8
TOWNS
 66
     1
 10
0.0
 20
0.0
 30
0.0
 70
     1
  0
VERTEX
  5
1A11
  8
TOWNS
 10
664.00000000000011
 20
4685.6858953382407
 30
0.0
  0
VERTEX
  5
1A12
  8
TOWNS
 10
663.92369167071388
 20
4685.6588255376073
 30
0.0
  0
VERTEX
  5
1A13
  8
TOWNS
 10
663.84651665188562
 20
4685.8747836752163
 30
0.0
  0
VERTEX
  5
1A14
  8
TOWNS
 10
663.60385872597294
 20
4685.885476027227
 30
0.0
  0
VERTEX
  5
1A15
  8
TOWNS
 10
663.47770555859051
 20
4686.2369671208753
 30
0.0
  0
VERTEX
  5
1A16
  8
TOWNS
 10
663.14893832959751
 20
4686.462138814155
 30
0.0
  0
VERTEX
  5
1A17
  8
TOWNS
 10
662.73615664100248
 20
4686.1112494839199
 30
0.0
  0
VERTEX
  5
1A18
  8
TOWNS
 10
662.45006671466854
 20
4685.8912306438378
 30
0.0
  0
VERTEX
  5
1A19
  8
TOWNS
 10
661.9046065982634
 20
4685.3811908366824
 30
0.0
  0
VERTEX
  5
1A1A
  8
TOWNS
 10
661.59176701372871
 20
4685.2043762578323
 30
0.0
  0
VERTEX
  5
1A1B
  8
TOWNS
 10
661.59148109299076
 20
4684.9483077627247
 30
0.0
  0
VERTEX
  5
1A1C
  8
TOWNS
 10
660.7977537340048
 20
4684.7586311835375
 30
0.0
  0
VERTEX
  5
1A1D
  8
TOWNS
 10
659.84669978180625
 20
4683.6684231051586
 30
0.0
  0
VERTEX
  5
1A1E
  8
TOWNS
 10
659.79552471040574
 20
4683.1697415670487
 30
0.0
  0
VERTEX
  5
1A1F
  8
TOWNS
 10
659.4005534087695
 20
4682.7697028682833
 30
0.0
  0
VERTEX
  5
1A20
  8
TOWNS
 10
659.43751500564906
 20
4682.5389019103777
 30
0.0
  0
VERTEX
  5
1A21
  8
TOWNS
 10
657.92513646112161
 20
4681.3972135691456
 30
0.0
  0
VERTEX
  5
1A22
  8
TOWNS
 10
657.89212252828315
 20
4681.1635132001047
 30
0.0
  0
VERTEX
  5
1A23
  8
TOWNS
 10
658.90528592681005
 20
4681.8784813398934
 30
0.0
  0
VERTEX
  5
1A24
  8
TOWNS
 10
659.05660855392955
 20
4681.4019052797248
 30
0.0
  0
VERTEX
  5
1A25
  8
TOWNS
 10
658.55423799799166
 20
4680.8158899786631
 30
0.0
  0
VERTEX
  5
1A26
  8
TOWNS
 10
658.57634513826474
 20
4680.6148810504628
 30
0.0
  0
VERTEX
  5
1A27
  8
TOWNS
 10
659.46134130284895
 20
4681.2108905249897
 30
0.0
  0
VERTEX
  5
1A28
  8
TOWNS
 10
659.71830012952046
 20
4680.6746456265864
 30
0.0
  0
VERTEX
  5
1A29
  8
TOWNS
 10
660.24454919212974
 20
4681.3127412915828
 30
0.0
  0
VERTEX
  5
1A2A
  8
TOWNS
 10
660.51092936570603
 20
4681.2141848933907
 30
0.0
  0
VERTEX
  5
1A2B
  8
TOWNS
 10
660.5955482361361
 20
4680.9982184441342
 30
0.0
  0
VERTEX
  5
1A2C
  8
TOWNS
 10
660.68184372016208
 20
4680.9504813787498
 30
0.0
  0
VERTEX
  5
1A2D
  8
TOWNS
 10
661.13624614686273
 20
4681.243262121252
 30
0.0
  0
VERTEX
  5
1A2E
  8
TOWNS
 10
661.13341489125071
 20
4681.3742772341047
 30
0.0
  0
VERTEX
  5
1A2F
  8
TOWNS
 10
661.96902397413226
 20
4681.7395821658611
 30
0.0
  0
VERTEX
  5
1A30
  8
TOWNS
 10
662.53504261661453
 20
4681.9950189756146
 30
0.0
  0
VERTEX
  5
1A31
  8
TOWNS
 10
662.47727979349668
 20
4682.263062464147
 30
0.0
  0
VERTEX
  5
1A32
  8
TOWNS
 10
662.9767210163601
 20
4682.8922554291621
 30
0.0
  0
VERTEX
  5
1A33
  8
TOWNS
 10
663.18063268035576
 20
4682.847364580356
 30
0.0
  0
VERTEX
  5
1A34
  8
TOWNS
 10
663.75719572749119
 20
4683.21295875751
 30
0.0
  0
VERTEX
  5
1A35
  8
TOWNS
 10
663.58171864694157
 20
4683.3903185805602
 30
0.0
  0
VERTEX
  5
1A36
  8
TOWNS
 10
663.50276561239502
 20
4683.3472323447522
 30
0.0
  0
VERTEX
  5
1A37
  8
TOWNS
 10
663.28552317104061
 20
4683.4531777376596
 30
0.0
  0
VERTEX
  5
1A38
  8
TOWNS
 10
663.86127567844358
 20
4684.4261918678558
 30
0.0
  0
VERTEX
  5
1A39
  8
TOWNS
 10
663.99999999999966
 20
4684.7115667948074
 30
0.0
  0
VERTEX
  5
1A3A
  8
TOWNS
 10
664.14711472336614
 20
4685.0085932412867
 30
0.0
  0
VERTEX
  5
1A3B
  8
TOWNS
 10
664.20822134405853
 20
4685.288494262626
 30
0.0
  0
VERTEX
  5
1A3C
  8
TOWNS
 10
664.13183802076185
 20
4685.5429498092353
 30
0.0
  0
SEQEND
  5
1A3D
  8
TOWNS
  0
POLYLINE
  5
146
  8
TOWNS
 66
     1
 10
0.0
 20
0.0
 30
0.0
 70
     1
  0
VERTEX
  5
1A3E
  8
TOWNS
 10
661.59366155159069
 20
4688.8141584191144
 30
0.0
  0
VERTEX
  5
1A3F
  8
TOWNS
 10
661.56492318340815
 20
4688.7076393303269
 30
0.0
  0
VERTEX
  5
1A40
  8
TOWNS
 10
661.60177233352601
 20
4688.6893492510599
 30
0.0
  0
VERTEX
  5
1A41
  8
TOWNS
 10
661.59607095310355
 20
4688.6638577208469
 30
0.0
  0
VERTEX
  5
1A42
  8
TOWNS
 10
661.71456320126561
 20
4688.634503813194
 30
0.0
  0
VERTEX
  5
1A43
  8
TOWNS
 10
661.68783678440002
 20
4688.5489480866181
 30
0.0
  0
VERTEX
  5
1A44
  8
TOWNS
 10
661.61735290677154
 20
4688.565370555254
 30
0.0
  0
VERTEX
  5
1A45
  8
TOWNS
 10
661.61008978159521
 20
4688.5458449381158
 30
0.0
  0
VERTEX
  5
1A46
  8
TOWNS
 10
661.64756273782814
 20
4688.5387802124278
 30
0.0
  0
VERTEX
  5
1A47
  8
TOWNS
 10
661.63634184318084
 20
4688.4713454244993
 30
0.0
  0
VERTEX
  5
1A48
  8
TOWNS
 10
661.69310068383732
 20
4688.478703941707
 30
0.0
  0
VERTEX
  5
1A49
  8
TOWNS
 10
661.75903159352913
 20
4688.468214319565
 30
0.0
  0
VERTEX
  5
1A4A
  8
TOWNS
 10
661.85445313613127
 20
4688.4961934588118
 30
0.0
  0
VERTEX
  5
1A4B
  8
TOWNS
 10
661.96737496775881
 20
4688.700121892799
 30
0.0
  0
SEQEND
  5
1A4C
  8
TOWNS
  0
POLYLINE
  5
147
  8
TOWNS
 66
     1
 10
0.0
 20
0.0
 30
0.0
 70
     1
  0
VERTEX
  5
1A4D
  8
TOWNS
 10
660.99483917175439
 20
4685.991660382826
 30
0.0
  0
VERTEX
  5
1A4E
  8
TOWNS
 10
661.13291884322302
 20
4685.4482165717764
 30
0.0
  0
VERTEX
  5
1A4F
  8
TOWNS
 10
661.55313279932568
 20
4685.5240853562009
 30
0.0
  0
VERTEX
  5
1A50
  8
TOWNS
 10
661.74218229623045
 20
4685.8480554959688
 30
0.0
  0
VERTEX
  5
1A51
  8
TOWNS
 10
661.38941911134214
 20
4686.0161942279701
 30
0.0
  0
SEQEND
  5
1A52
  8
TOWNS
  0
POLYLINE
  5
148
  8
TOWNS
 66
     1
 10
0.0
 20
0.0
 30
0.0
 70
     1
  0
VERTEX
  5
1A53
  8
TOWNS
 10
661.48188693449686
 20
4687.904541863456
 30
0.0
  0
VERTEX
  5
1A54
  8
TOWNS
 10
661.5603990809326
 20
4687.7918061021774
 30
0.0
  0
VERTEX
  5
1A55
  8
TOWNS
 10
661.6788282618345
 20
4687.7776984784869
 30
0.0
  0
VERTEX
  5
1A56
  8
TOWNS
 10
661.72711266052113
 20
4687.8396565488329
 30
0.0
  0
SEQEND
  5
1A57
  8
TOWNS
  0
POLYLINE
  5
149
  8
TOWNS
 66
     1
 10
0.0
 20
0.0
 30
0.0
 70
     1
  0
VERTEX
  5
1A58
  8
TOWNS
 10
661.52712000049041
 20
4697.9437065759221
 30
0.0
  0
VERTEX
  5
1A59
  8
TOWNS
 10
661.97162636628116
 20
4698.0163734990338
 30
0.0
  0
VERTEX
  5
1A5A
  8
TOWNS
 10
661.95921964905585
 20
4698.1761446901501
 30
0.0
  0
VERTEX
  5
1A5B
  8
TOWNS
 10
661.57693155562436
 20
4698.1490730002197
 30
0.0
  0
SEQEND
  5
1A5C
  8
TOWNS
  0
POLYLINE
  5
14A
  8
TOWNS
 66
     1
 10
0.0
 20
0.0
 30
0.0
 70
     1
  0
VERTEX
  5
1A5D
  8
TOWNS
 10
661.53640802602672
 20
4696.1981269390853
 30
0.0
  0
VERTEX
  5
1A5E
  8
TOWNS
 10
661.70784324473823
 20
4696.2345892133417
 30
0.0
  0
VERTEX
  5
1A5F
  8
TOWNS
 10
661.68230230844256
 20
4696.6139067372378
 30
0.0
  0
VERTEX
  5
1A60
  8
TOWNS
 10
661.47456550362836
 20
4696.612873046869
 30
0.0
  0
SEQEND
  5
1A61
  8
TOWNS
  0
POLYLINE
  5
14B
  8
TOWNS
 66
     1
 10
0.0
 20
0.0
 30
0.0
 70
     1
  0
VERTEX
  5
1A62
  8
TOWNS
 10
661.25740625105834
 20
4690.6318304969363
 30
0.0
  0
VERTEX
  5
1A63
  8
TOWNS
 10
661.59280779553319
 20
4690.8272213356686
 30
0.0
  0
VERTEX
  5
1A64
  8
TOWNS
 10
661.72294604146634
 20
4690.818343002391
 30
0.0
  0
VERTEX
  5
1A65
  8
TOWNS
 10
661.69106702883016
 20
4690.6131948286447
 30
0.0
  0
SEQEND
  5
1A66
  8
TOWNS
  0
POLYLINE
  5
14C
  8
TOWNS
 66
     1
 10
0.0
 20
0.0
 30
0.0
 70
     1
  0
VERTEX
  5
1A67
  8
TOWNS
 10
643.83708114231149
 20
4688.5200588312782
 30
0.0
  0
VERTEX
  5
1A68
  8
TOWNS
 10
643.86437291248865
 20
4688.4466202405683
 30
0.0
  0
VERTEX
  5
1A69
  8
TOWNS
 10
643.95693714103584
 20
4688.4557516598243
 30
0.0
  0
VERTEX
  5
1A6A
  8
TOWNS
 10
643.98286309965795
 20
4688.2854241308096
 30
0.0
  0
VERTEX
  5
1A6B
  8
TOWNS
 10
643.92510667399836
 20
4688.2072208555664
 30
0.0
  0
VERTEX
  5
1A6C
  8
TOWNS
 10
644.12631653336939
 20
4688.2028935709759
 30
0.0
  0
VERTEX
  5
1A6D
  8
TOWNS
 10
644.17349296569205
 20
4688.3766632853558
 30
0.0
  0
VERTEX
  5
1A6E
  8
TOWNS
 10
644.12218351081845
 20
4688.4385132834277
 30
0.0
  0
VERTEX
  5
1A6F
  8
TOWNS
 10
644.13528500241068
 20
4688.5218187303881
 30
0.0
  0
VERTEX
  5
1A70
  8
TOWNS
 10
644.07849643849966
 20
4688.6180365565733
 30
0.0
  0
SEQEND
  5
1A71
  8
TOWNS
  0
POLYLINE
  5
14D
  8
TOWNS
 66
     1
 10
0.0
 20
0.0
 30
0.0
 70
     1
  0
VERTEX
  5
1A72
  8
TOWNS
 10
643.33282093268758
 20
4694.6337855646807
 30
0.0
  0
VERTEX
  5
1A73
  8
TOWNS
 10
643.31869804445137
 20
4694.4442214578194
 30
0.0
  0
VERTEX
  5
1A74
  8
TOWNS
 10
643.15033679238024
 20
4694.3776294761783
 30
0.0
  0
VERTEX
  5
1A75
  8
TOWNS
 10
642.79418047492481
 20
4694.3773166782503
 30
0.0
  0
VERTEX
  5
1A76
  8
TOWNS
 10
642.7645758980284
 20
4694.5082527641698
 30
0.0
  0
VERTEX
  5
1A77
  8
TOWNS
 10
642.99897680139213
 20
4694.6138163636679
 30
0.0
  0
SEQEND
  5
1A78
  8
TOWNS
  0
POLYLINE
  5
14E
  8
TOWNS
 66
     1
 10
0.0
 20
0.0
 30
0.0
 70
     1
  0
VERTEX
  5
1A79
  8
TOWNS
 10
643.37153488491163
 20
4697.7680716243594
 30
0.0
  0
VERTEX
  5
1A7A
  8
TOWNS
 10
643.08773681930415
 20
4697.583513062782
 30
0.0
  0
VERTEX
  5
1A7B
  8
TOWNS
 10
642.88428935662637
 20
4697.5568952916819
 30
0.0
  0
VERTEX
  5
1A7C
  8
TOWNS
 10
642.8933677314875
 20
4697.4914120003386
 30
0.0
  0
VERTEX
  5
1A7D
  8
TOWNS
 10
643.11296739959471
 20
4697.423309558676
 30
0.0
  0
VERTEX
  5
1A7E
  8
TOWNS
 10
643.11757012195778
 20
4697.3667182730578
 30
0.0
  0
VERTEX
  5
1A7F
  8
TOWNS
 10
643.21420847150557
 20
4697.379059618891
 30
0.0
  0
VERTEX
  5
1A80
  8
TOWNS
 10
643.210231573952
 20
4697.4394685411653
 30
0.0
  0
VERTEX
  5
1A81
  8
TOWNS
 10
643.32199645761091
 20
4697.5033657716367
 30
0.0
  0
VERTEX
  5
1A82
  8
TOWNS
 10
643.31864877339615
 20
4697.5663203497688
 30
0.0
  0
VERTEX
  5
1A83
  8
TOWNS
 10
643.41261948001454
 20
4697.6250822176371
 30
0.0
  0
SEQEND
  5
1A84
  8
TOWNS
  0
POLYLINE
  5
14F
  8
TOWNS
 66
     1
 10
0.0
 20
0.0
 30
0.0
 70
     1
  0
VERTEX
  5
1A85
  8
TOWNS
 10
643.64442023793947
 20
4675.0644632247941
 30
0.0
  0
VERTEX
  5
1A86
  8
TOWNS
 10
643.82662924697127
 20
4674.9813863403378
 30
0.0
  0
VERTEX
  5
1A87
  8
TOWNS
 10
643.88174067429645
 20
4675.0834812253661
 30
0.0
  0
VERTEX
  5
1A88
  8
TOWNS
 10
643.92899986914415
 20
4675.1573597908582
 30
0.0
  0
VERTEX
  5
1A89
  8
TOWNS
 10
643.9785061125192
 20
4675.2848789096888
 30
0.0
  0
VERTEX
  5
1A8A
  8
TOWNS
 10
644.05950404832981
 20
4675.4253721577852
 30
0.0
  0
VERTEX
  5
1A8B
  8
TOWNS
 10
643.84038727528105
 20
4675.5343145382394
 30
0.0
  0
VERTEX
  5
1A8C
  8
TOWNS
 10
643.78934969530155
 20
4675.5096887788823
 30
0.0
  0
VERTEX
  5
1A8D
  8
TOWNS
 10
643.75384848039346
 20
4675.5295708661943
 30
0.0
  0
VERTEX
  5
1A8E
  8
TOWNS
 10
643.65563575550834
 20
4675.4370289375493
 30
0.0
  0
VERTEX
  5
1A8F
  8
TOWNS
 10
643.59160174636395
 20
4675.3365507264853
 30
0.0
  0
VERTEX
  5
1A90
  8
TOWNS
 10
643.59403661984345
 20
4675.2977531261931
 30
0.0
  0
VERTEX
  5
1A91
  8
TOWNS
 10
643.68259003850085
 20
4675.233887216933
 30
0.0
  0
VERTEX
  5
1A92
  8
TOWNS
 10
643.66197251419874
 20
4675.1462150352472
 30
0.0
  0
SEQEND
  5
1A93
  8
TOWNS
  0
POLYLINE
  5
150
  8
TOWNS
 66
     1
 10
0.0
 20
0.0
 30
0.0
 70
     1
  0
VERTEX
  5
1A94
  8
TOWNS
 10
643.66464116910481
 20
4667.8062368796873
 30
0.0
  0
VERTEX
  5
1A95
  8
TOWNS
 10
643.72801015258358
 20
4667.7518767517513
 30
0.0
  0
VERTEX
  5
1A96
  8
TOWNS
 10
643.92902572391472
 20
4667.8932556613554
 30
0.0
  0
VERTEX
  5
1A97
  8
TOWNS
 10
643.88665535858115
 20
4667.9389418173732
 30
0.0
  0
SEQEND
  5
1A98
  8
TOWNS
  0
POLYLINE
  5
151
  8
TOWNS
 66
     1
 10
0.0
 20
0.0
 30
0.0
 70
     1
  0
VERTEX
  5
1A99
  8
TOWNS
 10
643.44024751299594
 20
4661.7363617609753
 30
0.0
  0
VERTEX
  5
1A9A
  8
TOWNS
 10
643.73601216479983
 20
4661.8193184938709
 30
0.0
  0
VERTEX
  5
1A9B
  8
TOWNS
 10
643.68480865793924
 20
4662.0826828847248
 30
0.0
  0
VERTEX
  5
1A9C
  8
TOWNS
 10
643.40232990120387
 20
4662.0103432911264
 30
0.0
  0
SEQEND
  5
1A9D
  8
TOWNS
  0
POLYLINE
  5
152
  8
TOWNS
 66
     1
 10
0.0
 20
0.0
 30
0.0
 70
     1
  0
VERTEX
  5
1A9E
  8
TOWNS
 10
642.62100616792429
 20
4686.9687796307062
 30
0.0
  0
VERTEX
  5
1A9F
  8
TOWNS
 10
642.66387504072725
 20
4686.8369765396719
 30
0.0
  0
VERTEX
  5
1AA0
  8
TOWNS
 10
642.78520191343398
 20
4686.8770113017708
 30
0.0
  0
VERTEX
  5
1AA1
  8
TOWNS
 10
642.78875044864276
 20
4686.9172154511734
 30
0.0
  0
VERTEX
  5
1AA2
  8
TOWNS
 10
642.95166700737354
 20
4686.9462276703252
 30
0.0
  0
VERTEX
  5
1AA3
  8
TOWNS
 10
642.95086982034275
 20
4686.9954384514858
 30
0.0
  0
VERTEX
  5
1AA4
  8
TOWNS
 10
643.01397928012705
 20
4687.0303303043129
 30
0.0
  0
VERTEX
  5
1AA5
  8
TOWNS
 10
642.98062005131919
 20
4687.0963999497153
 30
0.0
  0
VERTEX
  5
1AA6
  8
TOWNS
 10
642.89065879613565
 20
4687.060395722573
 30
0.0
  0
VERTEX
  5
1AA7
  8
TOWNS
 10
642.86109896494554
 20
4687.0787031608907
 30
0.0
  0
VERTEX
  5
1AA8
  8
TOWNS
 10
642.77716314342115
 20
4687.047086680961
 30
0.0
  0
VERTEX
  5
1AA9
  8
TOWNS
 10
642.74926201116546
 20
4687.077297899199
 30
0.0
  0
VERTEX
  5
1AAA
  8
TOWNS
 10
642.67597050785139
 20
4687.0604403223779
 30
0.0
  0
SEQEND
  5
1AAB
  8
TOWNS
  0
POLYLINE
  5
153
  8
TOWNS
 66
     1
 10
0.0
 20
0.0
 30
0.0
 70
     1
  0
VERTEX
  5
1AAC
  8
TOWNS
 10
642.07865020336055
 20
4671.338686997432
 30
0.0
  0
VERTEX
  5
1AAD
  8
TOWNS
 10
642.03620231586501
 20
4671.2769666057711
 30
0.0
  0
VERTEX
  5
1AAE
  8
TOWNS
 10
642.20195454941052
 20
4671.1508591293159
 30
0.0
  0
VERTEX
  5
1AAF
  8
TOWNS
 10
642.25339062275646
 20
4671.209714381499
 30
0.0
  0
SEQEND
  5
1AB0
  8
TOWNS
  0
POLYLINE
  5
154
  8
TOWNS
 66
     1
 10
0.0
 20
0.0
 30
0.0
 70
     1
  0
VERTEX
  5
1AB1
  8
TOWNS
 10
642.39312506582758
 20
4670.5671211022682
 30
0.0
  0
VERTEX
  5
1AB2
  8
TOWNS
 10
642.60946686013756
 20
4670.7907477007839
 30
0.0
  0
VERTEX
  5
1AB3
  8
TOWNS
 10
642.82253420314703
 20
4670.6965898340732
 30
0.0
  0
VERTEX
  5
1AB4
  8
TOWNS
 10
642.90550954309424
 20
4670.5127061845033
 30
0.0
  0
VERTEX
  5
1AB5
  8
TOWNS
 10
642.83943458974375
 20
4670.3194012736076
 30
0.0
  0
SEQEND
  5
1AB6
  8
TOWNS
  0
POLYLINE
  5
155
  8
TOWNS
 66
     1
 10
0.0
 20
0.0
 30
0.0
 70
     1
  0
VERTEX
  5
1AB7
  8
TOWNS
 10
642.74104712427254
 20
4664.7628532739509
 30
0.0
  0
VERTEX
  5
1AB8
  8
TOWNS
 10
642.77731511292643
 20
4664.6141564713253
 30
0.0
  0
VERTEX
  5
1AB9
  8
TOWNS
 10
643.18655044366915
 20
4664.6896568112879
 30
0.0
  0
VERTEX
  5
1ABA
  8
TOWNS
 10
643.10047430379495
 20
4664.882450093226
 30
0.0
  0
SEQEND
  5
1ABB
  8
TOWNS
  0
POLYLINE
  5
156
  8
TOWNS
 66
     1
 10
0.0
 20
0.0
 30
0.0
 70
     1
  0
VERTEX
  5
1ABC
  8
TOWNS
 10
642.74610136151489
 20
4661.4333484877443
 30
0.0
  0
VERTEX
  5
1ABD
  8
TOWNS
 10
642.32013100170877
 20
4660.8161249327532
 30
0.0
  0
VERTEX
  5
1ABE
  8
TOWNS
 10
642.40153527200073
 20
4660.7515600713041
 30
0.0
  0
VERTEX
  5
1ABF
  8
TOWNS
 10
642.63186994272405
 20
4660.9321103544607
 30
0.0
  0
VERTEX
  5
1AC0
  8
TOWNS
 10
642.62427401855075
 20
4661.0558250436543
 30
0.0
  0
VERTEX
  5
1AC1
  8
TOWNS
 10
642.72463451643625
 20
4661.137700634843
 30
0.0
  0
VERTEX
  5
1AC2
  8
TOWNS
 10
642.77459771198005
 20
4661.3084172508879
 30
0.0
  0
VERTEX
  5
1AC3
  8
TOWNS
 10
642.81987146221331
 20
4661.3821087981041
 30
0.0
  0
SEQEND
  5
1AC4
  8
TOWNS
  0
POLYLINE
  5
157
  8
TOWNS
 66
     1
 10
0.0
 20
0.0
 30
0.0
 70
     1
  0
VERTEX
  5
1AC5
  8
TOWNS
 10
648.42491968820605
 20
4662.4107736490578
 30
0.0
  0
VERTEX
  5
1AC6
  8
TOWNS
 10
648.38170381315069
 20
4662.690635536178
 30
0.0
  0
VERTEX
  5
1AC7
  8
TOWNS
 10
647.90916283479976
 20
4662.7284185027811
 30
0.0
  0
VERTEX
  5
1AC8
  8
TOWNS
 10
647.86207456469185
 20
4662.4588479959493
 30
0.0
  0
SEQEND
  5
1AC9
  8
TOWNS
  0
POLYLINE
  5
158
  8
TOWNS
 66
     1
 10
0.0
 20
0.0
 30
0.0
 70
     1
  0
VERTEX
  5
1ACA
  8
TOWNS
 10
647.25391064868995
 20
4660.9540619360159
 30
0.0
  0
VERTEX
  5
1ACB
  8
TOWNS
 10
648.00218652458477
 20
4661.0047513991631
 30
0.0
  0
VERTEX
  5
1ACC
  8
TOWNS
 10
648.26569723030741
 20
4661.6544299162042
 30
0.0
  0
VERTEX
  5
1ACD
  8
TOWNS
 10
647.74517015590186
 20
4661.857364539178
 30
0.0
  0
VERTEX
  5
1ACE
  8
TOWNS
 10
647.19689679316798
 20
4661.4496964703258
 30
0.0
  0
SEQEND
  5
1ACF
  8
TOWNS
  0
POLYLINE
  5
159
  8
TOWNS
 66
     1
 10
0.0
 20
0.0
 30
0.0
 70
     1
  0
VERTEX
  5
1AD0
  8
TOWNS
 10
647.40600537363366
 20
4660.3576620928297
 30
0.0
  0
VERTEX
  5
1AD1
  8
TOWNS
 10
647.84946802425191
 20
4660.4141045752531
 30
0.0
  0
VERTEX
  5
1AD2
  8
TOWNS
 10
647.86900590998675
 20
4660.0904586647339
 30
0.0
  0
VERTEX
  5
1AD3
  8
TOWNS
 10
647.43499878278055
 20
4660.0501388897128
 30
0.0
  0
SEQEND
  5
1AD4
  8
TOWNS
  0
POLYLINE
  5
15A
  8
TOWNS
 66
     1
 10
0.0
 20
0.0
 30
0.0
 70
     1
  0
VERTEX
  5
1AD5
  8
TOWNS
 10
646.17333990420093
 20
4661.6594583326996
 30
0.0
  0
VERTEX
  5
1AD6
  8
TOWNS
 10
646.03737433617255
 20
4661.6296910894944
 30
0.0
  0
VERTEX
  5
1AD7
  8
TOWNS
 10
645.77872204853793
 20
4661.4111921794438
 30
0.0
  0
VERTEX
  5
1AD8
  8
TOWNS
 10
645.876862244417
 20
4661.273296970895
 30
0.0
  0
VERTEX
  5
1AD9
  8
TOWNS
 10
646.21284671811725
 20
4661.4619437191513
 30
0.0
  0
SEQEND
  5
1ADA
  8
TOWNS
  0
POLYLINE
  5
15B
  8
TOWNS
 66
     1
 10
0.0
 20
0.0
 30
0.0
 70
     1
  0
VERTEX
  5
1ADB
  8
TOWNS
 10
646.37184064827443
 20
4662.4037671669394
 30
0.0
  0
VERTEX
  5
1ADC
  8
TOWNS
 10
646.32671147146289
 20
4662.7195868085028
 30
0.0
  0
VERTEX
  5
1ADD
  8
TOWNS
 10
646.12139670948761
 20
4662.7079894555936
 30
0.0
  0
VERTEX
  5
1ADE
  8
TOWNS
 10
646.13265121703955
 20
4662.3693668623764
 30
0.0
  0
SEQEND
  5
1ADF
  8
TOWNS
  0
POLYLINE
  5
15C
  8
TOWNS
 66
     1
 10
0.0
 20
0.0
 30
0.0
 70
     1
  0
VERTEX
  5
1AE0
  8
TOWNS
 10
644.88413386600575
 20
4662.3672055768448
 30
0.0
  0
VERTEX
  5
1AE1
  8
TOWNS
 10
645.40832759600232
 20
4662.3868022068937
 30
0.0
  0
VERTEX
  5
1AE2
  8
TOWNS
 10
645.43766385050696
 20
4662.2125868350167
 30
0.0
  0
VERTEX
  5
1AE3
  8
TOWNS
 10
644.87825680109654
 20
4662.2571447462196
 30
0.0
  0
SEQEND
  5
1AE4
  8
TOWNS
  0
POLYLINE
  5
15D
  8
TOWNS
 66
     1
 10
0.0
 20
0.0
 30
0.0
 70
     1
  0
VERTEX
  5
1AE5
  8
TOWNS
 10
646.98140529099146
 20
4664.1357469402801
 30
0.0
  0
VERTEX
  5
1AE6
  8
TOWNS
 10
647.51893338896684
 20
4664.1041871087036
 30
0.0
  0
VERTEX
  5
1AE7
  8
TOWNS
 10
647.46763643545285
 20
4663.3582196209773
 30
0.0
  0
VERTEX
  5
1AE8
  8
TOWNS
 10
646.95410955488785
 20
4663.3593689779236
 30
0.0
  0
SEQEND
  5
1AE9
  8
TOWNS
  0
POLYLINE
  5
15E
  8
TOWNS
 66
     1
 10
0.0
 20
0.0
 30
0.0
 70
     1
  0
VERTEX
  5
1AEA
  8
TOWNS
 10
648.05201126927545
 20
4664.1920783298419
 30
0.0
  0
VERTEX
  5
1AEB
  8
TOWNS
 10
648.55183481597658
 20
4664.1064594333493
 30
0.0
  0
VERTEX
  5
1AEC
  8
TOWNS
 10
648.30519125268506
 20
4663.5133932359013
 30
0.0
  0
VERTEX
  5
1AED
  8
TOWNS
 10
647.71838086779405
 20
4663.9037110938007
 30
0.0
  0
SEQEND
  5
1AEE
  8
TOWNS
  0
POLYLINE
  5
15F
  8
TOWNS
 66
     1
 10
0.0
 20
0.0
 30
0.0
 70
     1
  0
VERTEX
  5
1AEF
  8
TOWNS
 10
645.60716634334585
 20
4664.7847801681892
 30
0.0
  0
VERTEX
  5
1AF0
  8
TOWNS
 10
646.07832730471455
 20
4664.693473494277
 30
0.0
  0
VERTEX
  5
1AF1
  8
TOWNS
 10
646.05094317217402
 20
4664.5814503705124
 30
0.0
  0
VERTEX
  5
1AF2
  8
TOWNS
 10
645.58429671876763
 20
4664.671302012609
 30
0.0
  0
SEQEND
  5
1AF3
  8
TOWNS
  0
POLYLINE
  5
160
  8
TOWNS
 66
     1
 10
0.0
 20
0.0
 30
0.0
 70
     1
  0
VERTEX
  5
1AF4
  8
TOWNS
 10
644.80168874264598
 20
4664.707005961106
 30
0.0
  0
VERTEX
  5
1AF5
  8
TOWNS
 10
644.7384350770667
 20
4664.5818754749416
 30
0.0
  0
VERTEX
  5
1AF6
  8
TOWNS
 10
644.98464758542525
 20
4664.4853279020554
 30
0.0
  0
VERTEX
  5
1AF7
  8
TOWNS
 10
645.10117887142076
 20
4664.6829893406639
 30
0.0
  0
VERTEX
  5
1AF8
  8
TOWNS
 10
645.2372519786901
 20
4664.6505947736641
 30
0.0
  0
VERTEX
  5
1AF9
  8
TOWNS
 10
645.25468994857272
 20
4664.7070186525689
 30
0.0
  0
VERTEX
  5
1AFA
  8
TOWNS
 10
645.0328934843983
 20
4664.7618093295287
 30
0.0
  0
VERTEX
  5
1AFB
  8
TOWNS
 10
644.96717338730639
 20
4664.6584043372532
 30
0.0
  0
VERTEX
  5
1AFC
  8
TOWNS
 10
644.81066546418811
 20
4664.7093453919742
 30
0.0
  0
SEQEND
  5
1AFD
  8
TOWNS
  0
POLYLINE
  5
161
  8
TOWNS
 66
     1
 10
0.0
 20
0.0
 30
0.0
 70
     1
  0
VERTEX
  5
1AFE
  8
TOWNS
 10
648.1649993186445
 20
4665.0532614881013
 30
0.0
  0
VERTEX
  5
1AFF
  8
TOWNS
 10
647.48535556785805
 20
4665.0674910788211
 30
0.0
  0
VERTEX
  5
1B00
  8
TOWNS
 10
647.43797800179345
 20
4664.553267602234
 30
0.0
  0
VERTEX
  5
1B01
  8
TOWNS
 10
648.049338105836
 20
4664.4671075743299
 30
0.0
  0
SEQEND
  5
1B02
  8
TOWNS
  0
POLYLINE
  5
162
  8
TOWNS
 66
     1
 10
0.0
 20
0.0
 30
0.0
 70
     1
  0
VERTEX
  5
1B03
  8
TOWNS
 10
647.93831245953845
 20
4665.6742551133993
 30
0.0
  0
VERTEX
  5
1B04
  8
TOWNS
 10
647.57045937230623
 20
4665.7095907514258
 30
0.0
  0
VERTEX
  5
1B05
  8
TOWNS
 10
647.46467248106831
 20
4665.2615356094984
 30
0.0
  0
VERTEX
  5
1B06
  8
TOWNS
 10
647.66685129281336
 20
4665.2185495408203
 30
0.0
  0
VERTEX
  5
1B07
  8
TOWNS
 10
647.84365321477969
 20
4665.3890613014701
 30
0.0
  0
SEQEND
  5
1B08
  8
TOWNS
  0
POLYLINE
  5
163
  8
TOWNS
 66
     1
 10
0.0
 20
0.0
 30
0.0
 70
     1
  0
VERTEX
  5
1B09
  8
TOWNS
 10
648.49664771368384
 20
4666.24306879081
 30
0.0
  0
VERTEX
  5
1B0A
  8
TOWNS
 10
648.24686261163765
 20
4665.8700793933704
 30
0.0
  0
VERTEX
  5
1B0B
  8
TOWNS
 10
647.91637144238757
 20
4665.9192872628309
 30
0.0
  0
VERTEX
  5
1B0C
  8
TOWNS
 10
648.15964164895149
 20
4666.3439619124329
 30
0.0
  0
SEQEND
  5
1B0D
  8
TOWNS
  0
POLYLINE
  5
164
  8
TOWNS
 66
     1
 10
0.0
 20
0.0
 30
0.0
 70
     1
  0
VERTEX
  5
1B0E
  8
TOWNS
 10
646.14445596319763
 20
4687.0127317259421
 30
0.0
  0
VERTEX
  5
1B0F
  8
TOWNS
 10
646.26394872755566
 20
4687.0865424301446
 30
0.0
  0
VERTEX
  5
1B10
  8
TOWNS
 10
646.35278443923539
 20
4687.1512546288377
 30
0.0
  0
VERTEX
  5
1B11
  8
TOWNS
 10
646.44620188152396
 20
4687.1920298660652
 30
0.0
  0
VERTEX
  5
1B12
  8
TOWNS
 10
646.60173282364428
 20
4687.2375308661158
 30
0.0
  0
VERTEX
  5
1B13
  8
TOWNS
 10
646.62603425877921
 20
4687.3439195232068
 30
0.0
  0
VERTEX
  5
1B14
  8
TOWNS
 10
646.49060993124885
 20
4687.3261914798113
 30
0.0
  0
VERTEX
  5
1B15
  8
TOWNS
 10
646.29463417874251
 20
4687.2865264516704
 30
0.0
  0
VERTEX
  5
1B16
  8
TOWNS
 10
646.09238455246555
 20
4687.1240722356351
 30
0.0
  0
SEQEND
  5
1B17
  8
TOWNS
  0
POLYLINE
  5
165
  8
TOWNS
 66
     1
 10
0.0
 20
0.0
 30
0.0
 70
     1
  0
VERTEX
  5
1B18
  8
TOWNS
 10
645.56362299823513
 20
4685.0133549869051
 30
0.0
  0
VERTEX
  5
1B19
  8
TOWNS
 10
645.59033940486302
 20
4684.8764674301538
 30
0.0
  0
VERTEX
  5
1B1A
  8
TOWNS
 10
645.75496602833584
 20
4684.892059937104
 30
0.0
  0
VERTEX
  5
1B1B
  8
TOWNS
 10
645.78318253517443
 20
4684.9528005808697
 30
0.0
  0
SEQEND
  5
1B1C
  8
TOWNS
  0
POLYLINE
  5
166
  8
TOWNS
 66
     1
 10
0.0
 20
0.0
 30
0.0
 70
     1
  0
VERTEX
  5
1B1D
  8
TOWNS
 10
645.8688308801826
 20
4679.9276374075844
 30
0.0
  0
VERTEX
  5
1B1E
  8
TOWNS
 10
645.49843810786854
 20
4679.4819209867483
 30
0.0
  0
VERTEX
  5
1B1F
  8
TOWNS
 10
645.54359431997852
 20
4679.4310358488674
 30
0.0
  0
VERTEX
  5
1B20
  8
TOWNS
 10
645.92042665449014
 20
4679.8652958452258
 30
0.0
  0
SEQEND
  5
1B21
  8
TOWNS
  0
POLYLINE
  5
167
  8
TOWNS
 66
     1
 10
0.0
 20
0.0
 30
0.0
 70
     1
  0
VERTEX
  5
1B22
  8
TOWNS
 10
646.31815793158808
 20
4673.7353366179277
 30
0.0
  0
VERTEX
  5
1B23
  8
TOWNS
 10
646.83958275891644
 20
4673.6345054420899
 30
0.0
  0
VERTEX
  5
1B24
  8
TOWNS
 10
646.85387090862957
 20
4673.6867680992609
 30
0.0
  0
VERTEX
  5
1B25
  8
TOWNS
 10
646.59103417420556
 20
4673.7852197375132
 30
0.0
  0
VERTEX
  5
1B26
  8
TOWNS
 10
646.32034567325127
 20
4673.8165624244693
 30
0.0
  0
SEQEND
  5
1B27
  8
TOWNS
  0
POLYLINE
  5
168
  8
TOWNS
 66
     1
 10
0.0
 20
0.0
 30
0.0
 70
     1
  0
VERTEX
  5
1B28
  8
TOWNS
 10
647.84212562462915
 20
4681.7940640423521
 30
0.0
  0
VERTEX
  5
1B29
  8
TOWNS
 10
647.57736887009321
 20
4682.0132091741661
 30
0.0
  0
VERTEX
  5
1B2A
  8
TOWNS
 10
647.31614419712957
 20
4681.3956603989363
 30
0.0
  0
VERTEX
  5
1B2B
  8
TOWNS
 10
647.45746932612394
 20
4681.2987324067726
 30
0.0
  0
SEQEND
  5
1B2C
  8
TOWNS
  0
POLYLINE
  5
169
  8
TOWNS
 66
     1
 10
0.0
 20
0.0
 30
0.0
 70
     1
  0
VERTEX
  5
1B2D
  8
TOWNS
 10
647.0812552622283
 20
4680.3642035527009
 30
0.0
  0
VERTEX
  5
1B2E
  8
TOWNS
 10
646.76290776314795
 20
4680.5878748393543
 30
0.0
  0
VERTEX
  5
1B2F
  8
TOWNS
 10
646.51116926795441
 20
4680.46607660683
 30
0.0
  0
VERTEX
  5
1B30
  8
TOWNS
 10
646.42312735247765
 20
4680.2830559348859
 30
0.0
  0
VERTEX
  5
1B31
  8
TOWNS
 10
646.40799528678258
 20
4680.0642233210892
 30
0.0
  0
VERTEX
  5
1B32
  8
TOWNS
 10
646.53150005483883
 20
4680.0075120755364
 30
0.0
  0
VERTEX
  5
1B33
  8
TOWNS
 10
646.65652850214292
 20
4679.9820633443778
 30
0.0
  0
SEQEND
  5
1B34
  8
TOWNS
  0
POLYLINE
  5
16A
  8
TOWNS
 66
     1
 10
0.0
 20
0.0
 30
0.0
 70
     1
  0
VERTEX
  5
1B35
  8
TOWNS
 10
646.96179806954467
 20
4678.8981645468984
 30
0.0
  0
VERTEX
  5
1B36
  8
TOWNS
 10
646.77581941969765
 20
4678.6782662492051
 30
0.0
  0
VERTEX
  5
1B37
  8
TOWNS
 10
646.64875555130698
 20
4678.6473453447798
 30
0.0
  0
VERTEX
  5
1B38
  8
TOWNS
 10
646.54380802748574
 20
4678.4210404182031
 30
0.0
  0
VERTEX
  5
1B39
  8
TOWNS
 10
646.63904332247012
 20
4678.3661343346603
 30
0.0
  0
VERTEX
  5
1B3A
  8
TOWNS
 10
646.7477596960523
 20
4678.5473418226238
 30
0.0
  0
VERTEX
  5
1B3B
  8
TOWNS
 10
646.82992482742497
 20
4678.5444136334709
 30
0.0
  0
VERTEX
  5
1B3C
  8
TOWNS
 10
646.94410194906425
 20
4678.5995460533759
 30
0.0
  0
VERTEX
  5
1B3D
  8
TOWNS
 10
647.04464337177365
 20
4678.7922693693017
 30
0.0
  0
SEQEND
  5
1B3E
  8
TOWNS
  0
POLYLINE
  5
16B
  8
TOWNS
 66
     1
 10
0.0
 20
0.0
 30
0.0
 70
     1
  0
VERTEX
  5
1B3F
  8
TOWNS
 10
647.71840951821844
 20
4680.3077397949819
 30
0.0
  0
VERTEX
  5
1B40
  8
TOWNS
 10
647.945264695378
 20
4680.1194931344398
 30
0.0
  0
VERTEX
  5
1B41
  8
TOWNS
 10
648.08978483609451
 20
4680.3101929954837
 30
0.0
  0
VERTEX
  5
1B42
  8
TOWNS
 10
647.98141823854553
 20
4680.4263324330486
 30
0.0
  0
SEQEND
  5
1B43
  8
TOWNS
  0
POLYLINE
  5
16C
  8
TOWNS
 66
     1
 10
0.0
 20
0.0
 30
0.0
 70
     1
  0
VERTEX
  5
1B44
  8
TOWNS
 10
647.94607790305452
 20
4673.3407354738301
 30
0.0
  0
VERTEX
  5
1B45
  8
TOWNS
 10
647.55073856021966
 20
4673.4630781310243
 30
0.0
  0
VERTEX
  5
1B46
  8
TOWNS
 10
647.55767544728735
 20
4673.6389853606852
 30
0.0
  0
VERTEX
  5
1B47
  8
TOWNS
 10
647.22004222981923
 20
4673.6078304775283
 30
0.0
  0
VERTEX
  5
1B48
  8
TOWNS
 10
647.22874921182324
 20
4673.3406249347654
 30
0.0
  0
SEQEND
  5
1B49
  8
TOWNS
  0
POLYLINE
  5
16D
  8
TOWNS
 66
     1
 10
0.0
 20
0.0
 30
0.0
 70
     1
  0
VERTEX
  5
1B4A
  8
TOWNS
 10
645.38330077783291
 20
4676.3273341981367
 30
0.0
  0
VERTEX
  5
1B4B
  8
TOWNS
 10
645.79092018554491
 20
4676.097473246371
 30
0.0
  0
VERTEX
  5
1B4C
  8
TOWNS
 10
645.91736972969159
 20
4676.0462443041597
 30
0.0
  0
VERTEX
  5
1B4D
  8
TOWNS
 10
646.04166119102331
 20
4676.1465658711122
 30
0.0
  0
VERTEX
  5
1B4E
  8
TOWNS
 10
646.0254441442637
 20
4676.3246341182967
 30
0.0
  0
VERTEX
  5
1B4F
  8
TOWNS
 10
645.85132345604075
 20
4676.4114146294623
 30
0.0
  0
VERTEX
  5
1B50
  8
TOWNS
 10
645.87228873757601
 20
4676.565431850916
 30
0.0
  0
VERTEX
  5
1B51
  8
TOWNS
 10
645.70077232429014
 20
4676.608264213547
 30
0.0
  0
VERTEX
  5
1B52
  8
TOWNS
 10
645.56838233577753
 20
4676.5078891500116
 30
0.0
  0
SEQEND
  5
1B53
  8
TOWNS
  0
POLYLINE
  5
16E
  8
TOWNS
 66
     1
 10
0.0
 20
0.0
 30
0.0
 70
     1
  0
VERTEX
  5
1B54
  8
TOWNS
 10
645.3482712741195
 20
4674.9745897488629
 30
0.0
  0
VERTEX
  5
1B55
  8
TOWNS
 10
645.33637039299037
 20
4674.8495569777242
 30
0.0
  0
VERTEX
  5
1B56
  8
TOWNS
 10
645.86006809931553
 20
4674.7373180831428
 30
0.0
  0
VERTEX
  5
1B57
  8
TOWNS
 10
645.82930768464405
 20
4674.840086369989
 30
0.0
  0
VERTEX
  5
1B58
  8
TOWNS
 10
645.63828390938522
 20
4674.8584932308031
 30
0.0
  0
VERTEX
  5
1B59
  8
TOWNS
 10
645.64189520410389
 20
4675.0123958167214
 30
0.0
  0
VERTEX
  5
1B5A
  8
TOWNS
 10
645.52961161706935
 20
4675.0209099665472
 30
0.0
  0
VERTEX
  5
1B5B
  8
TOWNS
 10
645.53003194737357
 20
4674.9572786815525
 30
0.0
  0
SEQEND
  5
1B5C
  8
TOWNS
  0
POLYLINE
  5
16F
  8
TOWNS
 66
     1
 10
0.0
 20
0.0
 30
0.0
 70
     1
  0
VERTEX
  5
1B5D
  8
TOWNS
 10
644.84688861396182
 20
4674.8613643774734
 30
0.0
  0
VERTEX
  5
1B5E
  8
TOWNS
 10
644.75052402128949
 20
4674.7369306458386
 30
0.0
  0
VERTEX
  5
1B5F
  8
TOWNS
 10
644.77326233247118
 20
4674.6225395378633
 30
0.0
  0
VERTEX
  5
1B60
  8
TOWNS
 10
644.84642420239129
 20
4674.5813714387623
 30
0.0
  0
VERTEX
  5
1B61
  8
TOWNS
 10
644.98626782436475
 20
4674.6042778820629
 30
0.0
  0
VERTEX
  5
1B62
  8
TOWNS
 10
645.09376612653921
 20
4674.7947331872947
 30
0.0
  0
VERTEX
  5
1B63
  8
TOWNS
 10
645.05695356667468
 20
4674.9379558982018
 30
0.0
  0
SEQEND
  5
1B64
  8
TOWNS
  0
POLYLINE
  5
170
  8
TOWNS
 66
     1
 10
0.0
 20
0.0
 30
0.0
 70
     1
  0
VERTEX
  5
1B65
  8
TOWNS
 10
644.968629357552
 20
4672.7205931446324
 30
0.0
  0
VERTEX
  5
1B66
  8
TOWNS
 10
645.06130916652455
 20
4672.8773980578853
 30
0.0
  0
VERTEX
  5
1B67
  8
TOWNS
 10
645.11351633198876
 20
4672.8557602478631
 30
0.0
  0
VERTEX
  5
1B68
  8
TOWNS
 10
645.16145025132676
 20
4672.95557741845
 30
0.0
  0
VERTEX
  5
1B69
  8
TOWNS
 10
645.12876573257415
 20
4672.9993268653816
 30
0.0
  0
VERTEX
  5
1B6A
  8
TOWNS
 10
645.16628725982241
 20
4673.0990752546459
 30
0.0
  0
VERTEX
  5
1B6B
  8
TOWNS
 10
644.98985270669039
 20
4673.18584048107
 30
0.0
  0
VERTEX
  5
1B6C
  8
TOWNS
 10
644.93044881360686
 20
4673.070906764885
 30
0.0
  0
VERTEX
  5
1B6D
  8
TOWNS
 10
644.82617204532369
 20
4673.0933576007474
 30
0.0
  0
VERTEX
  5
1B6E
  8
TOWNS
 10
644.73803590010812
 20
4672.9493095139724
 30
0.0
  0
VERTEX
  5
1B6F
  8
TOWNS
 10
644.89144643968871
 20
4672.8450374533477
 30
0.0
  0
VERTEX
  5
1B70
  8
TOWNS
 10
644.86866698195081
 20
4672.7905087806057
 30
0.0
  0
SEQEND
  5
1B71
  8
TOWNS
  0
POLYLINE
  5
171
  8
TOWNS
 66
     1
 10
0.0
 20
0.0
 30
0.0
 70
     1
  0
VERTEX
  5
1B72
  8
TOWNS
 10
644.04870935913505
 20
4682.2782162964222
 30
0.0
  0
VERTEX
  5
1B73
  8
TOWNS
 10
644.04549993944624
 20
4682.258342531467
 30
0.0
  0
VERTEX
  5
1B74
  8
TOWNS
 10
643.93790364547874
 20
4682.2404776427602
 30
0.0
  0
VERTEX
  5
1B75
  8
TOWNS
 10
643.92179994329945
 20
4682.1557236217186
 30
0.0
  0
VERTEX
  5
1B76
  8
TOWNS
 10
644.01648385804413
 20
4682.1036984549219
 30
0.0
  0
VERTEX
  5
1B77
  8
TOWNS
 10
644.03214501061154
 20
4682.0512963508063
 30
0.0
  0
VERTEX
  5
1B78
  8
TOWNS
 10
644.36358331202291
 20
4682.083896555303
 30
0.0
  0
VERTEX
  5
1B79
  8
TOWNS
 10
644.36509878581035
 20
4682.4029267771421
 30
0.0
  0
VERTEX
  5
1B7A
  8
TOWNS
 10
644.04862951236328
 20
4682.3745882449421
 30
0.0
  0
SEQEND
  5
1B7B
  8
TOWNS
  0
POLYLINE
  5
172
  8
TOWNS
 66
     1
 10
0.0
 20
0.0
 30
0.0
 70
     1
  0
VERTEX
  5
1B7C
  8
TOWNS
 10
644.28630320676348
 20
4671.736681969458
 30
0.0
  0
VERTEX
  5
1B7D
  8
TOWNS
 10
644.38466173163022
 20
4671.7338045463657
 30
0.0
  0
VERTEX
  5
1B7E
  8
TOWNS
 10
644.44468621830254
 20
4671.867138974003
 30
0.0
  0
VERTEX
  5
1B7F
  8
TOWNS
 10
644.43362293780012
 20
4671.9284216349688
 30
0.0
  0
VERTEX
  5
1B80
  8
TOWNS
 10
644.44609405482845
 20
4671.9670091104072
 30
0.0
  0
VERTEX
  5
1B81
  8
TOWNS
 10
644.42887926575384
 20
4672.0149604298576
 30
0.0
  0
VERTEX
  5
1B82
  8
TOWNS
 10
644.33845573588985
 20
4671.9461630235992
 30
0.0
  0
VERTEX
  5
1B83
  8
TOWNS
 10
644.29524937590224
 20
4671.9482629847262
 30
0.0
  0
VERTEX
  5
1B84
  8
TOWNS
 10
644.27509412628012
 20
4671.8933839821602
 30
0.0
  0
VERTEX
  5
1B85
  8
TOWNS
 10
644.22309125938625
 20
4671.906044211556
 30
0.0
  0
VERTEX
  5
1B86
  8
TOWNS
 10
644.20700856969256
 20
4671.8227807895673
 30
0.0
  0
VERTEX
  5
1B87
  8
TOWNS
 10
644.26755579366727
 20
4671.7816731032917
 30
0.0
  0
SEQEND
  5
1B88
  8
TOWNS
  0
POLYLINE
  5
173
  8
TOWNS
 66
     1
 10
0.0
 20
0.0
 30
0.0
 70
     1
  0
VERTEX
  5
1B89
  8
TOWNS
 10
644.45864540552668
 20
4676.8763502590973
 30
0.0
  0
VERTEX
  5
1B8A
  8
TOWNS
 10
644.40876222483041
 20
4676.8278539024404
 30
0.0
  0
VERTEX
  5
1B8B
  8
TOWNS
 10
644.33383432248434
 20
4676.906436689841
 30
0.0
  0
VERTEX
  5
1B8C
  8
TOWNS
 10
644.42724162528395
 20
4677.1868991613119
 30
0.0
  0
VERTEX
  5
1B8D
  8
TOWNS
 10
644.33833099437322
 20
4677.2254248867093
 30
0.0
  0
VERTEX
  5
1B8E
  8
TOWNS
 10
644.20973766394775
 20
4676.987203488311
 30
0.0
  0
VERTEX
  5
1B8F
  8
TOWNS
 10
644.12813036605871
 20
4676.8034828677419
 30
0.0
  0
VERTEX
  5
1B90
  8
TOWNS
 10
644.16890056514956
 20
4676.7343269618141
 30
0.0
  0
VERTEX
  5
1B91
  8
TOWNS
 10
644.2920332241888
 20
4676.79669969719
 30
0.0
  0
VERTEX
  5
1B92
  8
TOWNS
 10
644.35493127170139
 20
4676.7108320144189
 30
0.0
  0
VERTEX
  5
1B93
  8
TOWNS
 10
644.31510405962206
 20
4676.6353577874534
 30
0.0
  0
VERTEX
  5
1B94
  8
TOWNS
 10
644.27359713612327
 20
4676.5464891815127
 30
0.0
  0
VERTEX
  5
1B95
  8
TOWNS
 10
644.38152834244136
 20
4676.4823501099409
 30
0.0
  0
VERTEX
  5
1B96
  8
TOWNS
 10
644.46435178965316
 20
4676.5408183852724
 30
0.0
  0
VERTEX
  5
1B97
  8
TOWNS
 10
644.54008458587634
 20
4676.6781988054026
 30
0.0
  0
VERTEX
  5
1B98
  8
TOWNS
 10
644.97082569250836
 20
4677.4123063500401
 30
0.0
  0
VERTEX
  5
1B99
  8
TOWNS
 10
644.62749220711328
 20
4677.566323909331
 30
0.0
  0
VERTEX
  5
1B9A
  8
TOWNS
 10
644.56381681123435
 20
4677.4540319007319
 30
0.0
  0
VERTEX
  5
1B9B
  8
TOWNS
 10
644.731482561642
 20
4677.3460967905212
 30
0.0
  0
VERTEX
  5
1B9C
  8
TOWNS
 10
644.49868522073905
 20
4676.9719544280706
 30
0.0
  0
SEQEND
  5
1B9D
  8
TOWNS
  0
POLYLINE
  5
174
  8
TOWNS
 66
     1
 10
0.0
 20
0.0
 30
0.0
 70
     1
  0
VERTEX
  5
1B9E
  8
TOWNS
 10
643.83708114231149
 20
4688.5200588312782
 30
0.0
  0
VERTEX
  5
1B9F
  8
TOWNS
 10
643.86437291248865
 20
4688.4466202405683
 30
0.0
  0
VERTEX
  5
1BA0
  8
TOWNS
 10
643.95693714103584
 20
4688.4557516598243
 30
0.0
  0
VERTEX
  5
1BA1
  8
TOWNS
 10
643.98286309965795
 20
4688.2854241308096
 30
0.0
  0
VERTEX
  5
1BA2
  8
TOWNS
 10
643.92510667399836
 20
4688.2072208555664
 30
0.0
  0
VERTEX
  5
1BA3
  8
TOWNS
 10
644.12631653336939
 20
4688.2028935709759
 30
0.0
  0
VERTEX
  5
1BA4
  8
TOWNS
 10
644.17349296569205
 20
4688.3766632853558
 30
0.0
  0
VERTEX
  5
1BA5
  8
TOWNS
 10
644.12218351081845
 20
4688.4385132834277
 30
0.0
  0
VERTEX
  5
1BA6
  8
TOWNS
 10
644.13528500241068
 20
4688.5218187303881
 30
0.0
  0
VERTEX
  5
1BA7
  8
TOWNS
 10
644.07849643849966
 20
4688.6180365565733
 30
0.0
  0
SEQEND
  5
1BA8
  8
TOWNS
  0
POLYLINE
  5
175
  8
TOWNS
 66
     1
 10
0.0
 20
0.0
 30
0.0
 70
     1
  0
VERTEX
  5
1BA9
  8
TOWNS
 10
644.01430296506055
 20
4671.3865498753621
 30
0.0
  0
VERTEX
  5
1BAA
  8
TOWNS
 10
643.99201027709159
 20
4671.2669168733091
 30
0.0
  0
VERTEX
  5
1BAB
  8
TOWNS
 10
644.25470902598545
 20
4671.1420858909523
 30
0.0
  0
VERTEX
  5
1BAC
  8
TOWNS
 10
644.53298620271346
 20
4671.420230755688
 30
0.0
  0
VERTEX
  5
1BAD
  8
TOWNS
 10
644.46963685760545
 20
4671.473099398775
 30
0.0
  0
VERTEX
  5
1BAE
  8
TOWNS
 10
644.25105525771585
 20
4671.5328745604183
 30
0.0
  0
VERTEX
  5
1BAF
  8
TOWNS
 10
644.17730685803042
 20
4671.3558777910339
 30
0.0
  0
SEQEND
  5
1BB0
  8
TOWNS
  0
POLYLINE
  5
176
  8
TOWNS
 66
     1
 10
0.0
 20
0.0
 30
0.0
 70
     1
  0
VERTEX
  5
1BB1
  8
TOWNS
 10
643.90446641602045
 20
4671.0047090836852
 30
0.0
  0
VERTEX
  5
1BB2
  8
TOWNS
 10
643.82043369801875
 20
4670.9290154539776
 30
0.0
  0
VERTEX
  5
1BB3
  8
TOWNS
 10
643.85995959356535
 20
4670.7594771401727
 30
0.0
  0
VERTEX
  5
1BB4
  8
TOWNS
 10
644.02398468181104
 20
4670.6512478435679
 30
0.0
  0
VERTEX
  5
1BB5
  8
TOWNS
 10
644.18724181095786
 20
4670.82793143034
 30
0.0
  0
SEQEND
  5
1BB6
  8
TOWNS
  0
POLYLINE
  5
177
  8
TOWNS
 66
     1
 10
0.0
 20
0.0
 30
0.0
 70
     1
  0
VERTEX
  5
1BB7
  8
TOWNS
 10
644.02037418575117
 20
4664.1278062856691
 30
0.0
  0
VERTEX
  5
1BB8
  8
TOWNS
 10
644.19880249355322
 20
4664.1719244659953
 30
0.0
  0
VERTEX
  5
1BB9
  8
TOWNS
 10
644.28601662760673
 20
4664.0059975497561
 30
0.0
  0
VERTEX
  5
1BBA
  8
TOWNS
 10
644.06633734160016
 20
4663.9225508889131
 30
0.0
  0
SEQEND
  5
1BBB
  8
TOWNS
  0
POLYLINE
  5
178
  8
TOWNS
 66
     1
 10
0.0
 20
0.0
 30
0.0
 70
     1
  0
VERTEX
  5
1BBC
  8
TOWNS
 10
645.85911545387432
 20
4674.1901653497689
 30
0.0
  0
VERTEX
  5
1BBD
  8
TOWNS
 10
645.86260150584064
 20
4674.2493842302993
 30
0.0
  0
VERTEX
  5
1BBE
  8
TOWNS
 10
645.6987568176271
 20
4674.3155700627749
 30
0.0
  0
VERTEX
  5
1BBF
  8
TOWNS
 10
645.70572892155951
 20
4674.2354503967426
 30
0.0
  0
SEQEND
  5
1BC0
  8
TOWNS
  0
POLYLINE
  5
179
  8
TOWNS
 66
     1
 10
0.0
 20
0.0
 30
0.0
 70
     1
  0
VERTEX
  5
1BC1
  8
TOWNS
 10
645.74376590244208
 20
4700.6765450206194
 30
0.0
  0
VERTEX
  5
1BC2
  8
TOWNS
 10
645.89227619173971
 20
4700.7545770808456
 30
0.0
  0
VERTEX
  5
1BC3
  8
TOWNS
 10
645.85976661450866
 20
4700.8468466119512
 30
0.0
  0
VERTEX
  5
1BC4
  8
TOWNS
 10
645.69469084843183
 20
4700.7790751385046
 30
0.0
  0
SEQEND
  5
1BC5
  8
TOWNS
  0
POLYLINE
  5
17A
  8
TOWNS
 66
     1
 10
0.0
 20
0.0
 30
0.0
 70
     1
  0
VERTEX
  5
1BC6
  8
TOWNS
 10
645.43757336804765
 20
4698.8180199904746
 30
0.0
  0
VERTEX
  5
1BC7
  8
TOWNS
 10
645.55874534273187
 20
4698.8090325319199
 30
0.0
  0
VERTEX
  5
1BC8
  8
TOWNS
 10
645.77268391178472
 20
4699.0373208858737
 30
0.0
  0
VERTEX
  5
1BC9
  8
TOWNS
 10
645.77943130240703
 20
4699.219744193213
 30
0.0
  0
VERTEX
  5
1BCA
  8
TOWNS
 10
645.56597160907245
 20
4699.1977164530781
 30
0.0
  0
VERTEX
  5
1BCB
  8
TOWNS
 10
645.48758798594861
 20
4699.1295054787661
 30
0.0
  0
VERTEX
  5
1BCC
  8
TOWNS
 10
645.42750065624512
 20
4699.0316251841768
 30
0.0
  0
SEQEND
  5
1BCD
  8
TOWNS
  0
POLYLINE
  5
17B
  8
TOWNS
 66
     1
 10
0.0
 20
0.0
 30
0.0
 70
     1
  0
VERTEX
  5
1BCE
  8
TOWNS
 10
645.26518209879328
 20
4691.7374967724681
 30
0.0
  0
VERTEX
  5
1BCF
  8
TOWNS
 10
645.40501711757975
 20
4691.7915096507541
 30
0.0
  0
VERTEX
  5
1BD0
  8
TOWNS
 10
645.41620226945531
 20
4691.6093045939697
 30
0.0
  0
VERTEX
  5
1BD1
  8
TOWNS
 10
645.28662783745199
 20
4691.5718571924617
 30
0.0
  0
SEQEND
  5
1BD2
  8
TOWNS
  0
POLYLINE
  5
17C
  8
TOWNS
 66
     1
 10
0.0
 20
0.0
 30
0.0
 70
     1
  0
VERTEX
  5
1BD3
  8
TOWNS
 10
644.20265157997585
 20
4692.0952258681064
 30
0.0
  0
VERTEX
  5
1BD4
  8
TOWNS
 10
644.34961592785328
 20
4692.3002801043613
 30
0.0
  0
VERTEX
  5
1BD5
  8
TOWNS
 10
644.37500817503189
 20
4692.547198127083
 30
0.0
  0
VERTEX
  5
1BD6
  8
TOWNS
 10
644.46895396013883
 20
4692.5647821064467
 30
0.0
  0
VERTEX
  5
1BD7
  8
TOWNS
 10
644.49069069953555
 20
4692.3752324697762
 30
0.0
  0
VERTEX
  5
1BD8
  8
TOWNS
 10
644.56654025422949
 20
4692.4060476054583
 30
0.0
  0
VERTEX
  5
1BD9
  8
TOWNS
 10
644.6077614770636
 20
4692.3348084992122
 30
0.0
  0
VERTEX
  5
1BDA
  8
TOWNS
 10
644.55911692464099
 20
4692.1563590762053
 30
0.0
  0
VERTEX
  5
1BDB
  8
TOWNS
 10
644.2763823800409
 20
4691.9317172307537
 30
0.0
  0
SEQEND
  5
1BDC
  8
TOWNS
  0
POLYLINE
  5
17D
  8
TOWNS
 66
     1
 10
0.0
 20
0.0
 30
0.0
 70
     1
  0
VERTEX
  5
1BDD
  8
TOWNS
 10
645.63671197521228
 20
4693.7537499890441
 30
0.0
  0
VERTEX
  5
1BDE
  8
TOWNS
 10
645.41886008398399
 20
4693.7241957935639
 30
0.0
  0
VERTEX
  5
1BDF
  8
TOWNS
 10
645.30907013543504
 20
4694.1488205496617
 30
0.0
  0
VERTEX
  5
1BE0
  8
TOWNS
 10
645.51485787305455
 20
4694.1871955160213
 30
0.0
  0
VERTEX
  5
1BE1
  8
TOWNS
 10
645.54897095410365
 20
4694.0859779012153
 30
0.0
  0
VERTEX
  5
1BE2
  8
TOWNS
 10
645.6043538978696
 20
4694.0791789477144
 30
0.0
  0
SEQEND
  5
1BE3
  8
TOWNS
  0
POLYLINE
  5
17E
  8
TOWNS
 66
     1
 10
0.0
 20
0.0
 30
0.0
 70
     1
  0
VERTEX
  5
1BE4
  8
TOWNS
 10
645.05972716955853
 20
4694.1278506869621
 30
0.0
  0
VERTEX
  5
1BE5
  8
TOWNS
 10
645.00200722061015
 20
4693.958258409928
 30
0.0
  0
VERTEX
  5
1BE6
  8
TOWNS
 10
645.07475289342494
 20
4693.7528889858686
 30
0.0
  0
VERTEX
  5
1BE7
  8
TOWNS
 10
645.13693179093241
 20
4693.6789157481853
 30
0.0
  0
VERTEX
  5
1BE8
  8
TOWNS
 10
645.23528496171969
 20
4693.5799745764007
 30
0.0
  0
VERTEX
  5
1BE9
  8
TOWNS
 10
645.28550883089508
 20
4693.505855838348
 30
0.0
  0
VERTEX
  5
1BEA
  8
TOWNS
 10
645.35135242445165
 20
4693.4991841976716
 30
0.0
  0
VERTEX
  5
1BEB
  8
TOWNS
 10
645.3814976206869
 20
4693.60118387696
 30
0.0
  0
VERTEX
  5
1BEC
  8
TOWNS
 10
645.43788387924894
 20
4693.6347513316277
 30
0.0
  0
VERTEX
  5
1BED
  8
TOWNS
 10
645.43688356421239
 20
4693.71694215141
 30
0.0
  0
VERTEX
  5
1BEE
  8
TOWNS
 10
645.30036767809895
 20
4693.7586240624159
 30
0.0
  0
VERTEX
  5
1BEF
  8
TOWNS
 10
645.25169275010308
 20
4693.828277852389
 30
0.0
  0
VERTEX
  5
1BF0
  8
TOWNS
 10
645.24515442176732
 20
4693.9970880649416
 30
0.0
  0
VERTEX
  5
1BF1
  8
TOWNS
 10
645.30926719868273
 20
4694.0098251577547
 30
0.0
  0
VERTEX
  5
1BF2
  8
TOWNS
 10
645.30083136603071
 20
4694.0889362827247
 30
0.0
  0
SEQEND
  5
1BF3
  8
TOWNS
  0
POLYLINE
  5
17F
  8
TOWNS
 66
     1
 10
0.0
 20
0.0
 30
0.0
 70
     1
  0
VERTEX
  5
1BF4
  8
TOWNS
 10
645.00295616175617
 20
4693.266270207484
 30
0.0
  0
VERTEX
  5
1BF5
  8
TOWNS
 10
645.05357396843885
 20
4693.6509984318564
 30
0.0
  0
VERTEX
  5
1BF6
  8
TOWNS
 10
645.17019005731368
 20
4693.6479339248281
 30
0.0
  0
VERTEX
  5
1BF7
  8
TOWNS
 10
645.33110106431752
 20
4693.3210803380416
 30
0.0
  0
SEQEND
  5
1BF8
  8
TOWNS
  0
POLYLINE
  5
180
  8
TOWNS
 66
     1
 10
0.0
 20
0.0
 30
0.0
 70
     1
  0
VERTEX
  5
1BF9
  8
TOWNS
 10
646.18829815619176
 20
4694.3612923049741
 30
0.0
  0
VERTEX
  5
1BFA
  8
TOWNS
 10
646.21593965957015
 20
4694.1777929326563
 30
0.0
  0
VERTEX
  5
1BFB
  8
TOWNS
 10
646.00583247424095
 20
4694.1259139967824
 30
0.0
  0
VERTEX
  5
1BFC
  8
TOWNS
 10
645.92075902289275
 20
4693.9933538074556
 30
0.0
  0
VERTEX
  5
1BFD
  8
TOWNS
 10
645.87998948895176
 20
4693.904676222216
 30
0.0
  0
VERTEX
  5
1BFE
  8
TOWNS
 10
645.7603452681418
 20
4693.7881358832838
 30
0.0
  0
VERTEX
  5
1BFF
  8
TOWNS
 10
645.6823283957001
 20
4693.8125945660922
 30
0.0
  0
VERTEX
  5
1C00
  8
TOWNS
 10
645.66547191818279
 20
4693.8467652095378
 30
0.0
  0
VERTEX
  5
1C01
  8
TOWNS
 10
645.67196168339956
 20
4693.9275525885123
 30
0.0
  0
VERTEX
  5
1C02
  8
TOWNS
 10
645.6888393482227
 20
4694.0144447944713
 30
0.0
  0
VERTEX
  5
1C03
  8
TOWNS
 10
645.77868393617359
 20
4694.0005922618229
 30
0.0
  0
VERTEX
  5
1C04
  8
TOWNS
 10
645.8019756162696
 20
4694.0516921329718
 30
0.0
  0
VERTEX
  5
1C05
  8
TOWNS
 10
645.88320249610763
 20
4694.1318945107059
 30
0.0
  0
VERTEX
  5
1C06
  8
TOWNS
 10
645.80686187766855
 20
4694.1414275956467
 30
0.0
  0
VERTEX
  5
1C07
  8
TOWNS
 10
645.57871302456465
 20
4694.0982966804677
 30
0.0
  0
VERTEX
  5
1C08
  8
TOWNS
 10
645.55764922437447
 20
4694.2325543111037
 30
0.0
  0
VERTEX
  5
1C09
  8
TOWNS
 10
645.82888042953584
 20
4694.2971339647002
 30
0.0
  0
VERTEX
  5
1C0A
  8
TOWNS
 10
646.09294893027402
 20
4694.3362182453593
 30
0.0
  0
SEQEND
  5
1C0B
  8
TOWNS
  0
POLYLINE
  5
181
  8
TOWNS
 66
     1
 10
0.0
 20
0.0
 30
0.0
 70
     1
  0
VERTEX
  5
1C0C
  8
TOWNS
 10
647.76792902473824
 20
4694.3745390270578
 30
0.0
  0
VERTEX
  5
1C0D
  8
TOWNS
 10
648.02929976913128
 20
4694.3896768759596
 30
0.0
  0
VERTEX
  5
1C0E
  8
TOWNS
 10
648.01305566866256
 20
4694.127924193097
 30
0.0
  0
VERTEX
  5
1C0F
  8
TOWNS
 10
647.51952881150044
 20
4694.1533042522497
 30
0.0
  0
VERTEX
  5
1C10
  8
TOWNS
 10
647.53250234241511
 20
4694.0697645542959
 30
0.0
  0
VERTEX
  5
1C11
  8
TOWNS
 10
647.40557110411839
 20
4694.0607467201671
 30
0.0
  0
VERTEX
  5
1C12
  8
TOWNS
 10
647.38401324042331
 20
4694.1127953434743
 30
0.0
  0
VERTEX
  5
1C13
  8
TOWNS
 10
647.25857638066805
 20
4694.1037956968939
 30
0.0
  0
VERTEX
  5
1C14
  8
TOWNS
 10
647.21998016399448
 20
4694.2049587490628
 30
0.0
  0
VERTEX
  5
1C15
  8
TOWNS
 10
647.00826947484745
 20
4694.1620278968931
 30
0.0
  0
VERTEX
  5
1C16
  8
TOWNS
 10
646.85786468099366
 20
4694.1168539770306
 30
0.0
  0
VERTEX
  5
1C17
  8
TOWNS
 10
646.61632098365476
 20
4694.0690762383138
 30
0.0
  0
VERTEX
  5
1C18
  8
TOWNS
 10
646.47147539040634
 20
4694.0583457750927
 30
0.0
  0
VERTEX
  5
1C19
  8
TOWNS
 10
646.44534645311546
 20
4694.2403689564171
 30
0.0
  0
VERTEX
  5
1C1A
  8
TOWNS
 10
646.64405023601546
 20
4694.4923854915742
 30
0.0
  0
VERTEX
  5
1C1B
  8
TOWNS
 10
646.77849274187156
 20
4694.6210627342971
 30
0.0
  0
VERTEX
  5
1C1C
  8
TOWNS
 10
647.22800968212425
 20
4694.650447242343
 30
0.0
  0
VERTEX
  5
1C1D
  8
TOWNS
 10
647.46242405037231
 20
4694.5471836230899
 30
0.0
  0
VERTEX
  5
1C1E
  8
TOWNS
 10
647.70872369652739
 20
4694.5726002463234
 30
0.0
  0
SEQEND
  5
1C1F
  8
TOWNS
  0
POLYLINE
  5
182
  8
TOWNS
 66
     1
 10
0.0
 20
0.0
 30
0.0
 70
     1
  0
VERTEX
  5
1C20
  8
TOWNS
 10
644.24380064615093
 20
4690.810852043197
 30
0.0
  0
VERTEX
  5
1C21
  8
TOWNS
 10
644.56715276516366
 20
4690.8592823293156
 30
0.0
  0
VERTEX
  5
1C22
  8
TOWNS
 10
644.65181455040522
 20
4690.5820152639426
 30
0.0
  0
VERTEX
  5
1C23
  8
TOWNS
 10
644.22611681606065
 20
4690.4446283311763
 30
0.0
  0
SEQEND
  5
1C24
  8
TOWNS
  0
POLYLINE
  5
183
  8
TOWNS
 66
     1
 10
0.0
 20
0.0
 30
0.0
 70
     1
  0
VERTEX
  5
1C25
  8
TOWNS
 10
643.38243858586134
 20
4691.4434382339741
 30
0.0
  0
VERTEX
  5
1C26
  8
TOWNS
 10
643.00807244929615
 20
4691.1567358933107
 30
0.0
  0
VERTEX
  5
1C27
  8
TOWNS
 10
642.92776873414675
 20
4691.2391632058698
 30
0.0
  0
VERTEX
  5
1C28
  8
TOWNS
 10
643.30378985776179
 20
4691.5676637131837
 30
0.0
  0
SEQEND
  5
1C29
  8
TOWNS
  0
POLYLINE
  5
184
  8
TOWNS
 66
     1
 10
0.0
 20
0.0
 30
0.0
 70
     1
  0
VERTEX
  5
1C2A
  8
TOWNS
 10
642.75517372024899
 20
4694.4752078673764
 30
0.0
  0
VERTEX
  5
1C2B
  8
TOWNS
 10
643.00361889336034
 20
4694.6310123252897
 30
0.0
  0
VERTEX
  5
1C2C
  8
TOWNS
 10
643.33933523612097
 20
4694.5759626916069
 30
0.0
  0
VERTEX
  5
1C2D
  8
TOWNS
 10
643.36565960050325
 20
4694.4340237189372
 30
0.0
  0
VERTEX
  5
1C2E
  8
TOWNS
 10
642.85327770855213
 20
4694.3628511653696
 30
0.0
  0
SEQEND
  5
1C2F
  8
TOWNS
  0
POLYLINE
  5
185
  8
TOWNS
 66
     1
 10
0.0
 20
0.0
 30
0.0
 70
     1
  0
VERTEX
  5
1C30
  8
TOWNS
 10
643.28738381762162
 20
4697.7368888285282
 30
0.0
  0
VERTEX
  5
1C31
  8
TOWNS
 10
642.91958556143959
 20
4697.6039421699261
 30
0.0
  0
VERTEX
  5
1C32
  8
TOWNS
 10
642.89958648180846
 20
4697.451731553967
 30
0.0
  0
VERTEX
  5
1C33
  8
TOWNS
 10
643.42979178816563
 20
4697.4989467112273
 30
0.0
  0
SEQEND
  5
1C34
  8
TOWNS
  0
POLYLINE
  5
186
  8
TOWNS
 66
     1
 10
0.0
 20
0.0
 30
0.0
 70
     1
  0
VERTEX
  5
1C35
  8
TOWNS
 10
643.53882309771325
 20
4695.5829786576887
 30
0.0
  0
VERTEX
  5
1C36
  8
TOWNS
 10
643.81197814534801
 20
4695.5654969642692
 30
0.0
  0
VERTEX
  5
1C37
  8
TOWNS
 10
643.81116820152045
 20
4695.3564772044301
 30
0.0
  0
VERTEX
  5
1C38
  8
TOWNS
 10
643.55448241752026
 20
4695.3858392456814
 30
0.0
  0
SEQEND
  5
1C39
  8
TOWNS
  0
POLYLINE
  5
187
  8
TOWNS
 66
     1
 10
0.0
 20
0.0
 30
0.0
 70
     1
  0
VERTEX
  5
1C3A
  8
TOWNS
 10
643.03454950205082
 20
4700.3013850982488
 30
0.0
  0
VERTEX
  5
1C3B
  8
TOWNS
 10
643.12705754256399
 20
4700.2860964259953
 30
0.0
  0
VERTEX
  5
1C3C
  8
TOWNS
 10
643.14562147704135
 20
4700.453242810112
 30
0.0
  0
VERTEX
  5
1C3D
  8
TOWNS
 10
643.02772668037699
 20
4700.4671368344034
 30
0.0
  0
SEQEND
  5
1C3E
  8
TOWNS
  0
POLYLINE
  5
188
  8
TOWNS
 66
     1
 10
0.0
 20
0.0
 30
0.0
 70
     1
  0
VERTEX
  5
1C3F
  8
TOWNS
 10
646.99130132556115
 20
4689.8266273092386
 30
0.0
  0
VERTEX
  5
1C40
  8
TOWNS
 10
646.99846226403508
 20
4689.56615051066
 30
0.0
  0
VERTEX
  5
1C41
  8
TOWNS
 10
647.24359990509015
 20
4689.6024906242228
 30
0.0
  0
VERTEX
  5
1C42
  8
TOWNS
 10
647.32431125320352
 20
4689.8009741554406
 30
0.0
  0
VERTEX
  5
1C43
  8
TOWNS
 10
647.21609571811211
 20
4689.8667165526658
 30
0.0
  0
SEQEND
  5
1C44
  8
TOWNS
  0
POLYLINE
  5
189
  8
TOWNS
 66
     1
 10
0.0
 20
0.0
 30
0.0
 70
     1
  0
VERTEX
  5
1C45
  8
TOWNS
 10
638.85722924502522
 20
4695.8633247521084
 30
0.0
  0
VERTEX
  5
1C46
  8
TOWNS
 10
638.61622615779993
 20
4695.8486908369559
 30
0.0
  0
VERTEX
  5
1C47
  8
TOWNS
 10
638.50082492382546
 20
4695.7173684586469
 30
0.0
  0
VERTEX
  5
1C48
  8
TOWNS
 10
638.6206469527491
 20
4695.6216524302599
 30
0.0
  0
VERTEX
  5
1C49
  8
TOWNS
 10
638.72058215856555
 20
4695.5901189099177
 30
0.0
  0
VERTEX
  5
1C4A
  8
TOWNS
 10
638.90745151425961
 20
4695.6325923900931
 30
0.0
  0
VERTEX
  5
1C4B
  8
TOWNS
 10
638.95734573718266
 20
4695.7637402591199
 30
0.0
  0
SEQEND
  5
1C4C
  8
TOWNS
  0
POLYLINE
  5
18A
  8
TOWNS
 66
     1
 10
0.0
 20
0.0
 30
0.0
 70
     1
  0
VERTEX
  5
1C4D
  8
TOWNS
 10
641.03805291417882
 20
4699.9229659892344
 30
0.0
  0
VERTEX
  5
1C4E
  8
TOWNS
 10
640.54851312230778
 20
4699.8567903846342
 30
0.0
  0
VERTEX
  5
1C4F
  8
TOWNS
 10
640.20880784197095
 20
4699.8883211575203
 30
0.0
  0
VERTEX
  5
1C50
  8
TOWNS
 10
640.24918867608051
 20
4699.7707696724738
 30
0.0
  0
VERTEX
  5
1C51
  8
TOWNS
 10
640.51525969416889
 20
4699.6862551617833
 30
0.0
  0
VERTEX
  5
1C52
  8
TOWNS
 10
640.80969444619723
 20
4699.6978514431921
 30
0.0
  0
VERTEX
  5
1C53
  8
TOWNS
 10
641.09431656560344
 20
4699.8118167647963
 30
0.0
  0
SEQEND
  5
1C54
  8
TOWNS
  0
POLYLINE
  5
18B
  8
TOWNS
 66
     1
 10
0.0
 20
0.0
 30
0.0
 70
     1
  0
VERTEX
  5
1C55
  8
TOWNS
 10
638.83512975779115
 20
4698.6680034416449
 30
0.0
  0
VERTEX
  5
1C56
  8
TOWNS
 10
638.56920614074625
 20
4698.6971867876609
 30
0.0
  0
VERTEX
  5
1C57
  8
TOWNS
 10
638.54936103318812
 20
4698.5069714420206
 30
0.0
  0
VERTEX
  5
1C58
  8
TOWNS
 10
638.82605921318122
 20
4698.4918086872731
 30
0.0
  0
SEQEND
  5
1C59
  8
TOWNS
  0
POLYLINE
  5
18C
  8
TOWNS
 66
     1
 10
0.0
 20
0.0
 30
0.0
 70
     1
  0
VERTEX
  5
1C5A
  8
TOWNS
 10
637.60044472002721
 20
4671.5646454919988
 30
0.0
  0
VERTEX
  5
1C5B
  8
TOWNS
 10
637.59871860604835
 20
4671.4691511847623
 30
0.0
  0
VERTEX
  5
1C5C
  8
TOWNS
 10
637.31682900043415
 20
4671.3520670456146
 30
0.0
  0
VERTEX
  5
1C5D
  8
TOWNS
 10
637.18671632767996
 20
4671.3772052346922
 30
0.0
  0
VERTEX
  5
1C5E
  8
TOWNS
 10
637.14083275663495
 20
4671.4631222049602
 30
0.0
  0
VERTEX
  5
1C5F
  8
TOWNS
 10
637.17686516639151
 20
4671.572226180675
 30
0.0
  0
VERTEX
  5
1C60
  8
TOWNS
 10
637.18456272926005
 20
4671.6936669288407
 30
0.0
  0
VERTEX
  5
1C61
  8
TOWNS
 10
637.29398582204567
 20
4671.7353603898737
 30
0.0
  0
VERTEX
  5
1C62
  8
TOWNS
 10
637.27645713310642
 20
4671.8668062686547
 30
0.0
  0
VERTEX
  5
1C63
  8
TOWNS
 10
637.44573532526363
 20
4671.924055819828
 30
0.0
  0
VERTEX
  5
1C64
  8
TOWNS
 10
637.64488853589353
 20
4671.9853569184461
 30
0.0
  0
VERTEX
  5
1C65
  8
TOWNS
 10
637.68903917030957
 20
4671.9444803695123
 30
0.0
  0
VERTEX
  5
1C66
  8
TOWNS
 10
637.69514736649376
 20
4671.8489769678326
 30
0.0
  0
VERTEX
  5
1C67
  8
TOWNS
 10
637.76379897277195
 20
4671.8539727897059
 30
0.0
  0
VERTEX
  5
1C68
  8
TOWNS
 10
637.8063959706808
 20
4671.8086454561044
 30
0.0
  0
VERTEX
  5
1C69
  8
TOWNS
 10
637.82938404358924
 20
4671.7471946952528
 30
0.0
  0
VERTEX
  5
1C6A
  8
TOWNS
 10
637.75103239352995
 20
4671.6886633824661
 30
0.0
  0
VERTEX
  5
1C6B
  8
TOWNS
 10
637.74618237163929
 20
4671.6618956370075
 30
0.0
  0
VERTEX
  5
1C6C
  8
TOWNS
 10
637.67119014441982
 20
4671.6301530821647
 30
0.0
  0
SEQEND
  5
1C6D
  8
TOWNS
  0
POLYLINE
  5
18D
  8
TOWNS
 66
     1
 10
0.0
 20
0.0
 30
0.0
 70
     1
  0
VERTEX
  5
1C6E
  8
TOWNS
 10
636.76484302202243
 20
4687.185512613145
 30
0.0
  0
VERTEX
  5
1C6F
  8
TOWNS
 10
636.80966476855633
 20
4687.0864816887433
 30
0.0
  0
VERTEX
  5
1C70
  8
TOWNS
 10
637.07774274777466
 20
4687.1721563968931
 30
0.0
  0
VERTEX
  5
1C71
  8
TOWNS
 10
637.10847799073406
 20
4687.1314689603259
 30
0.0
  0
VERTEX
  5
1C72
  8
TOWNS
 10
637.19696965935248
 20
4687.1689847990046
 30
0.0
  0
VERTEX
  5
1C73
  8
TOWNS
 10
637.19377962381327
 20
4687.2599743785577
 30
0.0
  0
VERTEX
  5
1C74
  8
TOWNS
 10
637.29684108317213
 20
4687.273430507571
 30
0.0
  0
VERTEX
  5
1C75
  8
TOWNS
 10
637.33221622316739
 20
4687.2446048259553
 30
0.0
  0
VERTEX
  5
1C76
  8
TOWNS
 10
637.40286272814728
 20
4687.2853540125579
 30
0.0
  0
VERTEX
  5
1C77
  8
TOWNS
 10
637.37028096130155
 20
4687.4065758228389
 30
0.0
  0
VERTEX
  5
1C78
  8
TOWNS
 10
637.02515410612227
 20
4687.3547869430522
 30
0.0
  0
VERTEX
  5
1C79
  8
TOWNS
 10
636.9719955525278
 20
4687.2854642246557
 30
0.0
  0
SEQEND
  5
1C7A
  8
TOWNS
  0
POLYLINE
  5
18E
  8
TOWNS
 66
     1
 10
0.0
 20
0.0
 30
0.0
 70
     1
  0
VERTEX
  5
1C7B
  8
TOWNS
 10
637.11607272338995
 20
4664.2800515752797
 30
0.0
  0
VERTEX
  5
1C7C
  8
TOWNS
 10
636.92649807160365
 20
4664.1761168939302
 30
0.0
  0
VERTEX
  5
1C7D
  8
TOWNS
 10
636.85783188464313
 20
4664.0663154963477
 30
0.0
  0
VERTEX
  5
1C7E
  8
TOWNS
 10
637.12651621131363
 20
4663.9400715826196
 30
0.0
  0
VERTEX
  5
1C7F
  8
TOWNS
 10
637.22454077440784
 20
4664.0860613840523
 30
0.0
  0
SEQEND
  5
1C80
  8
TOWNS
  0
POLYLINE
  5
18F
  8
TOWNS
 66
     1
 10
0.0
 20
0.0
 30
0.0
 70
     1
  0
VERTEX
  5
1C81
  8
TOWNS
 10
636.20592700143231
 20
4673.0254138425107
 30
0.0
  0
VERTEX
  5
1C82
  8
TOWNS
 10
636.19992129284105
 20
4672.9166631492581
 30
0.0
  0
VERTEX
  5
1C83
  8
TOWNS
 10
636.37625195561156
 20
4672.8396327109494
 30
0.0
  0
VERTEX
  5
1C84
  8
TOWNS
 10
636.43480556830161
 20
4672.868625205032
 30
0.0
  0
VERTEX
  5
1C85
  8
TOWNS
 10
636.4180530539071
 20
4672.9493697036023
 30
0.0
  0
VERTEX
  5
1C86
  8
TOWNS
 10
636.4165847547589
 20
4673.056734860229
 30
0.0
  0
VERTEX
  5
1C87
  8
TOWNS
 10
636.40841862241643
 20
4673.1120131000207
 30
0.0
  0
VERTEX
  5
1C88
  8
TOWNS
 10
636.29786214283251
 20
4673.0956808353367
 30
0.0
  0
SEQEND
  5
1C89
  8
TOWNS
  0
POLYLINE
  5
190
  8
TOWNS
 66
     1
 10
0.0
 20
0.0
 30
0.0
 70
     1
  0
VERTEX
  5
1C8A
  8
TOWNS
 10
635.52711189962565
 20
4684.7325470617579
 30
0.0
  0
VERTEX
  5
1C8B
  8
TOWNS
 10
635.63680686730561
 20
4684.6877647653619
 30
0.0
  0
VERTEX
  5
1C8C
  8
TOWNS
 10
635.72267583749215
 20
4684.8565163579651
 30
0.0
  0
VERTEX
  5
1C8D
  8
TOWNS
 10
635.77146636894463
 20
4684.8275015639792
 30
0.0
  0
VERTEX
  5
1C8E
  8
TOWNS
 10
635.75548874167816
 20
4684.751691137245
 30
0.0
  0
VERTEX
  5
1C8F
  8
TOWNS
 10
635.89016668096849
 20
4684.6812114447312
 30
0.0
  0
VERTEX
  5
1C90
  8
TOWNS
 10
636.00563750731635
 20
4684.834636797118
 30
0.0
  0
VERTEX
  5
1C91
  8
TOWNS
 10
636.14371946925155
 20
4685.0056341508307
 30
0.0
  0
VERTEX
  5
1C92
  8
TOWNS
 10
636.03601940027374
 20
4685.0861698119616
 30
0.0
  0
VERTEX
  5
1C93
  8
TOWNS
 10
635.92550365824366
 20
4684.9669652002858
 30
0.0
  0
VERTEX
  5
1C94
  8
TOWNS
 10
635.60830281005678
 20
4685.2040163365864
 30
0.0
  0
VERTEX
  5
1C95
  8
TOWNS
 10
635.51567425663632
 20
4685.0845595750843
 30
0.0
  0
VERTEX
  5
1C96
  8
TOWNS
 10
635.60863643498988
 20
4685.0161588312139
 30
0.0
  0
SEQEND
  5
1C97
  8
TOWNS
  0
POLYLINE
  5
191
  8
TOWNS
 66
     1
 10
0.0
 20
0.0
 30
0.0
 70
     1
  0
VERTEX
  5
1C98
  8
TOWNS
 10
635.89119587894345
 20
4686.4464169206312
 30
0.0
  0
VERTEX
  5
1C99
  8
TOWNS
 10
635.98865086693513
 20
4686.379443738354
 30
0.0
  0
VERTEX
  5
1C9A
  8
TOWNS
 10
636.09490493666726
 20
4686.5136173779929
 30
0.0
  0
VERTEX
  5
1C9B
  8
TOWNS
 10
636.17676180954788
 20
4686.5035180969899
 30
0.0
  0
VERTEX
  5
1C9C
  8
TOWNS
 10
636.23157906207655
 20
4686.5847445953059
 30
0.0
  0
VERTEX
  5
1C9D
  8
TOWNS
 10
636.1593802080065
 20
4686.6453981691247
 30
0.0
  0
VERTEX
  5
1C9E
  8
TOWNS
 10
636.23632659637406
 20
4686.8157664356931
 30
0.0
  0
VERTEX
  5
1C9F
  8
TOWNS
 10
636.17328146146315
 20
4686.891199925105
 30
0.0
  0
VERTEX
  5
1CA0
  8
TOWNS
 10
635.93711284955555
 20
4686.6366042370537
 30
0.0
  0
VERTEX
  5
1CA1
  8
TOWNS
 10
635.90753071846245
 20
4686.54756753123
 30
0.0
  0
VERTEX
  5
1CA2
  8
TOWNS
 10
635.94907837951575
 20
4686.5335637901799
 30
0.0
  0
SEQEND
  5
1CA3
  8
TOWNS
  0
POLYLINE
  5
192
  8
TOWNS
 66
     1
 10
0.0
 20
0.0
 30
0.0
 70
     1
  0
VERTEX
  5
1CA4
  8
TOWNS
 10
636.31626530980475
 20
4684.4485887931969
 30
0.0
  0
VERTEX
  5
1CA5
  8
TOWNS
 10
636.22480959331926
 20
4684.0950449432667
 30
0.0
  0
VERTEX
  5
1CA6
  8
TOWNS
 10
636.25367601248911
 20
4684.0275477362729
 30
0.0
  0
VERTEX
  5
1CA7
  8
TOWNS
 10
636.36969058862485
 20
4684.008021573798
 30
0.0
  0
VERTEX
  5
1CA8
  8
TOWNS
 10
636.52359922817732
 20
4683.9268345256169
 30
0.0
  0
VERTEX
  5
1CA9
  8
TOWNS
 10
636.58106147904005
 20
4683.9841694141523
 30
0.0
  0
VERTEX
  5
1CAA
  8
TOWNS
 10
636.57067188548956
 20
4684.1990047898344
 30
0.0
  0
VERTEX
  5
1CAB
  8
TOWNS
 10
636.53777621877907
 20
4684.4037211594423
 30
0.0
  0
VERTEX
  5
1CAC
  8
TOWNS
 10
636.47506728363578
 20
4684.5030042336684
 30
0.0
  0
SEQEND
  5
1CAD
  8
TOWNS
  0
POLYLINE
  5
193
  8
TOWNS
 66
     1
 10
0.0
 20
0.0
 30
0.0
 70
     1
  0
VERTEX
  5
1CAE
  8
TOWNS
 10
636.08373746734219
 20
4688.3654667112096
 30
0.0
  0
VERTEX
  5
1CAF
  8
TOWNS
 10
636.11102795010243
 20
4688.1861745754049
 30
0.0
  0
VERTEX
  5
1CB0
  8
TOWNS
 10
636.40860272305474
 20
4688.2490700480821
 30
0.0
  0
VERTEX
  5
1CB1
  8
TOWNS
 10
636.43562133092098
 20
4688.1562536697111
 30
0.0
  0
VERTEX
  5
1CB2
  8
TOWNS
 10
636.56257440006345
 20
4688.1723547970569
 30
0.0
  0
VERTEX
  5
1CB3
  8
TOWNS
 10
636.55676037867556
 20
4688.2887265854451
 30
0.0
  0
VERTEX
  5
1CB4
  8
TOWNS
 10
636.47481945585332
 20
4688.2928634702466
 30
0.0
  0
VERTEX
  5
1CB5
  8
TOWNS
 10
636.43793399173876
 20
4688.4260731103877
 30
0.0
  0
SEQEND
  5
1CB6
  8
TOWNS
  0
POLYLINE
  5
194
  8
TOWNS
 66
     1
 10
0.0
 20
0.0
 30
0.0
 70
     1
  0
VERTEX
  5
1CB7
  8
TOWNS
 10
635.64896441959945
 20
4670.4529611475291
 30
0.0
  0
VERTEX
  5
1CB8
  8
TOWNS
 10
635.86791811721105
 20
4670.4782202607921
 30
0.0
  0
VERTEX
  5
1CB9
  8
TOWNS
 10
635.93652848302247
 20
4670.252378651674
 30
0.0
  0
VERTEX
  5
1CBA
  8
TOWNS
 10
635.74161528837135
 20
4670.2140103886777
 30
0.0
  0
VERTEX
  5
1CBB
  8
TOWNS
 10
635.67404678752735
 20
4670.2474308135806
 30
0.0
  0
SEQEND
  5
1CBC
  8
TOWNS
  0
POLYLINE
  5
195
  8
TOWNS
 66
     1
 10
0.0
 20
0.0
 30
0.0
 70
     1
  0
VERTEX
  5
1CBD
  8
TOWNS
 10
635.8018380072557
 20
4670.851777785324
 30
0.0
  0
VERTEX
  5
1CBE
  8
TOWNS
 10
635.74166904687831
 20
4670.7763983695504
 30
0.0
  0
VERTEX
  5
1CBF
  8
TOWNS
 10
635.71558924732926
 20
4670.6045044825833
 30
0.0
  0
VERTEX
  5
1CC0
  8
TOWNS
 10
635.94955598530953
 20
4670.6225025552949
 30
0.0
  0
VERTEX
  5
1CC1
  8
TOWNS
 10
636.10417841927824
 20
4670.775204554222
 30
0.0
  0
VERTEX
  5
1CC2
  8
TOWNS
 10
636.36624770898891
 20
4670.8114735741956
 30
0.0
  0
VERTEX
  5
1CC3
  8
TOWNS
 10
636.36481410792817
 20
4670.920351968357
 30
0.0
  0
VERTEX
  5
1CC4
  8
TOWNS
 10
636.07595700600245
 20
4670.8792550031558
 30
0.0
  0
VERTEX
  5
1CC5
  8
TOWNS
 10
636.0719332026531
 20
4670.9582644235452
 30
0.0
  0
VERTEX
  5
1CC6
  8
TOWNS
 10
635.96919749323501
 20
4670.9434860123029
 30
0.0
  0
VERTEX
  5
1CC7
  8
TOWNS
 10
635.94761075529016
 20
4670.8835320426806
 30
0.0
  0
SEQEND
  5
1CC8
  8
TOWNS
  0
POLYLINE
  5
196
  8
TOWNS
 66
     1
 10
0.0
 20
0.0
 30
0.0
 70
     1
  0
VERTEX
  5
1CC9
  8
TOWNS
 10
636.07084780584455
 20
4665.1494012164867
 30
0.0
  0
VERTEX
  5
1CCA
  8
TOWNS
 10
636.11471068735045
 20
4664.9903622117554
 30
0.0
  0
VERTEX
  5
1CCB
  8
TOWNS
 10
636.58331083659357
 20
4665.0890203593162
 30
0.0
  0
VERTEX
  5
1CCC
  8
TOWNS
 10
636.55532405244526
 20
4665.2885454771158
 30
0.0
  0
VERTEX
  5
1CCD
  8
TOWNS
 10
636.44827099543829
 20
4665.2617762719492
 30
0.0
  0
VERTEX
  5
1CCE
  8
TOWNS
 10
636.42360206461581
 20
4665.3226129369323
 30
0.0
  0
VERTEX
  5
1CCF
  8
TOWNS
 10
636.34926348248848
 20
4665.3037332001777
 30
0.0
  0
VERTEX
  5
1CD0
  8
TOWNS
 10
636.34113938494852
 20
4665.2409730061909
 30
0.0
  0
SEQEND
  5
1CD1
  8
TOWNS
  0
POLYLINE
  5
197
  8
TOWNS
 66
     1
 10
0.0
 20
0.0
 30
0.0
 70
     1
  0
VERTEX
  5
1CD2
  8
TOWNS
 10
636.13306229400848
 20
4666.8821345162178
 30
0.0
  0
VERTEX
  5
1CD3
  8
TOWNS
 10
636.22557569418552
 20
4666.6536241513286
 30
0.0
  0
VERTEX
  5
1CD4
  8
TOWNS
 10
636.81871328154807
 20
4666.9239808334723
 30
0.0
  0
VERTEX
  5
1CD5
  8
TOWNS
 10
636.74786620411976
 20
4667.0931067414913
 30
0.0
  0
SEQEND
  5
1CD6
  8
TOWNS
  0
POLYLINE
  5
198
  8
TOWNS
 66
     1
 10
0.0
 20
0.0
 30
0.0
 70
     1
  0
VERTEX
  5
1CD7
  8
TOWNS
 10
636.34166540912929
 20
4661.3490213239984
 30
0.0
  0
VERTEX
  5
1CD8
  8
TOWNS
 10
636.39096399403275
 20
4661.2303309637382
 30
0.0
  0
VERTEX
  5
1CD9
  8
TOWNS
 10
636.68131154948924
 20
4661.3848200543962
 30
0.0
  0
VERTEX
  5
1CDA
  8
TOWNS
 10
636.59574600725273
 20
4661.538834730195
 30
0.0
  0
SEQEND
  5
1CDB
  8
TOWNS
  0
POLYLINE
  5
199
  8
TOWNS
 66
     1
 10
0.0
 20
0.0
 30
0.0
 70
     1
  0
VERTEX
  5
1CDC
  8
TOWNS
 10
636.61341955282535
 20
4662.462456620693
 30
0.0
  0
VERTEX
  5
1CDD
  8
TOWNS
 10
636.62476537447992
 20
4662.1672408119493
 30
0.0
  0
VERTEX
  5
1CDE
  8
TOWNS
 10
636.83096341303121
 20
4662.1416126949234
 30
0.0
  0
VERTEX
  5
1CDF
  8
TOWNS
 10
636.84734701406444
 20
4662.4834376631106
 30
0.0
  0
SEQEND
  5
1CE0
  8
TOWNS
  0
POLYLINE
  5
19A
  8
TOWNS
 66
     1
 10
0.0
 20
0.0
 30
0.0
 70
     1
  0
VERTEX
  5
1CE1
  8
TOWNS
 10
638.00105894650665
 20
4672.0802260833079
 30
0.0
  0
VERTEX
  5
1CE2
  8
TOWNS
 10
638.07203907641986
 20
4671.9331177645436
 30
0.0
  0
VERTEX
  5
1CE3
  8
TOWNS
 10
638.25183551187456
 20
4671.9961826245253
 30
0.0
  0
VERTEX
  5
1CE4
  8
TOWNS
 10
638.27784809527293
 20
4672.0435245818953
 30
0.0
  0
VERTEX
  5
1CE5
  8
TOWNS
 10
638.36951007436198
 20
4672.0944137870601
 30
0.0
  0
VERTEX
  5
1CE6
  8
TOWNS
 10
638.36186925415609
 20
4672.1869570031222
 30
0.0
  0
VERTEX
  5
1CE7
  8
TOWNS
 10
638.23609159678233
 20
4672.1484758775296
 30
0.0
  0
VERTEX
  5
1CE8
  8
TOWNS
 10
638.17653195962441
 20
4672.2596417191908
 30
0.0
  0
SEQEND
  5
1CE9
  8
TOWNS
  0
POLYLINE
  5
19B
  8
TOWNS
 66
     1
 10
0.0
 20
0.0
 30
0.0
 70
     1
  0
VERTEX
  5
1CEA
  8
TOWNS
 10
639.85476896519526
 20
4673.1752481749236
 30
0.0
  0
VERTEX
  5
1CEB
  8
TOWNS
 10
639.912732940875
 20
4673.0566503504951
 30
0.0
  0
VERTEX
  5
1CEC
  8
TOWNS
 10
640.18095800749177
 20
4673.1527592519988
 30
0.0
  0
VERTEX
  5
1CED
  8
TOWNS
 10
640.4190348933256
 20
4673.225438818401
 30
0.0
  0
VERTEX
  5
1CEE
  8
TOWNS
 10
640.34645910193433
 20
4673.3651151543982
 30
0.0
  0
VERTEX
  5
1CEF
  8
TOWNS
 10
640.30480766587129
 20
4673.477519445285
 30
0.0
  0
VERTEX
  5
1CF0
  8
TOWNS
 10
640.12192496988746
 20
4673.4070436150232
 30
0.0
  0
VERTEX
  5
1CF1
  8
TOWNS
 10
639.94040679804186
 20
4673.3276031779687
 30
0.0
  0
VERTEX
  5
1CF2
  8
TOWNS
 10
639.88027853635924
 20
4673.2926693001691
 30
0.0
  0
VERTEX
  5
1CF3
  8
TOWNS
 10
639.90771739393483
 20
4673.229664902814
 30
0.0
  0
VERTEX
  5
1CF4
  8
TOWNS
 10
639.85203991691913
 20
4673.1931773885062
 30
0.0
  0
SEQEND
  5
1CF5
  8
TOWNS
  0
POLYLINE
  5
19C
  8
TOWNS
 66
     1
 10
0.0
 20
0.0
 30
0.0
 70
     1
  0
VERTEX
  5
1CF6
  8
TOWNS
 10
639.20327469240794
 20
4673.3886847260019
 30
0.0
  0
VERTEX
  5
1CF7
  8
TOWNS
 10
639.23860652001508
 20
4673.251024301193
 30
0.0
  0
VERTEX
  5
1CF8
  8
TOWNS
 10
639.46288978965322
 20
4673.2970621970489
 30
0.0
  0
VERTEX
  5
1CF9
  8
TOWNS
 10
639.40721488747181
 20
4673.4722817729244
 30
0.0
  0
VERTEX
  5
1CFA
  8
TOWNS
 10
639.38515007650619
 20
4673.4934653469181
 30
0.0
  0
VERTEX
  5
1CFB
  8
TOWNS
 10
639.36476497696094
 20
4673.5280432998807
 30
0.0
  0
VERTEX
  5
1CFC
  8
TOWNS
 10
639.24350114171079
 20
4673.492480334934
 30
0.0
  0
VERTEX
  5
1CFD
  8
TOWNS
 10
639.23382211041485
 20
4673.4404354430699
 30
0.0
  0
SEQEND
  5
1CFE
  8
TOWNS
  0
POLYLINE
  5
19D
  8
TOWNS
 66
     1
 10
0.0
 20
0.0
 30
0.0
 70
     1
  0
VERTEX
  5
1CFF
  8
TOWNS
 10
637.27192059726781
 20
4673.448710086278
 30
0.0
  0
VERTEX
  5
1D00
  8
TOWNS
 10
637.40437378793331
 20
4673.4319339845642
 30
0.0
  0
VERTEX
  5
1D01
  8
TOWNS
 10
637.49595042966359
 20
4673.3710072484328
 30
0.0
  0
VERTEX
  5
1D02
  8
TOWNS
 10
637.66575264654057
 20
4673.3596682307862
 30
0.0
  0
VERTEX
  5
1D03
  8
TOWNS
 10
637.69787471354005
 20
4673.417360331573
 30
0.0
  0
VERTEX
  5
1D04
  8
TOWNS
 10
637.64625007138477
 20
4673.4568513438844
 30
0.0
  0
VERTEX
  5
1D05
  8
TOWNS
 10
637.65292689209355
 20
4673.5074476616683
 30
0.0
  0
VERTEX
  5
1D06
  8
TOWNS
 10
637.73495186485775
 20
4673.5092731730701
 30
0.0
  0
VERTEX
  5
1D07
  8
TOWNS
 10
637.81342830241294
 20
4673.4708945350703
 30
0.0
  0
VERTEX
  5
1D08
  8
TOWNS
 10
637.85917459830705
 20
4673.4374499689029
 30
0.0
  0
VERTEX
  5
1D09
  8
TOWNS
 10
637.96038824636241
 20
4673.425586926538
 30
0.0
  0
VERTEX
  5
1D0A
  8
TOWNS
 10
638.01847958437213
 20
4673.4217862415044
 30
0.0
  0
VERTEX
  5
1D0B
  8
TOWNS
 10
638.03926520855839
 20
4673.5213832155951
 30
0.0
  0
VERTEX
  5
1D0C
  8
TOWNS
 10
637.92388100698645
 20
4673.5856273495938
 30
0.0
  0
VERTEX
  5
1D0D
  8
TOWNS
 10
637.76982528003577
 20
4673.6563802044193
 30
0.0
  0
VERTEX
  5
1D0E
  8
TOWNS
 10
637.63315244204364
 20
4673.6911065321983
 30
0.0
  0
VERTEX
  5
1D0F
  8
TOWNS
 10
637.51883858981284
 20
4673.7255176726949
 30
0.0
  0
VERTEX
  5
1D10
  8
TOWNS
 10
637.45614937973824
 20
4673.7204378008819
 30
0.0
  0
VERTEX
  5
1D11
  8
TOWNS
 10
637.39163337084506
 20
4673.6915293567417
 30
0.0
  0
VERTEX
  5
1D12
  8
TOWNS
 10
637.35243653332998
 20
4673.6607731012973
 30
0.0
  0
VERTEX
  5
1D13
  8
TOWNS
 10
637.36360487625961
 20
4673.606943435585
 30
0.0
  0
VERTEX
  5
1D14
  8
TOWNS
 10
637.36910499778253
 20
4673.5740662065245
 30
0.0
  0
VERTEX
  5
1D15
  8
TOWNS
 10
637.29711498115012
 20
4673.543772225762
 30
0.0
  0
VERTEX
  5
1D16
  8
TOWNS
 10
637.26375446492523
 20
4673.5039883260697
 30
0.0
  0
SEQEND
  5
1D17
  8
TOWNS
  0
POLYLINE
  5
19E
  8
TOWNS
 66
     1
 10
0.0
 20
0.0
 30
0.0
 70
     1
  0
VERTEX
  5
1D18
  8
TOWNS
 10
638.78010838580406
 20
4674.7811825514164
 30
0.0
  0
VERTEX
  5
1D19
  8
TOWNS
 10
638.96720944169761
 20
4674.727854610519
 30
0.0
  0
VERTEX
  5
1D1A
  8
TOWNS
 10
638.98461463055844
 20
4674.7991722276183
 30
0.0
  0
VERTEX
  5
1D1B
  8
TOWNS
 10
639.03080347606453
 20
4674.9028837866099
 30
0.0
  0
VERTEX
  5
1D1C
  8
TOWNS
 10
639.07189014985431
 20
4674.9619404115338
 30
0.0
  0
VERTEX
  5
1D1D
  8
TOWNS
 10
638.99186007579203
 20
4674.9958682648657
 30
0.0
  0
VERTEX
  5
1D1E
  8
TOWNS
 10
638.93009412766025
 20
4674.9505212061958
 30
0.0
  0
VERTEX
  5
1D1F
  8
TOWNS
 10
638.8737875634979
 20
4674.9751692654563
 30
0.0
  0
VERTEX
  5
1D20
  8
TOWNS
 10
638.84053210970035
 20
4674.9428383610193
 30
0.0
  0
VERTEX
  5
1D21
  8
TOWNS
 10
638.87848921057332
 20
4674.8856492724672
 30
0.0
  0
VERTEX
  5
1D22
  8
TOWNS
 10
638.85701146178394
 20
4674.8427160747906
 30
0.0
  0
VERTEX
  5
1D23
  8
TOWNS
 10
638.79472148893274
 20
4674.8659575849397
 30
0.0
  0
SEQEND
  5
1D24
  8
TOWNS
  0
POLYLINE
  5
19F
  8
TOWNS
 66
     1
 10
0.0
 20
0.0
 30
0.0
 70
     1
  0
VERTEX
  5
1D25
  8
TOWNS
 10
637.78993809087444
 20
4675.4004441312954
 30
0.0
  0
VERTEX
  5
1D26
  8
TOWNS
 10
637.7555899878331
 20
4675.2906020762157
 30
0.0
  0
VERTEX
  5
1D27
  8
TOWNS
 10
637.77904033542166
 20
4675.2619444944849
 30
0.0
  0
VERTEX
  5
1D28
  8
TOWNS
 10
637.78235644587357
 20
4675.1798985092337
 30
0.0
  0
VERTEX
  5
1D29
  8
TOWNS
 10
637.93267581266332
 20
4675.1613796586453
 30
0.0
  0
VERTEX
  5
1D2A
  8
TOWNS
 10
637.942438893901
 20
4675.2193869467128
 30
0.0
  0
VERTEX
  5
1D2B
  8
TOWNS
 10
637.99320331156957
 20
4675.2246349184097
 30
0.0
  0
VERTEX
  5
1D2C
  8
TOWNS
 10
637.99765538365364
 20
4675.3289348269927
 30
0.0
  0
VERTEX
  5
1D2D
  8
TOWNS
 10
637.86396374376295
 20
4675.3636191298019
 30
0.0
  0
SEQEND
  5
1D2E
  8
TOWNS
  0
POLYLINE
  5
1A0
  8
TOWNS
 66
     1
 10
0.0
 20
0.0
 30
0.0
 70
     1
  0
VERTEX
  5
1D2F
  8
TOWNS
 10
637.29523075433553
 20
4677.4290718265602
 30
0.0
  0
VERTEX
  5
1D30
  8
TOWNS
 10
637.37175431815956
 20
4677.3579210219277
 30
0.0
  0
VERTEX
  5
1D31
  8
TOWNS
 10
637.55768253711835
 20
4677.538680169464
 30
0.0
  0
VERTEX
  5
1D32
  8
TOWNS
 10
637.53370816481015
 20
4677.6359263200166
 30
0.0
  0
VERTEX
  5
1D33
  8
TOWNS
 10
637.42860978177828
 20
4677.5837356281709
 30
0.0
  0
VERTEX
  5
1D34
  8
TOWNS
 10
637.42953304372145
 20
4677.543468441314
 30
0.0
  0
SEQEND
  5
1D35
  8
TOWNS
  0
POLYLINE
  5
1A1
  8
TOWNS
 66
     1
 10
0.0
 20
0.0
 30
0.0
 70
     1
  0
VERTEX
  5
1D36
  8
TOWNS
 10
637.34636783326164
 20
4678.7299025232178
 30
0.0
  0
VERTEX
  5
1D37
  8
TOWNS
 10
637.36755011983735
 20
4678.646113789091
 30
0.0
  0
VERTEX
  5
1D38
  8
TOWNS
 10
637.62542375562361
 20
4678.6424786291063
 30
0.0
  0
VERTEX
  5
1D39
  8
TOWNS
 10
637.95635775738401
 20
4678.6393044563838
 30
0.0
  0
VERTEX
  5
1D3A
  8
TOWNS
 10
638.01732394365069
 20
4678.5221552060339
 30
0.0
  0
VERTEX
  5
1D3B
  8
TOWNS
 10
638.10936286006154
 20
4678.4940216490213
 30
0.0
  0
VERTEX
  5
1D3C
  8
TOWNS
 10
638.15521550580002
 20
4678.5738836232003
 30
0.0
  0
VERTEX
  5
1D3D
  8
TOWNS
 10
638.25527475457181
 20
4678.5858911781288
 30
0.0
  0
VERTEX
  5
1D3E
  8
TOWNS
 10
638.27421256745436
 20
4678.660168980844
 30
0.0
  0
VERTEX
  5
1D3F
  8
TOWNS
 10
638.35485200359528
 20
4678.6694684999848
 30
0.0
  0
VERTEX
  5
1D40
  8
TOWNS
 10
638.38285948569535
 20
4678.7525638220886
 30
0.0
  0
VERTEX
  5
1D41
  8
TOWNS
 10
638.44256749766862
 20
4678.7576857188751
 30
0.0
  0
VERTEX
  5
1D42
  8
TOWNS
 10
638.44649425761577
 20
4678.8247206511887
 30
0.0
  0
VERTEX
  5
1D43
  8
TOWNS
 10
638.2617650377457
 20
4678.8347791946399
 30
0.0
  0
VERTEX
  5
1D44
  8
TOWNS
 10
638.0215264407434
 20
4678.8202750161909
 30
0.0
  0
VERTEX
  5
1D45
  8
TOWNS
 10
637.82709717709145
 20
4678.7767980687267
 30
0.0
  0
VERTEX
  5
1D46
  8
TOWNS
 10
637.59863628509765
 20
4678.7516915970364
 30
0.0
  0
VERTEX
  5
1D47
  8
TOWNS
 10
637.47953544843267
 20
4678.7638067892303
 30
0.0
  0
SEQEND
  5
1D48
  8
TOWNS
  0
POLYLINE
  5
1A2
  8
TOWNS
 66
     1
 10
0.0
 20
0.0
 30
0.0
 70
     1
  0
VERTEX
  5
1D49
  8
TOWNS
 10
640.57523780202382
 20
4678.806639614354
 30
0.0
  0
VERTEX
  5
1D4A
  8
TOWNS
 10
640.59646211357051
 20
4678.7258320783312
 30
0.0
  0
VERTEX
  5
1D4B
  8
TOWNS
 10
640.72771887998181
 20
4678.7299453758114
 30
0.0
  0
VERTEX
  5
1D4C
  8
TOWNS
 10
640.90726316561074
 20
4678.7751230471831
 30
0.0
  0
VERTEX
  5
1D4D
  8
TOWNS
 10
641.10872517480732
 20
4678.7886829512036
 30
0.0
  0
VERTEX
  5
1D4E
  8
TOWNS
 10
641.18671832519681
 20
4678.7160205350374
 30
0.0
  0
VERTEX
  5
1D4F
  8
TOWNS
 10
641.36347052509348
 20
4678.774655622834
 30
0.0
  0
VERTEX
  5
1D50
  8
TOWNS
 10
641.33307276931919
 20
4678.9450461893039
 30
0.0
  0
VERTEX
  5
1D51
  8
TOWNS
 10
641.15119867263763
 20
4678.9461191134797
 30
0.0
  0
VERTEX
  5
1D52
  8
TOWNS
 10
641.03031306212563
 20
4678.9373869314477
 30
0.0
  0
VERTEX
  5
1D53
  8
TOWNS
 10
641.0118165114377
 20
4678.8944117088004
 30
0.0
  0
VERTEX
  5
1D54
  8
TOWNS
 10
640.80554650532156
 20
4678.8570652574244
 30
0.0
  0
VERTEX
  5
1D55
  8
TOWNS
 10
640.67855141120833
 20
4678.8379829319756
 30
0.0
  0
SEQEND
  5
1D56
  8
TOWNS
  0
POLYLINE
  5
1A3
  8
TOWNS
 66
     1
 10
0.0
 20
0.0
 30
0.0
 70
     1
  0
VERTEX
  5
1D57
  8
TOWNS
 10
638.06379372194942
 20
4684.4627177355569
 30
0.0
  0
VERTEX
  5
1D58
  8
TOWNS
 10
638.13737811264298
 20
4684.3945901539983
 30
0.0
  0
VERTEX
  5
1D59
  8
TOWNS
 10
638.194252013913
 20
4684.4101882691093
 30
0.0
  0
VERTEX
  5
1D5A
  8
TOWNS
 10
638.38792225325381
 20
4684.1882965605619
 30
0.0
  0
VERTEX
  5
1D5B
  8
TOWNS
 10
638.54569590271444
 20
4684.2755261926368
 30
0.0
  0
VERTEX
  5
1D5C
  8
TOWNS
 10
638.42747887785617
 20
4684.456100090053
 30
0.0
  0
VERTEX
  5
1D5D
  8
TOWNS
 10
638.35962445860844
 20
4684.4018934870192
 30
0.0
  0
VERTEX
  5
1D5E
  8
TOWNS
 10
638.29953950931395
 20
4684.4757943524128
 30
0.0
  0
VERTEX
  5
1D5F
  8
TOWNS
 10
638.24388304478362
 20
4684.4407974371561
 30
0.0
  0
VERTEX
  5
1D60
  8
TOWNS
 10
638.14978747963198
 20
4684.5345593773736
 30
0.0
  0
SEQEND
  5
1D61
  8
TOWNS
  0
POLYLINE
  5
1A4
  8
TOWNS
 66
     1
 10
0.0
 20
0.0
 30
0.0
 70
     1
  0
VERTEX
  5
1D62
  8
TOWNS
 10
640.31135335395754
 20
4683.460461813047
 30
0.0
  0
VERTEX
  5
1D63
  8
TOWNS
 10
640.31374491504903
 20
4683.3128294695634
 30
0.0
  0
VERTEX
  5
1D64
  8
TOWNS
 10
640.44726845505602
 20
4683.2662203743484
 30
0.0
  0
VERTEX
  5
1D65
  8
TOWNS
 10
640.462362270516
 20
4683.1735720958568
 30
0.0
  0
VERTEX
  5
1D66
  8
TOWNS
 10
640.56853100288924
 20
4683.1959297942039
 30
0.0
  0
VERTEX
  5
1D67
  8
TOWNS
 10
640.49673396087712
 20
4683.4966118401699
 30
0.0
  0
SEQEND
  5
1D68
  8
TOWNS
  0
POLYLINE
  5
1A5
  8
TOWNS
 66
     1
 10
0.0
 20
0.0
 30
0.0
 70
     1
  0
VERTEX
  5
1D69
  8
TOWNS
 10
641.38868081777241
 20
4683.6301460933273
 30
0.0
  0
VERTEX
  5
1D6A
  8
TOWNS
 10
641.40478194511752
 20
4683.5031930241848
 30
0.0
  0
VERTEX
  5
1D6B
  8
TOWNS
 10
641.46096243436705
 20
4683.4696013706198
 30
0.0
  0
VERTEX
  5
1D6C
  8
TOWNS
 10
641.49736589873294
 20
4683.4079614973998
 30
0.0
  0
VERTEX
  5
1D6D
  8
TOWNS
 10
641.46499168190769
 20
4683.3323822080038
 30
0.0
  0
VERTEX
  5
1D6E
  8
TOWNS
 10
641.51208148945454
 20
4683.2884824359971
 30
0.0
  0
VERTEX
  5
1D6F
  8
TOWNS
 10
641.68354369268309
 20
4683.3949007433621
 30
0.0
  0
VERTEX
  5
1D70
  8
TOWNS
 10
641.64126188205614
 20
4683.462587062726
 30
0.0
  0
VERTEX
  5
1D71
  8
TOWNS
 10
641.59795045964154
 20
4683.4572340286013
 30
0.0
  0
VERTEX
  5
1D72
  8
TOWNS
 10
641.5650968179018
 20
4683.6649315963123
 30
0.0
  0
SEQEND
  5
1D73
  8
TOWNS
  0
POLYLINE
  5
1A6
  8
TOWNS
 66
     1
 10
0.0
 20
0.0
 30
0.0
 70
     1
  0
VERTEX
  5
1D74
  8
TOWNS
 10
637.3885073383251
 20
4685.9497142255959
 30
0.0
  0
VERTEX
  5
1D75
  8
TOWNS
 10
637.50149611655445
 20
4685.7155417998092
 30
0.0
  0
VERTEX
  5
1D76
  8
TOWNS
 10
637.64306228882526
 20
4685.8164179606802
 30
0.0
  0
VERTEX
  5
1D77
  8
TOWNS
 10
637.56246745248961
 20
4686.0218067298238
 30
0.0
  0
SEQEND
  5
1D78
  8
TOWNS
  0
POLYLINE
  5
1A7
  8
TOWNS
 66
     1
 10
0.0
 20
0.0
 30
0.0
 70
     1
  0
VERTEX
  5
1D79
  8
TOWNS
 10
638.32514172852655
 20
4687.032318811911
 30
0.0
  0
VERTEX
  5
1D7A
  8
TOWNS
 10
638.33114486228362
 20
4686.9293624149777
 30
0.0
  0
VERTEX
  5
1D7B
  8
TOWNS
 10
638.26339550546345
 20
4686.8826088072001
 30
0.0
  0
VERTEX
  5
1D7C
  8
TOWNS
 10
638.29620840964913
 20
4686.777783586479
 30
0.0
  0
VERTEX
  5
1D7D
  8
TOWNS
 10
638.35902369463679
 20
4686.7918070525957
 30
0.0
  0
VERTEX
  5
1D7E
  8
TOWNS
 10
638.38098344317484
 20
4686.7631704833511
 30
0.0
  0
VERTEX
  5
1D7F
  8
TOWNS
 10
638.41829044441556
 20
4686.7656263693152
 30
0.0
  0
VERTEX
  5
1D80
  8
TOWNS
 10
638.45129246097042
 20
4686.6742165400501
 30
0.0
  0
VERTEX
  5
1D81
  8
TOWNS
 10
638.56478811368481
 20
4686.6875255816649
 30
0.0
  0
VERTEX
  5
1D82
  8
TOWNS
 10
638.57933689193965
 20
4686.6619752729457
 30
0.0
  0
VERTEX
  5
1D83
  8
TOWNS
 10
638.77431248021367
 20
4686.7442077957312
 30
0.0
  0
VERTEX
  5
1D84
  8
TOWNS
 10
638.780150088921
 20
4686.8410336965762
 30
0.0
  0
VERTEX
  5
1D85
  8
TOWNS
 10
638.73177980717776
 20
4686.8998604715771
 30
0.0
  0
VERTEX
  5
1D86
  8
TOWNS
 10
638.76520336085923
 20
4686.9441161684208
 30
0.0
  0
VERTEX
  5
1D87
  8
TOWNS
 10
638.7503196702537
 20
4687.0516704374159
 30
0.0
  0
VERTEX
  5
1D88
  8
TOWNS
 10
638.68030353983772
 20
4687.0556392223361
 30
0.0
  0
VERTEX
  5
1D89
  8
TOWNS
 10
638.65779875409476
 20
4687.1513737613532
 30
0.0
  0
SEQEND
  5
1D8A
  8
TOWNS
  0
POLYLINE
  5
1A8
  8
TOWNS
 66
     1
 10
0.0
 20
0.0
 30
0.0
 70
     1
  0
VERTEX
  5
1D8B
  8
TOWNS
 10
638.56784393599628
 20
4687.6446372596683
 30
0.0
  0
VERTEX
  5
1D8C
  8
TOWNS
 10
638.59221754552846
 20
4687.5757124910797
 30
0.0
  0
VERTEX
  5
1D8D
  8
TOWNS
 10
638.65639735465402
 20
4687.5807713504073
 30
0.0
  0
VERTEX
  5
1D8E
  8
TOWNS
 10
638.66790060993401
 20
4687.4449377244146
 30
0.0
  0
VERTEX
  5
1D8F
  8
TOWNS
 10
638.70659314779812
 20
4687.4399196026416
 30
0.0
  0
VERTEX
  5
1D90
  8
TOWNS
 10
638.71364690582845
 20
4687.4114931582499
 30
0.0
  0
VERTEX
  5
1D91
  8
TOWNS
 10
638.80610607194785
 20
4687.4131715822532
 30
0.0
  0
VERTEX
  5
1D92
  8
TOWNS
 10
638.82401556046
 20
4687.5202635765709
 30
0.0
  0
VERTEX
  5
1D93
  8
TOWNS
 10
638.83636188999253
 20
4687.655761002793
 30
0.0
  0
VERTEX
  5
1D94
  8
TOWNS
 10
638.85036563104245
 20
4687.6973086638454
 30
0.0
  0
VERTEX
  5
1D95
  8
TOWNS
 10
638.84692344567782
 20
4687.7704110547911
 30
0.0
  0
VERTEX
  5
1D96
  8
TOWNS
 10
638.82502673459612
 20
4687.8035194211898
 30
0.0
  0
VERTEX
  5
1D97
  8
TOWNS
 10
638.7708411440484
 20
4687.8728644394887
 30
0.0
  0
VERTEX
  5
1D98
  8
TOWNS
 10
638.70934835822789
 20
4687.8468951684781
 30
0.0
  0
VERTEX
  5
1D99
  8
TOWNS
 10
638.71866888985369
 20
4687.7677463313867
 30
0.0
  0
SEQEND
  5
1D9A
  8
TOWNS
  0
POLYLINE
  5
1A9
  8
TOWNS
 66
     1
 10
0.0
 20
0.0
 30
0.0
 70
     1
  0
VERTEX
  5
1D9B
  8
TOWNS
 10
639.55228559741954
 20
4689.0
 30
0.0
  0
VERTEX
  5
1D9C
  8
TOWNS
 10
639.33898238142353
 20
4688.9383001239494
 30
0.0
  0
VERTEX
  5
1D9D
  8
TOWNS
 10
639.31418852218212
 20
4688.9774129115222
 30
0.0
  0
VERTEX
  5
1D9E
  8
TOWNS
 10
639.20130094412889
 20
4688.9014776972899
 30
0.0
  0
VERTEX
  5
1D9F
  8
TOWNS
 10
639.29451398489118
 20
4688.7451105969394
 30
0.0
  0
VERTEX
  5
1DA0
  8
TOWNS
 10
639.63218913223375
 20
4688.902858084246
 30
0.0
  0
VERTEX
  5
1DA1
  8
TOWNS
 10
639.60349148812895
 20
4689.0
 30
0.0
  0
SEQEND
  5
1DA2
  8
TOWNS
  0
POLYLINE
  5
1AA
  8
TOWNS
 66
     1
 10
0.0
 20
0.0
 30
0.0
 70
     1
  0
VERTEX
  5
1DA3
  8
TOWNS
 10
640.94274852404999
 20
4669.0115282717106
 30
0.0
  0
VERTEX
  5
1DA4
  8
TOWNS
 10
640.99135770333748
 20
4669.1717848554263
 30
0.0
  0
VERTEX
  5
1DA5
  8
TOWNS
 10
641.45161463899956
 20
4669.5642066036226
 30
0.0
  0
VERTEX
  5
1DA6
  8
TOWNS
 10
641.55470383909028
 20
4669.5521382875377
 30
0.0
  0
VERTEX
  5
1DA7
  8
TOWNS
 10
641.4764448020718
 20
4669.0379481114896
 30
0.0
  0
SEQEND
  5
1DA8
  8
TOWNS
  0
POLYLINE
  5
1AB
  8
TOWNS
 66
     1
 10
0.0
 20
0.0
 30
0.0
 70
     1
  0
VERTEX
  5
1DA9
  8
TOWNS
 10
639.34715533981523
 20
4668.8547704552138
 30
0.0
  0
VERTEX
  5
1DAA
  8
TOWNS
 10
639.69567492976444
 20
4668.5565354939872
 30
0.0
  0
VERTEX
  5
1DAB
  8
TOWNS
 10
640.16595985360277
 20
4668.9804158926609
 30
0.0
  0
VERTEX
  5
1DAC
  8
TOWNS
 10
639.96745283711505
 20
4669.2149893574906
 30
0.0
  0
VERTEX
  5
1DAD
  8
TOWNS
 10
640.13628313825404
 20
4669.421581194777
 30
0.0
  0
VERTEX
  5
1DAE
  8
TOWNS
 10
639.95059172725962
 20
4669.5891949482539
 30
0.0
  0
VERTEX
  5
1DAF
  8
TOWNS
 10
639.56730388407618
 20
4669.1291664537912
 30
0.0
  0
SEQEND
  5
1DB0
  8
TOWNS
  0
POLYLINE
  5
1AC
  8
TOWNS
 66
     1
 10
0.0
 20
0.0
 30
0.0
 70
     1
  0
VERTEX
  5
1DB1
  8
TOWNS
 10
639.11900151628754
 20
4666.2427070966824
 30
0.0
  0
VERTEX
  5
1DB2
  8
TOWNS
 10
638.63061929656124
 20
4666.1736233473312
 30
0.0
  0
VERTEX
  5
1DB3
  8
TOWNS
 10
638.59366396493294
 20
4666.3745221197587
 30
0.0
  0
VERTEX
  5
1DB4
  8
TOWNS
 10
638.82878730414222
 20
4666.5312675604036
 30
0.0
  0
VERTEX
  5
1DB5
  8
TOWNS
 10
638.80250802692308
 20
4666.714405983209
 30
0.0
  0
VERTEX
  5
1DB6
  8
TOWNS
 10
639.00562387259697
 20
4666.8095685007856
 30
0.0
  0
VERTEX
  5
1DB7
  8
TOWNS
 10
639.11999791658775
 20
4666.7335038046813
 30
0.0
  0
VERTEX
  5
1DB8
  8
TOWNS
 10
639.15261523093534
 20
4666.6354782102662
 30
0.0
  0
VERTEX
  5
1DB9
  8
TOWNS
 10
639.13356184280906
 20
4666.3831226947987
 30
0.0
  0
SEQEND
  5
1DBA
  8
TOWNS
  0
POLYLINE
  5
1AD
  8
TOWNS
 66
     1
 10
0.0
 20
0.0
 30
0.0
 70
     1
  0
VERTEX
  5
1DBB
  8
TOWNS
 10
639.9410267228684
 20
4666.1237490184803
 30
0.0
  0
VERTEX
  5
1DBC
  8
TOWNS
 10
639.53820798273625
 20
4666.1273955675006
 30
0.0
  0
VERTEX
  5
1DBD
  8
TOWNS
 10
639.52800221790324
 20
4666.2227327677729
 30
0.0
  0
VERTEX
  5
1DBE
  8
TOWNS
 10
639.24420769033156
 20
4666.2503226592262
 30
0.0
  0
VERTEX
  5
1DBF
  8
TOWNS
 10
639.24551830456301
 20
4666.7172556096011
 30
0.0
  0
VERTEX
  5
1DC0
  8
TOWNS
 10
639.41217184051834
 20
4666.7492848041493
 30
0.0
  0
VERTEX
  5
1DC1
  8
TOWNS
 10
639.44127491783297
 20
4666.8048625110669
 30
0.0
  0
VERTEX
  5
1DC2
  8
TOWNS
 10
639.71046881082043
 20
4666.7532124782892
 30
0.0
  0
VERTEX
  5
1DC3
  8
TOWNS
 10
639.8321038953618
 20
4666.6921608225484
 30
0.0
  0
VERTEX
  5
1DC4
  8
TOWNS
 10
639.7031302481081
 20
4666.6307928902388
 30
0.0
  0
VERTEX
  5
1DC5
  8
TOWNS
 10
639.59715833280995
 20
4666.4086195311538
 30
0.0
  0
VERTEX
  5
1DC6
  8
TOWNS
 10
639.76726615936502
 20
4666.4048923660066
 30
0.0
  0
VERTEX
  5
1DC7
  8
TOWNS
 10
639.92377490824094
 20
4666.3010393321028
 30
0.0
  0
SEQEND
  5
1DC8
  8
TOWNS
  0
POLYLINE
  5
1AE
  8
TOWNS
 66
     1
 10
0.0
 20
0.0
 30
0.0
 70
     1
  0
VERTEX
  5
1DC9
  8
TOWNS
 10
639.26301299888553
 20
4665.7284600681623
 30
0.0
  0
VERTEX
  5
1DCA
  8
TOWNS
 10
639.28903491464348
 20
4665.7914559225983
 30
0.0
  0
VERTEX
  5
1DCB
  8
TOWNS
 10
639.35263852724995
 20
4665.8325704635272
 30
0.0
  0
VERTEX
  5
1DCC
  8
TOWNS
 10
639.46671799568037
 20
4665.7788780401943
 30
0.0
  0
VERTEX
  5
1DCD
  8
TOWNS
 10
639.35230673759042
 20
4665.6311807318352
 30
0.0
  0
SEQEND
  5
1DCE
  8
TOWNS
  0
POLYLINE
  5
1AF
  8
TOWNS
 66
     1
 10
0.0
 20
0.0
 30
0.0
 70
     1
  0
VERTEX
  5
1DCF
  8
TOWNS
 10
638.78850891931165
 20
4665.2851314513064
 30
0.0
  0
VERTEX
  5
1DD0
  8
TOWNS
 10
638.78105355769605
 20
4665.0582882852823
 30
0.0
  0
VERTEX
  5
1DD1
  8
TOWNS
 10
638.82061769866289
 20
4664.9991394888602
 30
0.0
  0
VERTEX
  5
1DD2
  8
TOWNS
 10
638.84428507258008
 20
4665.0143685513058
 30
0.0
  0
VERTEX
  5
1DD3
  8
TOWNS
 10
638.95732473868486
 20
4664.9263523380159
 30
0.0
  0
VERTEX
  5
1DD4
  8
TOWNS
 10
639.00442382607116
 20
4664.9747082811273
 30
0.0
  0
VERTEX
  5
1DD5
  8
TOWNS
 10
638.85064274807905
 20
4665.0979898948453
 30
0.0
  0
VERTEX
  5
1DD6
  8
TOWNS
 10
638.86722376413991
 20
4665.3115275274286
 30
0.0
  0
SEQEND
  5
1DD7
  8
TOWNS
  0
POLYLINE
  5
1B0
  8
TOWNS
 66
     1
 10
0.0
 20
0.0
 30
0.0
 70
     1
  0
VERTEX
  5
1DD8
  8
TOWNS
 10
638.43573502216952
 20
4665.1134112157124
 30
0.0
  0
VERTEX
  5
1DD9
  8
TOWNS
 10
638.51727676105611
 20
4665.0384059603039
 30
0.0
  0
VERTEX
  5
1DDA
  8
TOWNS
 10
638.72455181603266
 20
4665.2708636377038
 30
0.0
  0
VERTEX
  5
1DDB
  8
TOWNS
 10
638.67317362647805
 20
4665.3209064180519
 30
0.0
  0
VERTEX
  5
1DDC
  8
TOWNS
 10
638.54239531176245
 20
4665.1700101179076
 30
0.0
  0
VERTEX
  5
1DDD
  8
TOWNS
 10
638.48632664557567
 20
4665.2364003165112
 30
0.0
  0
VERTEX
  5
1DDE
  8
TOWNS
 10
638.43630350359842
 20
4665.1835306421062
 30
0.0
  0
SEQEND
  5
1DDF
  8
TOWNS
  0
POLYLINE
  5
1B1
  8
TOWNS
 66
     1
 10
0.0
 20
0.0
 30
0.0
 70
     1
  0
VERTEX
  5
1DE0
  8
TOWNS
 10
637.86761676233891
 20
4665.0954886025202
 30
0.0
  0
VERTEX
  5
1DE1
  8
TOWNS
 10
637.90555194985916
 20
4665.046760561685
 30
0.0
  0
VERTEX
  5
1DE2
  8
TOWNS
 10
637.88351352938855
 20
4665.0211107436498
 30
0.0
  0
VERTEX
  5
1DE3
  8
TOWNS
 10
637.90337415335466
 20
4664.9855704060337
 30
0.0
  0
VERTEX
  5
1DE4
  8
TOWNS
 10
637.9829520551724
 20
4665.0597136357746
 30
0.0
  0
SEQEND
  5
1DE5
  8
TOWNS
  0
POLYLINE
  5
1B2
  8
TOWNS
 66
     1
 10
0.0
 20
0.0
 30
0.0
 70
     1
  0
VERTEX
  5
1DE6
  8
TOWNS
 10
638.19542612177713
 20
4665.463790262952
 30
0.0
  0
VERTEX
  5
1DE7
  8
TOWNS
 10
638.05202858527525
 20
4665.3649388256472
 30
0.0
  0
VERTEX
  5
1DE8
  8
TOWNS
 10
638.16926776874516
 20
4665.2978623153913
 30
0.0
  0
VERTEX
  5
1DE9
  8
TOWNS
 10
638.27145360378393
 20
4665.3544023024751
 30
0.0
  0
SEQEND
  5
1DEA
  8
TOWNS
  0
POLYLINE
  5
1B3
  8
TOWNS
 66
     1
 10
0.0
 20
0.0
 30
0.0
 70
     1
  0
VERTEX
  5
1DEB
  8
TOWNS
 10
638.24267608493108
 20
4664.0278634799897
 30
0.0
  0
VERTEX
  5
1DEC
  8
TOWNS
 10
638.10543880890043
 20
4664.1409207218221
 30
0.0
  0
VERTEX
  5
1DED
  8
TOWNS
 10
638.3476257736321
 20
4664.4409665384392
 30
0.0
  0
VERTEX
  5
1DEE
  8
TOWNS
 10
638.52499567205871
 20
4664.3388799265749
 30
0.0
  0
SEQEND
  5
1DEF
  8
TOWNS
  0
POLYLINE
  5
1B4
  8
TOWNS
 66
     1
 10
0.0
 20
0.0
 30
0.0
 70
     1
  0
VERTEX
  5
1DF0
  8
TOWNS
 10
637.54039843403825
 20
4660.3362009902467
 30
0.0
  0
VERTEX
  5
1DF1
  8
TOWNS
 10
637.48311392438018
 20
4660.3120257969622
 30
0.0
  0
SEQEND
  5
1DF2
  8
TOWNS
  0
POLYLINE
  5
1B5
  8
TOWNS
 66
     1
 10
0.0
 20
0.0
 30
0.0
 70
     1
  0
VERTEX
  5
1DF3
  8
TOWNS
 10
637.54039843403825
 20
4660.3362009902467
 30
0.0
  0
VERTEX
  5
1DF4
  8
TOWNS
 10
637.49411851647892
 20
4660.3290280208967
 30
0.0
  0
VERTEX
  5
1DF5
  8
TOWNS
 10
637.50027743551414
 20
4660.3439311624061
 30
0.0
  0
VERTEX
  5
1DF6
  8
TOWNS
 10
637.48311392438018
 20
4660.3120257969622
 30
0.0
  0
SEQEND
  5
1DF7
  8
TOWNS
  0
POLYLINE
  5
1B6
  8
TOWNS
 66
     1
 10
0.0
 20
0.0
 30
0.0
 70
     1
  0
VERTEX
  5
1DF8
  8
TOWNS
 10
641.75717372444535
 20
4671.6223606008161
 30
0.0
  0
VERTEX
  5
1DF9
  8
TOWNS
 10
641.784678762319
 20
4671.7436195380997
 30
0.0
  0
VERTEX
  5
1DFA
  8
TOWNS
 10
641.73036709685834
 20
4671.8040209620931
 30
0.0
  0
VERTEX
  5
1DFB
  8
TOWNS
 10
641.64508776368154
 20
4671.7828596880008
 30
0.0
  0
VERTEX
  5
1DFC
  8
TOWNS
 10
641.56688448843749
 20
4671.84061611366
 30
0.0
  0
VERTEX
  5
1DFD
  8
TOWNS
 10
641.45863680742025
 20
4671.7765426543801
 30
0.0
  0
VERTEX
  5
1DFE
  8
TOWNS
 10
641.41236391197253
 20
4671.6668686991861
 30
0.0
  0
VERTEX
  5
1DFF
  8
TOWNS
 10
641.39386021016833
 20
4671.5713328079719
 30
0.0
  0
VERTEX
  5
1E00
  8
TOWNS
 10
641.41382005730895
 20
4671.4149625590089
 30
0.0
  0
VERTEX
  5
1E01
  8
TOWNS
 10
641.21235486609385
 20
4671.0811428268198
 30
0.0
  0
VERTEX
  5
1E02
  8
TOWNS
 10
641.29209090619815
 20
4671.0299816906636
 30
0.0
  0
VERTEX
  5
1E03
  8
TOWNS
 10
641.523405432814
 20
4671.3627027054181
 30
0.0
  0
SEQEND
  5
1E04
  8
TOWNS
  0
POLYLINE
  5
1B7
  8
TOWNS
 66
     1
 10
0.0
 20
0.0
 30
0.0
 70
     1
  0
VERTEX
  5
1E05
  8
TOWNS
 10
639.4449624256282
 20
4691.345226234871
 30
0.0
  0
VERTEX
  5
1E06
  8
TOWNS
 10
639.73316316237003
 20
4691.3575466540133
 30
0.0
  0
VERTEX
  5
1E07
  8
TOWNS
 10
639.77720102021033
 20
4691.1632833176254
 30
0.0
  0
VERTEX
  5
1E08
  8
TOWNS
 10
639.4442797586878
 20
4691.1690524372898
 30
0.0
  0
SEQEND
  5
1E09
  8
TOWNS
  0
POLYLINE
  5
1B8
  8
TOWNS
 66
     1
 10
0.0
 20
0.0
 30
0.0
 70
     1
  0
VERTEX
  5
1E0A
  8
TOWNS
 10
640.84872253412129
 20
4691.0426755966537
 30
0.0
  0
VERTEX
  5
1E0B
  8
TOWNS
 10
641.11330142271015
 20
4691.1237665018962
 30
0.0
  0
VERTEX
  5
1E0C
  8
TOWNS
 10
641.32246003006469
 20
4691.1587885168983
 30
0.0
  0
VERTEX
  5
1E0D
  8
TOWNS
 10
641.4432713995418
 20
4691.1269669425628
 30
0.0
  0
VERTEX
  5
1E0E
  8
TOWNS
 10
641.50412563980012
 20
4691.0341638510854
 30
0.0
  0
VERTEX
  5
1E0F
  8
TOWNS
 10
641.50375537976436
 20
4690.9386119608725
 30
0.0
  0
VERTEX
  5
1E10
  8
TOWNS
 10
641.45269260180987
 20
4690.8611727507168
 30
0.0
  0
VERTEX
  5
1E11
  8
TOWNS
 10
641.07803102676303
 20
4690.8835268402781
 30
0.0
  0
SEQEND
  5
1E12
  8
TOWNS
  0
POLYLINE
  5
1B9
  8
TOWNS
 66
     1
 10
0.0
 20
0.0
 30
0.0
 70
     1
  0
VERTEX
  5
1E13
  8
TOWNS
 10
640.21400422027955
 20
4699.8569432925005
 30
0.0
  0
VERTEX
  5
1E14
  8
TOWNS
 10
641.01743978334116
 20
4699.9060857340382
 30
0.0
  0
VERTEX
  5
1E15
  8
TOWNS
 10
641.05714906446724
 20
4699.750657708988
 30
0.0
  0
VERTEX
  5
1E16
  8
TOWNS
 10
640.2178757572625
 20
4699.7001611166797
 30
0.0
  0
SEQEND
  5
1E17
  8
TOWNS
  0
POLYLINE
  5
1BA
  8
TOWNS
 66
     1
 10
0.0
 20
0.0
 30
0.0
 70
     1
  0
VERTEX
  5
1E18
  8
TOWNS
 10
641.6978123275984
 20
4700.5618714454104
 30
0.0
  0
VERTEX
  5
1E19
  8
TOWNS
 10
641.84417822730472
 20
4700.5747414692933
 30
0.0
  0
VERTEX
  5
1E1A
  8
TOWNS
 10
641.87452454680943
 20
4700.314838276201
 30
0.0
  0
VERTEX
  5
1E1B
  8
TOWNS
 10
641.69531847015526
 20
4700.3035885274921
 30
0.0
  0
SEQEND
  5
1E1C
  8
TOWNS
  0
POLYLINE
  5
1BB
  8
TOWNS
 66
     1
 10
0.0
 20
0.0
 30
0.0
 70
     1
  0
VERTEX
  5
1E1D
  8
TOWNS
 10
638.56550964944199
 20
4698.6495053168101
 30
0.0
  0
VERTEX
  5
1E1E
  8
TOWNS
 10
638.75532291754075
 20
4698.7010255220112
 30
0.0
  0
VERTEX
  5
1E1F
  8
TOWNS
 10
638.86382004070526
 20
4698.5736983399702
 30
0.0
  0
VERTEX
  5
1E20
  8
TOWNS
 10
638.63193091092467
 20
4698.4521692041581
 30
0.0
  0
SEQEND
  5
1E21
  8
TOWNS
  0
POLYLINE
  5
1BC
  8
TOWNS
 66
     1
 10
0.0
 20
0.0
 30
0.0
 70
     1
  0
VERTEX
  5
1E22
  8
TOWNS
 10
638.55448862807225
 20
4695.8053435846832
 30
0.0
  0
VERTEX
  5
1E23
  8
TOWNS
 10
638.86208677188733
 20
4695.8146027981848
 30
0.0
  0
VERTEX
  5
1E24
  8
TOWNS
 10
638.91349127082844
 20
4695.594929564395
 30
0.0
  0
VERTEX
  5
1E25
  8
TOWNS
 10
638.64611730100137
 20
4695.5631191731691
 30
0.0
  0
SEQEND
  5
1E26
  8
TOWNS
  0
POLYLINE
  5
1BD
  8
TOWNS
 66
     1
 10
0.0
 20
0.0
 30
0.0
 70
     1
  0
VERTEX
  5
1E27
  8
TOWNS
 10
639.68505435428813
 20
4694.3542256236897
 30
0.0
  0
VERTEX
  5
1E28
  8
TOWNS
 10
639.85380944295025
 20
4694.3655158695901
 30
0.0
  0
VERTEX
  5
1E29
  8
TOWNS
 10
639.86318436271415
 20
4694.0877776914658
 30
0.0
  0
VERTEX
  5
1E2A
  8
TOWNS
 10
639.71842138224042
 20
4694.1032688496789
 30
0.0
  0
SEQEND
  5
1E2B
  8
TOWNS
  0
POLYLINE
  5
1BE
  8
TOWNS
 66
     1
 10
0.0
 20
0.0
 30
0.0
 70
     1
  0
VERTEX
  5
1E2C
  8
TOWNS
 10
640.38940320085999
 20
4693.4915163733822
 30
0.0
  0
VERTEX
  5
1E2D
  8
TOWNS
 10
640.56851671250536
 20
4693.478878149539
 30
0.0
  0
VERTEX
  5
1E2E
  8
TOWNS
 10
640.6008072847128
 20
4693.3354230373316
 30
0.0
  0
VERTEX
  5
1E2F
  8
TOWNS
 10
640.60599826058876
 20
4693.1338451276606
 30
0.0
  0
VERTEX
  5
1E30
  8
TOWNS
 10
640.4521673694594
 20
4693.121004030344
 30
0.0
  0
VERTEX
  5
1E31
  8
TOWNS
 10
640.38273118484176
 20
4693.3108867221999
 30
0.0
  0
SEQEND
  5
1E32
  8
TOWNS
  0
POLYLINE
  5
1BF
  8
TOWNS
 66
     1
 10
0.0
 20
0.0
 30
0.0
 70
     1
  0
VERTEX
  5
1E33
  8
TOWNS
 10
635.55726446943424
 20
4690.0784752788013
 30
0.0
  0
VERTEX
  5
1E34
  8
TOWNS
 10
635.56436502148472
 20
4689.7783039705619
 30
0.0
  0
VERTEX
  5
1E35
  8
TOWNS
 10
635.95595388658069
 20
4689.8114595890738
 30
0.0
  0
VERTEX
  5
1E36
  8
TOWNS
 10
635.95172999339889
 20
4690.0620377339528
 30
0.0
  0
SEQEND
  5
1E37
  8
TOWNS
  0
POLYLINE
  5
1C0
  8
TOWNS
 66
     1
 10
0.0
 20
0.0
 30
0.0
 70
     1
  0
VERTEX
  5
1E38
  8
TOWNS
 10
641.41720837038235
 20
4672.9623883866889
 30
0.0
  0
VERTEX
  5
1E39
  8
TOWNS
 10
641.45155389858985
 20
4672.8605233515827
 30
0.0
  0
VERTEX
  5
1E3A
  8
TOWNS
 10
641.55812058076992
 20
4672.8053488868018
 30
0.0
  0
VERTEX
  5
1E3B
  8
TOWNS
 10
641.55507505779485
 20
4672.6950655695291
 30
0.0
  0
VERTEX
  5
1E3C
  8
TOWNS
 10
641.71847361627385
 20
4672.652508021758
 30
0.0
  0
VERTEX
  5
1E3D
  8
TOWNS
 10
641.7468593231124
 20
4672.7624341267783
 30
0.0
  0
VERTEX
  5
1E3E
  8
TOWNS
 10
641.90507294735039
 20
4672.7751127938282
 30
0.0
  0
VERTEX
  5
1E3F
  8
TOWNS
 10
642.04082252339936
 20
4672.7806536529042
 30
0.0
  0
VERTEX
  5
1E40
  8
TOWNS
 10
642.06240533461596
 20
4672.8310398458334
 30
0.0
  0
VERTEX
  5
1E41
  8
TOWNS
 10
642.15866518577047
 20
4672.8908096078476
 30
0.0
  0
VERTEX
  5
1E42
  8
TOWNS
 10
642.18971561601131
 20
4672.8724811570419
 30
0.0
  0
VERTEX
  5
1E43
  8
TOWNS
 10
642.15337390168486
 20
4672.832739282323
 30
0.0
  0
VERTEX
  5
1E44
  8
TOWNS
 10
642.17631994962255
 20
4672.7683073233711
 30
0.0
  0
VERTEX
  5
1E45
  8
TOWNS
 10
642.19947612241515
 20
4672.7187813549281
 30
0.0
  0
VERTEX
  5
1E46
  8
TOWNS
 10
642.25078686470556
 20
4672.7627849019455
 30
0.0
  0
VERTEX
  5
1E47
  8
TOWNS
 10
642.30722079119812
 20
4672.8529339820807
 30
0.0
  0
VERTEX
  5
1E48
  8
TOWNS
 10
642.4018442433204
 20
4673.008144108313
 30
0.0
  0
VERTEX
  5
1E49
  8
TOWNS
 10
642.51729405718288
 20
4673.1600788616488
 30
0.0
  0
VERTEX
  5
1E4A
  8
TOWNS
 10
642.64040699115401
 20
4673.3268145430684
 30
0.0
  0
VERTEX
  5
1E4B
  8
TOWNS
 10
642.7312927956981
 20
4673.428405128444
 30
0.0
  0
VERTEX
  5
1E4C
  8
TOWNS
 10
642.82683950976377
 20
4673.543348067823
 30
0.0
  0
VERTEX
  5
1E4D
  8
TOWNS
 10
642.91514335343015
 20
4673.6733020601341
 30
0.0
  0
VERTEX
  5
1E4E
  8
TOWNS
 10
642.94573279640804
 20
4673.7280339753042
 30
0.0
  0
VERTEX
  5
1E4F
  8
TOWNS
 10
642.91848305120163
 20
4673.8044537641181
 30
0.0
  0
VERTEX
  5
1E50
  8
TOWNS
 10
642.76564347357362
 20
4673.749954273705
 30
0.0
  0
VERTEX
  5
1E51
  8
TOWNS
 10
642.63816509229434
 20
4673.6965881700899
 30
0.0
  0
VERTEX
  5
1E52
  8
TOWNS
 10
642.60900321091128
 20
4673.637363445283
 30
0.0
  0
VERTEX
  5
1E53
  8
TOWNS
 10
642.54730030023609
 20
4673.5964881837654
 30
0.0
  0
VERTEX
  5
1E54
  8
TOWNS
 10
642.52422688996853
 20
4673.5461230033179
 30
0.0
  0
VERTEX
  5
1E55
  8
TOWNS
 10
642.41602123392238
 20
4673.4850307421402
 30
0.0
  0
VERTEX
  5
1E56
  8
TOWNS
 10
642.3129807870489
 20
4673.4730652121798
 30
0.0
  0
VERTEX
  5
1E57
  8
TOWNS
 10
642.19656568627215
 20
4673.3584164475969
 30
0.0
  0
VERTEX
  5
1E58
  8
TOWNS
 10
642.21367541291943
 20
4673.3030121328948
 30
0.0
  0
VERTEX
  5
1E59
  8
TOWNS
 10
642.19946154701495
 20
4673.2465584813317
 30
0.0
  0
VERTEX
  5
1E5A
  8
TOWNS
 10
642.21461839993128
 20
4673.158381999996
 30
0.0
  0
VERTEX
  5
1E5B
  8
TOWNS
 10
642.16007430971354
 20
4673.0965332893411
 30
0.0
  0
VERTEX
  5
1E5C
  8
TOWNS
 10
642.15606349982443
 20
4673.0235359608223
 30
0.0
  0
VERTEX
  5
1E5D
  8
TOWNS
 10
642.09564106334517
 20
4672.9677336963123
 30
0.0
  0
VERTEX
  5
1E5E
  8
TOWNS
 10
642.00847189389356
 20
4672.9182720527424
 30
0.0
  0
VERTEX
  5
1E5F
  8
TOWNS
 10
641.95619586468877
 20
4672.911554494478
 30
0.0
  0
VERTEX
  5
1E60
  8
TOWNS
 10
641.90883289483122
 20
4672.9360764788253
 30
0.0
  0
VERTEX
  5
1E61
  8
TOWNS
 10
641.8977906268143
 20
4672.9988497388431
 30
0.0
  0
VERTEX
  5
1E62
  8
TOWNS
 10
641.82502443563681
 20
4673.0192571382922
 30
0.0
  0
VERTEX
  5
1E63
  8
TOWNS
 10
641.79168493189752
 20
4672.980963837651
 30
0.0
  0
VERTEX
  5
1E64
  8
TOWNS
 10
641.75956415231485
 20
4673.0291252819561
 30
0.0
  0
VERTEX
  5
1E65
  8
TOWNS
 10
641.69389374413845
 20
4673.0240874351139
 30
0.0
  0
VERTEX
  5
1E66
  8
TOWNS
 10
641.68005939038915
 20
4673.1003181115584
 30
0.0
  0
VERTEX
  5
1E67
  8
TOWNS
 10
641.62173691503915
 20
4673.0877222070339
 30
0.0
  0
VERTEX
  5
1E68
  8
TOWNS
 10
641.54945272361033
 20
4673.0365598395583
 30
0.0
  0
SEQEND
  5
1E69
  8
TOWNS
  0
POLYLINE
  5
1C1
  8
TOWNS
 66
     1
 10
0.0
 20
0.0
 30
0.0
 70
     1
  0
VERTEX
  5
1E6A
  8
TOWNS
 10
641.87803254535277
 20
4681.4331227302937
 30
0.0
  0
VERTEX
  5
1E6B
  8
TOWNS
 10
641.88548425318959
 20
4681.3271641227757
 30
0.0
  0
VERTEX
  5
1E6C
  8
TOWNS
 10
641.97747985721185
 20
4681.1901958225681
 30
0.0
  0
VERTEX
  5
1E6D
  8
TOWNS
 10
642.04264725315443
 20
4681.2653128372849
 30
0.0
  0
VERTEX
  5
1E6E
  8
TOWNS
 10
642.35978892613628
 20
4681.34135053911
 30
0.0
  0
VERTEX
  5
1E6F
  8
TOWNS
 10
642.33472319200098
 20
4681.4669390841127
 30
0.0
  0
VERTEX
  5
1E70
  8
TOWNS
 10
642.05850009292521
 20
4681.4380332148066
 30
0.0
  0
VERTEX
  5
1E71
  8
TOWNS
 10
641.98615415145696
 20
4681.4882525952708
 30
0.0
  0
SEQEND
  5
1E72
  8
TOWNS
  0
POLYLINE
  5
1C2
  8
TOWNS
 66
     1
 10
0.0
 20
0.0
 30
0.0
 70
     1
  0
VERTEX
  5
1E73
  8
TOWNS
 10
641.67931935547995
 20
4686.479622578976
 30
0.0
  0
VERTEX
  5
1E74
  8
TOWNS
 10
641.69867484323765
 20
4686.372005272523
 30
0.0
  0
VERTEX
  5
1E75
  8
TOWNS
 10
641.83723623008746
 20
4686.2597257691295
 30
0.0
  0
VERTEX
  5
1E76
  8
TOWNS
 10
642.02102117552874
 20
4686.2884438134861
 30
0.0
  0
VERTEX
  5
1E77
  8
TOWNS
 10
641.93020227069235
 20
4686.5088856605353
 30
0.0
  0
SEQEND
  5
1E78
  8
TOWNS
  0
POLYLINE
  5
1C3
  8
TOWNS
 66
     1
 10
0.0
 20
0.0
 30
0.0
 70
     1
  0
VERTEX
  5
1E79
  8
TOWNS
 10
641.80233883979918
 20
4666.3794771338271
 30
0.0
  0
VERTEX
  5
1E7A
  8
TOWNS
 10
641.7371662201798
 20
4666.230936406846
 30
0.0
  0
VERTEX
  5
1E7B
  8
TOWNS
 10
641.94627073759341
 20
4665.9845685317996
 30
0.0
  0
VERTEX
  5
1E7C
  8
TOWNS
 10
642.18416308706981
 20
4665.9310146083808
 30
0.0
  0
VERTEX
  5
1E7D
  8
TOWNS
 10
642.23202703959214
 20
4666.034575129368
 30
0.0
  0
VERTEX
  5
1E7E
  8
TOWNS
 10
642.64693682814345
 20
4665.792408834327
 30
0.0
  0
VERTEX
  5
1E7F
  8
TOWNS
 10
642.74727665633725
 20
4665.9891483974543
 30
0.0
  0
VERTEX
  5
1E80
  8
TOWNS
 10
642.24113099302474
 20
4666.2495060549518
 30
0.0
  0
SEQEND
  5
1E81
  8
TOWNS
  0
POLYLINE
  5
1C4
  8
TOWNS
 66
     1
 10
0.0
 20
0.0
 30
0.0
 70
     1
  0
VERTEX
  5
1E82
  8
TOWNS
 10
642.06853631263903
 20
4665.6490443866423
 30
0.0
  0
VERTEX
  5
1E83
  8
TOWNS
 10
641.44523208198154
 20
4665.743767640819
 30
0.0
  0
VERTEX
  5
1E84
  8
TOWNS
 10
641.28448557031993
 20
4665.7162914543078
 30
0.0
  0
VERTEX
  5
1E85
  8
TOWNS
 10
641.29518023177843
 20
4665.8104121069191
 30
0.0
  0
VERTEX
  5
1E86
  8
TOWNS
 10
641.76701968086445
 20
4665.7763477410681
 30
0.0
  0
VERTEX
  5
1E87
  8
TOWNS
 10
642.07622836602388
 20
4665.7446172473637
 30
0.0
  0
SEQEND
  5
1E88
  8
TOWNS
  0
POLYLINE
  5
1C5
  8
TOWNS
 66
     1
 10
0.0
 20
0.0
 30
0.0
 70
     1
  0
VERTEX
  5
1E89
  8
TOWNS
 10
630.57270402732865
 20
4671.606473804236
 30
0.0
  0
VERTEX
  5
1E8A
  8
TOWNS
 10
630.58114203456523
 20
4671.4647198070134
 30
0.0
  0
VERTEX
  5
1E8B
  8
TOWNS
 10
630.75073412658764
 20
4671.4384747988579
 30
0.0
  0
VERTEX
  5
1E8C
  8
TOWNS
 10
630.94474314053002
 20
4671.4521397653061
 30
0.0
  0
VERTEX
  5
1E8D
  8
TOWNS
 10
631.03732838156236
 20
4671.462761783614
 30
0.0
  0
VERTEX
  5
1E8E
  8
TOWNS
 10
631.03371809631403
 20
4671.523939382153
 30
0.0
  0
VERTEX
  5
1E8F
  8
TOWNS
 10
630.99422837141947
 20
4671.5781682850866
 30
0.0
  0
VERTEX
  5
1E90
  8
TOWNS
 10
630.86916513855147
 20
4671.590367527223
 30
0.0
  0
VERTEX
  5
1E91
  8
TOWNS
 10
630.87750065819489
 20
4671.6528676249281
 30
0.0
  0
VERTEX
  5
1E92
  8
TOWNS
 10
630.88008390648986
 20
4671.7303577630837
 30
0.0
  0
VERTEX
  5
1E93
  8
TOWNS
 10
630.84653556531293
 20
4671.7830120170274
 30
0.0
  0
VERTEX
  5
1E94
  8
TOWNS
 10
630.76801710278664
 20
4671.8184094569251
 30
0.0
  0
VERTEX
  5
1E95
  8
TOWNS
 10
630.69319297545098
 20
4671.7985916944872
 30
0.0
  0
VERTEX
  5
1E96
  8
TOWNS
 10
630.68149803296762
 20
4671.7093028388381
 30
0.0
  0
VERTEX
  5
1E97
  8
TOWNS
 10
630.63499528759689
 20
4671.6890858391762
 30
0.0
  0
SEQEND
  5
1E98
  8
TOWNS
  0
POLYLINE
  5
1C6
  8
TOWNS
 66
     1
 10
0.0
 20
0.0
 30
0.0
 70
     1
  0
VERTEX
  5
1E99
  8
TOWNS
 10
630.65724291178356
 20
4686.6991056681554
 30
0.0
  0
VERTEX
  5
1E9A
  8
TOWNS
 10
630.69629008706636
 20
4686.507720640062
 30
0.0
  0
VERTEX
  5
1E9B
  8
TOWNS
 10
631.24279490150025
 20
4686.5671070276649
 30
0.0
  0
VERTEX
  5
1E9C
  8
TOWNS
 10
631.29131227064136
 20
4686.5187144460206
 30
0.0
  0
VERTEX
  5
1E9D
  8
TOWNS
 10
631.54238429822306
 20
4686.5613929190367
 30
0.0
  0
VERTEX
  5
1E9E
  8
TOWNS
 10
631.53994942474355
 20
4686.6001905193298
 30
0.0
  0
VERTEX
  5
1E9F
  8
TOWNS
 10
631.71502191322054
 20
4686.6454312281558
 30
0.0
  0
VERTEX
  5
1EA0
  8
TOWNS
 10
631.69388165161558
 20
4686.7322011603837
 30
0.0
  0
VERTEX
  5
1EA1
  8
TOWNS
 10
631.63131851645335
 20
4686.7360648828744
 30
0.0
  0
VERTEX
  5
1EA2
  8
TOWNS
 10
631.61412473986411
 20
4686.7855068013769
 30
0.0
  0
VERTEX
  5
1EA3
  8
TOWNS
 10
631.45744373964794
 20
4686.7757883199438
 30
0.0
  0
VERTEX
  5
1EA4
  8
TOWNS
 10
631.45540681597504
 20
4686.7370537571078
 30
0.0
  0
VERTEX
  5
1EA5
  8
TOWNS
 10
631.24038232792316
 20
4686.7132487720992
 30
0.0
  0
VERTEX
  5
1EA6
  8
TOWNS
 10
631.19251634583145
 20
4686.8078499243211
 30
0.0
  0
VERTEX
  5
1EA7
  8
TOWNS
 10
631.10759422490764
 20
4686.8120288340933
 30
0.0
  0
VERTEX
  5
1EA8
  8
TOWNS
 10
631.08460615199886
 20
4686.873479594944
 30
0.0
  0
VERTEX
  5
1EA9
  8
TOWNS
 10
630.92794616426795
 20
4686.8652517125611
 30
0.0
  0
VERTEX
  5
1EAA
  8
TOWNS
 10
630.91503378504513
 20
4686.7953616570594
 30
0.0
  0
VERTEX
  5
1EAB
  8
TOWNS
 10
630.82244854401245
 20
4686.7847396387488
 30
0.0
  0
VERTEX
  5
1EAC
  8
TOWNS
 10
630.80390996835365
 20
4686.738783218002
 30
0.0
  0
SEQEND
  5
1EAD
  8
TOWNS
  0
POLYLINE
  5
1C7
  8
TOWNS
 66
     1
 10
0.0
 20
0.0
 30
0.0
 70
     1
  0
VERTEX
  5
1EAE
  8
TOWNS
 10
630.68813372329953
 20
4663.3749560606784
 30
0.0
  0
VERTEX
  5
1EAF
  8
TOWNS
 10
630.63063455001509
 20
4663.2101071921843
 30
0.0
  0
VERTEX
  5
1EB0
  8
TOWNS
 10
630.70393436113761
 20
4663.0812906518959
 30
0.0
  0
VERTEX
  5
1EB1
  8
TOWNS
 10
630.92559505994177
 20
4663.2408423169081
 30
0.0
  0
VERTEX
  5
1EB2
  8
TOWNS
 10
630.83838092588826
 20
4663.4067692331482
 30
0.0
  0
SEQEND
  5
1EB3
  8
TOWNS
  0
POLYLINE
  5
1C8
  8
TOWNS
 66
     1
 10
0.0
 20
0.0
 30
0.0
 70
     1
  0
VERTEX
  5
1EB4
  8
TOWNS
 10
630.52770052509436
 20
4679.2017286424643
 30
0.0
  0
VERTEX
  5
1EB5
  8
TOWNS
 10
630.61406735784726
 20
4678.8769868868294
 30
0.0
  0
VERTEX
  5
1EB6
  8
TOWNS
 10
630.92136318706628
 20
4678.9949084494738
 30
0.0
  0
VERTEX
  5
1EB7
  8
TOWNS
 10
630.87311898023631
 20
4679.0626788187792
 30
0.0
  0
VERTEX
  5
1EB8
  8
TOWNS
 10
630.86342022387203
 20
4679.1149968729551
 30
0.0
  0
VERTEX
  5
1EB9
  8
TOWNS
 10
630.95025319355602
 20
4679.1406089317143
 30
0.0
  0
VERTEX
  5
1EBA
  8
TOWNS
 10
630.87652300288119
 20
4679.3041558650066
 30
0.0
  0
VERTEX
  5
1EBB
  8
TOWNS
 10
630.78561747326876
 20
4679.3069282256702
 30
0.0
  0
VERTEX
  5
1EBC
  8
TOWNS
 10
630.77018745804139
 20
4679.3757269193484
 30
0.0
  0
VERTEX
  5
1EBD
  8
TOWNS
 10
630.58459672626702
 20
4679.3246709017158
 30
0.0
  0
VERTEX
  5
1EBE
  8
TOWNS
 10
630.58499467607385
 20
4679.2471387385904
 30
0.0
  0
SEQEND
  5
1EBF
  8
TOWNS
  0
POLYLINE
  5
1C9
  8
TOWNS
 66
     1
 10
0.0
 20
0.0
 30
0.0
 70
     1
  0
VERTEX
  5
1EC0
  8
TOWNS
 10
630.13891797582687
 20
4665.0936716890219
 30
0.0
  0
VERTEX
  5
1EC1
  8
TOWNS
 10
630.12090335870585
 20
4664.9890124505973
 30
0.0
  0
VERTEX
  5
1EC2
  8
TOWNS
 10
630.41876828485272
 20
4665.0257527914691
 30
0.0
  0
VERTEX
  5
1EC3
  8
TOWNS
 10
630.6258087107019
 20
4665.1627358000014
 30
0.0
  0
VERTEX
  5
1EC4
  8
TOWNS
 10
630.89923933515365
 20
4665.3557874747212
 30
0.0
  0
VERTEX
  5
1EC5
  8
TOWNS
 10
630.87407944506401
 20
4665.45391126099
 30
0.0
  0
VERTEX
  5
1EC6
  8
TOWNS
 10
630.24653951426319
 20
4665.1905603205769
 30
0.0
  0
SEQEND
  5
1EC7
  8
TOWNS
  0
POLYLINE
  5
1CA
  8
TOWNS
 66
     1
 10
0.0
 20
0.0
 30
0.0
 70
     1
  0
VERTEX
  5
1EC8
  8
TOWNS
 10
629.76200854348644
 20
4671.7371735328761
 30
0.0
  0
VERTEX
  5
1EC9
  8
TOWNS
 10
629.78058656928215
 20
4671.5744040615427
 30
0.0
  0
VERTEX
  5
1ECA
  8
TOWNS
 10
629.8893372625331
 20
4671.5683983529516
 30
0.0
  0
VERTEX
  5
1ECB
  8
TOWNS
 10
629.97104704801563
 20
4671.547864878592
 30
0.0
  0
VERTEX
  5
1ECC
  8
TOWNS
 10
630.13660860508026
 20
4671.5529854879578
 30
0.0
  0
VERTEX
  5
1ECD
  8
TOWNS
 10
630.22785033446007
 20
4671.5740627121077
 30
0.0
  0
VERTEX
  5
1ECE
  8
TOWNS
 10
630.24363884935758
 20
4671.636457747386
 30
0.0
  0
VERTEX
  5
1ECF
  8
TOWNS
 10
630.2395255518752
 20
4671.7677145137968
 30
0.0
  0
VERTEX
  5
1ED0
  8
TOWNS
 10
630.22098826363344
 20
4671.8276116381403
 30
0.0
  0
VERTEX
  5
1ED1
  8
TOWNS
 10
630.08954238485296
 20
4671.8100829492023
 30
0.0
  0
VERTEX
  5
1ED2
  8
TOWNS
 10
629.99840571790037
 20
4671.796458720306
 30
0.0
  0
VERTEX
  5
1ED3
  8
TOWNS
 10
629.90762626320077
 20
4671.808174675275
 30
0.0
  0
VERTEX
  5
1ED4
  8
TOWNS
 10
629.87405562212132
 20
4671.7534847850739
 30
0.0
  0
SEQEND
  5
1ED5
  8
TOWNS
  0
POLYLINE
  5
1CB
  8
TOWNS
 66
     1
 10
0.0
 20
0.0
 30
0.0
 70
     1
  0
VERTEX
  5
1ED6
  8
TOWNS
 10
629.49743624688085
 20
4675.0730540208469
 30
0.0
  0
VERTEX
  5
1ED7
  8
TOWNS
 10
629.58309251737876
 20
4675.01519253276
 30
0.0
  0
VERTEX
  5
1ED8
  8
TOWNS
 10
629.62980538760451
 20
4675.0503155229298
 30
0.0
  0
VERTEX
  5
1ED9
  8
TOWNS
 10
629.68808583798352
 20
4675.0599302293522
 30
0.0
  0
VERTEX
  5
1EDA
  8
TOWNS
 10
629.77011209816465
 20
4675.1676092858452
 30
0.0
  0
VERTEX
  5
1EDB
  8
TOWNS
 10
629.72936291155941
 20
4675.238255790825
 30
0.0
  0
VERTEX
  5
1EDC
  8
TOWNS
 10
629.66455401528685
 20
4675.2943325050628
 30
0.0
  0
VERTEX
  5
1EDD
  8
TOWNS
 10
629.57719573346628
 20
4675.2314554700361
 30
0.0
  0
VERTEX
  5
1EDE
  8
TOWNS
 10
629.48513451715326
 20
4675.1522448829073
 30
0.0
  0
SEQEND
  5
1EDF
  8
TOWNS
  0
POLYLINE
  5
1CC
  8
TOWNS
 66
     1
 10
0.0
 20
0.0
 30
0.0
 70
     1
  0
VERTEX
  5
1EE0
  8
TOWNS
 10
629.13776107323827
 20
4678.5370012396879
 30
0.0
  0
VERTEX
  5
1EE1
  8
TOWNS
 10
629.18614979263236
 20
4678.2679579735577
 30
0.0
  0
VERTEX
  5
1EE2
  8
TOWNS
 10
629.23662003550476
 20
4678.2523375585433
 30
0.0
  0
VERTEX
  5
1EE3
  8
TOWNS
 10
629.27604672294285
 20
4678.1936368584556
 30
0.0
  0
VERTEX
  5
1EE4
  8
TOWNS
 10
629.53335430903883
 20
4678.2556090691887
 30
0.0
  0
VERTEX
  5
1EE5
  8
TOWNS
 10
629.48809258772724
 20
4678.4291909586154
 30
0.0
  0
VERTEX
  5
1EE6
  8
TOWNS
 10
629.45435513418113
 20
4678.4684298211032
 30
0.0
  0
VERTEX
  5
1EE7
  8
TOWNS
 10
629.45727458224314
 20
4678.5697695440713
 30
0.0
  0
VERTEX
  5
1EE8
  8
TOWNS
 10
629.31300166159895
 20
4678.5941667409224
 30
0.0
  0
SEQEND
  5
1EE9
  8
TOWNS
  0
POLYLINE
  5
1CD
  8
TOWNS
 66
     1
 10
0.0
 20
0.0
 30
0.0
 70
     1
  0
VERTEX
  5
1EEA
  8
TOWNS
 10
630.05601983799625
 20
4679.1621600172948
 30
0.0
  0
VERTEX
  5
1EEB
  8
TOWNS
 10
630.16394589464608
 20
4678.6746067653567
 30
0.0
  0
VERTEX
  5
1EEC
  8
TOWNS
 10
630.33859813341371
 20
4678.6900354931668
 30
0.0
  0
VERTEX
  5
1EED
  8
TOWNS
 10
630.29621254777646
 20
4678.8561223623692
 30
0.0
  0
VERTEX
  5
1EEE
  8
TOWNS
 10
630.41191322404745
 20
4678.9200907592221
 30
0.0
  0
VERTEX
  5
1EEF
  8
TOWNS
 10
630.36719653994112
 20
4679.0265746788782
 30
0.0
  0
VERTEX
  5
1EF0
  8
TOWNS
 10
630.31634935974762
 20
4679.1212178560691
 30
0.0
  0
VERTEX
  5
1EF1
  8
TOWNS
 10
630.22981056486014
 20
4679.116474184023
 30
0.0
  0
VERTEX
  5
1EF2
  8
TOWNS
 10
630.20871232822606
 20
4679.2062253143513
 30
0.0
  0
SEQEND
  5
1EF3
  8
TOWNS
  0
POLYLINE
  5
1CE
  8
TOWNS
 66
     1
 10
0.0
 20
0.0
 30
0.0
 70
     1
  0
VERTEX
  5
1EF4
  8
TOWNS
 10
629.79695979414635
 20
4671.1247630449916
 30
0.0
  0
VERTEX
  5
1EF5
  8
TOWNS
 10
629.86266471241663
 20
4671.0062887068098
 30
0.0
  0
VERTEX
  5
1EF6
  8
TOWNS
 10
630.11360729651335
 20
4670.9812497409057
 30
0.0
  0
VERTEX
  5
1EF7
  8
TOWNS
 10
630.12738311952853
 20
4671.0679522460023
 30
0.0
  0
SEQEND
  5
1EF8
  8
TOWNS
  0
POLYLINE
  5
1CF
  8
TOWNS
 66
     1
 10
0.0
 20
0.0
 30
0.0
 70
     1
  0
VERTEX
  5
1EF9
  8
TOWNS
 10
629.43616407332956
 20
4668.2767494730369
 30
0.0
  0
VERTEX
  5
1EFA
  8
TOWNS
 10
629.47665121771911
 20
4668.1475008885927
 30
0.0
  0
VERTEX
  5
1EFB
  8
TOWNS
 10
629.76368298249156
 20
4668.2139334578997
 30
0.0
  0
VERTEX
  5
1EFC
  8
TOWNS
 10
629.73917012731374
 20
4668.3762107311559
 30
0.0
  0
SEQEND
  5
1EFD
  8
TOWNS
  0
POLYLINE
  5
1D0
  8
TOWNS
 66
     1
 10
0.0
 20
0.0
 30
0.0
 70
     1
  0
VERTEX
  5
1EFE
  8
TOWNS
 10
629.336594266877
 20
4667.5683520523617
 30
0.0
  0
VERTEX
  5
1EFF
  8
TOWNS
 10
629.48052410202911
 20
4667.4001884245063
 30
0.0
  0
VERTEX
  5
1F00
  8
TOWNS
 10
629.7489520985597
 20
4667.4067063009334
 30
0.0
  0
VERTEX
  5
1F01
  8
TOWNS
 10
629.73205377460465
 20
4667.5571498872287
 30
0.0
  0
VERTEX
  5
1F02
  8
TOWNS
 10
629.64427219044319
 20
4667.5395848899907
 30
0.0
  0
VERTEX
  5
1F03
  8
TOWNS
 10
629.64639210315693
 20
4667.4918770131117
 30
0.0
  0
VERTEX
  5
1F04
  8
TOWNS
 10
629.50003020400175
 20
4667.5048673013007
 30
0.0
  0
VERTEX
  5
1F05
  8
TOWNS
 10
629.42039235575123
 20
4667.5485710131998
 30
0.0
  0
SEQEND
  5
1F06
  8
TOWNS
  0
POLYLINE
  5
1D1
  8
TOWNS
 66
     1
 10
0.0
 20
0.0
 30
0.0
 70
     1
  0
VERTEX
  5
1F07
  8
TOWNS
 10
629.13972337981045
 20
4664.8463115822296
 30
0.0
  0
VERTEX
  5
1F08
  8
TOWNS
 10
629.19074911001417
 20
4664.7097430421227
 30
0.0
  0
VERTEX
  5
1F09
  8
TOWNS
 10
629.29485847405942
 20
4664.7334900008436
 30
0.0
  0
VERTEX
  5
1F0A
  8
TOWNS
 10
629.30747769584536
 20
4664.6814451380078
 30
0.0
  0
VERTEX
  5
1F0B
  8
TOWNS
 10
629.96396462831626
 20
4664.8989331770663
 30
0.0
  0
VERTEX
  5
1F0C
  8
TOWNS
 10
630.03683033264167
 20
4665.0296742776809
 30
0.0
  0
VERTEX
  5
1F0D
  8
TOWNS
 10
629.99760004397672
 20
4665.0634678316273
 30
0.0
  0
VERTEX
  5
1F0E
  8
TOWNS
 10
629.81919034322436
 20
4665.1312306535347
 30
0.0
  0
VERTEX
  5
1F0F
  8
TOWNS
 10
629.67216177078728
 20
4665.0815589395888
 30
0.0
  0
VERTEX
  5
1F10
  8
TOWNS
 10
629.67722537646239
 20
4665.0368733091582
 30
0.0
  0
SEQEND
  5
1F11
  8
TOWNS
  0
POLYLINE
  5
1D2
  8
TOWNS
 66
     1
 10
0.0
 20
0.0
 30
0.0
 70
     1
  0
VERTEX
  5
1F12
  8
TOWNS
 10
629.46930741185793
 20
4664.2867721964294
 30
0.0
  0
VERTEX
  5
1F13
  8
TOWNS
 10
629.49558668907684
 20
4664.1036337736232
 30
0.0
  0
VERTEX
  5
1F14
  8
TOWNS
 10
629.83799977706235
 20
4664.1558781141312
 30
0.0
  0
VERTEX
  5
1F15
  8
TOWNS
 10
629.81195616029152
 20
4664.321118718718
 30
0.0
  0
SEQEND
  5
1F16
  8
TOWNS
  0
POLYLINE
  5
1D3
  8
TOWNS
 66
     1
 10
0.0
 20
0.0
 30
0.0
 70
     1
  0
VERTEX
  5
1F17
  8
TOWNS
 10
630.06143201124064
 20
4661.5751204243943
 30
0.0
  0
VERTEX
  5
1F18
  8
TOWNS
 10
630.16680029365205
 20
4661.2766673784463
 30
0.0
  0
VERTEX
  5
1F19
  8
TOWNS
 10
630.25889922540273
 20
4661.3062231696058
 30
0.0
  0
VERTEX
  5
1F1A
  8
TOWNS
 10
630.17278277746595
 20
4661.6153719083341
 30
0.0
  0
SEQEND
  5
1F1B
  8
TOWNS
  0
POLYLINE
  5
1D4
  8
TOWNS
 66
     1
 10
0.0
 20
0.0
 30
0.0
 70
     1
  0
VERTEX
  5
1F1C
  8
TOWNS
 10
630.49481639327928
 20
4662.6489150892821
 30
0.0
  0
VERTEX
  5
1F1D
  8
TOWNS
 10
630.29711764395267
 20
4662.482220213943
 30
0.0
  0
VERTEX
  5
1F1E
  8
TOWNS
 10
630.42833109678611
 20
4662.2601863860964
 30
0.0
  0
VERTEX
  5
1F1F
  8
TOWNS
 10
630.60870257196552
 20
4662.2700200532072
 30
0.0
  0
SEQEND
  5
1F20
  8
TOWNS
  0
POLYLINE
  5
1D5
  8
TOWNS
 66
     1
 10
0.0
 20
0.0
 30
0.0
 70
     1
  0
VERTEX
  5
1F21
  8
TOWNS
 10
631.7970639442608
 20
4675.9664828786863
 30
0.0
  0
VERTEX
  5
1F22
  8
TOWNS
 10
631.80396932747556
 20
4675.8217686958478
 30
0.0
  0
VERTEX
  5
1F23
  8
TOWNS
 10
631.85462868271691
 20
4675.8195636722903
 30
0.0
  0
VERTEX
  5
1F24
  8
TOWNS
 10
631.89151414683113
 20
4675.6863540321492
 30
0.0
  0
VERTEX
  5
1F25
  8
TOWNS
 10
632.02163752644435
 20
4675.7158285259802
 30
0.0
  0
VERTEX
  5
1F26
  8
TOWNS
 10
632.00648196094494
 20
4675.9098585524071
 30
0.0
  0
VERTEX
  5
1F27
  8
TOWNS
 10
632.05002452069982
 20
4675.9316081760899
 30
0.0
  0
VERTEX
  5
1F28
  8
TOWNS
 10
632.0069034980711
 20
4676.045524078515
 30
0.0
  0
VERTEX
  5
1F29
  8
TOWNS
 10
631.88862086092252
 20
4676.0099190885949
 30
0.0
  0
SEQEND
  5
1F2A
  8
TOWNS
  0
POLYLINE
  5
1D6
  8
TOWNS
 66
     1
 10
0.0
 20
0.0
 30
0.0
 70
     1
  0
VERTEX
  5
1F2B
  8
TOWNS
 10
632.47675780016391
 20
4674.369098008945
 30
0.0
  0
VERTEX
  5
1F2C
  8
TOWNS
 10
632.42895228069415
 20
4674.2564638681351
 30
0.0
  0
VERTEX
  5
1F2D
  8
TOWNS
 10
632.63072818975536
 20
4674.1865292128259
 30
0.0
  0
VERTEX
  5
1F2E
  8
TOWNS
 10
632.81923579475767
 20
4674.1272178632425
 30
0.0
  0
VERTEX
  5
1F2F
  8
TOWNS
 10
632.92914088729242
 20
4674.0973415573517
 30
0.0
  0
VERTEX
  5
1F30
  8
TOWNS
 10
632.96932531162406
 20
4674.1981559681844
 30
0.0
  0
VERTEX
  5
1F31
  8
TOWNS
 10
632.84025255628399
 20
4674.2432114268931
 30
0.0
  0
VERTEX
  5
1F32
  8
TOWNS
 10
632.70515436728476
 20
4674.2838791383911
 30
0.0
  0
VERTEX
  5
1F33
  8
TOWNS
 10
632.55542335008806
 20
4674.3441347624021
 30
0.0
  0
SEQEND
  5
1F34
  8
TOWNS
  0
POLYLINE
  5
1D7
  8
TOWNS
 66
     1
 10
0.0
 20
0.0
 30
0.0
 70
     1
  0
VERTEX
  5
1F35
  8
TOWNS
 10
634.57080288017528
 20
4673.0529363362139
 30
0.0
  0
VERTEX
  5
1F36
  8
TOWNS
 10
634.57185092961413
 20
4672.9157591985731
 30
0.0
  0
VERTEX
  5
1F37
  8
TOWNS
 10
634.57898745016894
 20
4672.7874416052919
 30
0.0
  0
VERTEX
  5
1F38
  8
TOWNS
 10
634.65208984111405
 20
4672.7908837906562
 30
0.0
  0
VERTEX
  5
1F39
  8
TOWNS
 10
634.70306438363707
 20
4672.8110377528619
 30
0.0
  0
VERTEX
  5
1F3A
  8
TOWNS
 10
634.7289285922202
 20
4672.742091971787
 30
0.0
  0
VERTEX
  5
1F3B
  8
TOWNS
 10
634.80520129363583
 20
4672.7589075236374
 30
0.0
  0
VERTEX
  5
1F3C
  8
TOWNS
 10
634.8207599586101
 20
4672.9107595144496
 30
0.0
  0
VERTEX
  5
1F3D
  8
TOWNS
 10
634.88359625608325
 20
4672.9262735796183
 30
0.0
  0
VERTEX
  5
1F3E
  8
TOWNS
 10
634.89073535147213
 20
4673.0096630765211
 30
0.0
  0
VERTEX
  5
1F3F
  8
TOWNS
 10
634.85061525201388
 20
4673.0191740079317
 30
0.0
  0
VERTEX
  5
1F40
  8
TOWNS
 10
634.8365707734099
 20
4673.0804986938692
 30
0.0
  0
VERTEX
  5
1F41
  8
TOWNS
 10
634.66823814309839
 20
4673.0903260999803
 30
0.0
  0
SEQEND
  5
1F42
  8
TOWNS
  0
POLYLINE
  5
1D8
  8
TOWNS
 66
     1
 10
0.0
 20
0.0
 30
0.0
 70
     1
  0
VERTEX
  5
1F43
  8
TOWNS
 10
631.69200289632352
 20
4678.9840449944886
 30
0.0
  0
VERTEX
  5
1F44
  8
TOWNS
 10
631.74602038698765
 20
4678.9027751837848
 30
0.0
  0
VERTEX
  5
1F45
  8
TOWNS
 10
631.89579471657203
 20
4678.9513543029661
 30
0.0
  0
VERTEX
  5
1F46
  8
TOWNS
 10
631.98419976041453
 20
4678.7712006552574
 30
0.0
  0
VERTEX
  5
1F47
  8
TOWNS
 10
632.29903263482947
 20
4678.8949795516783
 30
0.0
  0
VERTEX
  5
1F48
  8
TOWNS
 10
632.18864811738047
 20
4679.2081327146743
 30
0.0
  0
VERTEX
  5
1F49
  8
TOWNS
 10
631.84140028858656
 20
4679.1116468758473
 30
0.0
  0
VERTEX
  5
1F4A
  8
TOWNS
 10
631.79752281648155
 20
4679.1719012124431
 30
0.0
  0
VERTEX
  5
1F4B
  8
TOWNS
 10
631.70271153940678
 20
4679.1091292398432
 30
0.0
  0
VERTEX
  5
1F4C
  8
TOWNS
 10
631.73004533455514
 20
4679.0386718472337
 30
0.0
  0
SEQEND
  5
1F4D
  8
TOWNS
  0
POLYLINE
  5
1D9
  8
TOWNS
 66
     1
 10
0.0
 20
0.0
 30
0.0
 70
     1
  0
VERTEX
  5
1F4E
  8
TOWNS
 10
631.81732471610212
 20
4679.5190006664197
 30
0.0
  0
VERTEX
  5
1F4F
  8
TOWNS
 10
631.85414714275987
 20
4679.3813192291273
 30
0.0
  0
VERTEX
  5
1F50
  8
TOWNS
 10
632.10568144502156
 20
4679.4567908812614
 30
0.0
  0
VERTEX
  5
1F51
  8
TOWNS
 10
632.10221824717155
 20
4679.5284026731551
 30
0.0
  0
VERTEX
  5
1F52
  8
TOWNS
 10
632.27601026145226
 20
4679.5885703849726
 30
0.0
  0
VERTEX
  5
1F53
  8
TOWNS
 10
632.35576717320362
 20
4679.5352647439804
 30
0.0
  0
VERTEX
  5
1F54
  8
TOWNS
 10
632.57272352250095
 20
4679.5903512965697
 30
0.0
  0
VERTEX
  5
1F55
  8
TOWNS
 10
632.67370732063318
 20
4679.6679452097369
 30
0.0
  0
VERTEX
  5
1F56
  8
TOWNS
 10
632.80315443846041
 20
4679.3321598986686
 30
0.0
  0
VERTEX
  5
1F57
  8
TOWNS
 10
632.95989847613293
 20
4679.346350177254
 30
0.0
  0
VERTEX
  5
1F58
  8
TOWNS
 10
633.06348267279452
 20
4679.1853641923517
 30
0.0
  0
VERTEX
  5
1F59
  8
TOWNS
 10
632.98597023473644
 20
4679.0806032965047
 30
0.0
  0
VERTEX
  5
1F5A
  8
TOWNS
 10
633.06643899615949
 20
4678.8662709330538
 30
0.0
  0
VERTEX
  5
1F5B
  8
TOWNS
 10
633.11867171297638
 20
4678.764153748125
 30
0.0
  0
VERTEX
  5
1F5C
  8
TOWNS
 10
633.29605042518585
 20
4678.549946172172
 30
0.0
  0
VERTEX
  5
1F5D
  8
TOWNS
 10
633.37574558689789
 20
4678.5980222791186
 30
0.0
  0
VERTEX
  5
1F5E
  8
TOWNS
 10
633.4939244490364
 20
4678.7320278188754
 30
0.0
  0
VERTEX
  5
1F5F
  8
TOWNS
 10
633.42808980322741
 20
4679.0326258148998
 30
0.0
  0
VERTEX
  5
1F60
  8
TOWNS
 10
633.30781355479382
 20
4679.0671210053379
 30
0.0
  0
VERTEX
  5
1F61
  8
TOWNS
 10
633.20891256755635
 20
4679.3488034883849
 30
0.0
  0
VERTEX
  5
1F62
  8
TOWNS
 10
633.25233033981533
 20
4679.4674630628542
 30
0.0
  0
VERTEX
  5
1F63
  8
TOWNS
 10
633.37997810839522
 20
4679.6386075039663
 30
0.0
  0
VERTEX
  5
1F64
  8
TOWNS
 10
633.33322450061576
 20
4679.7063568607864
 30
0.0
  0
VERTEX
  5
1F65
  8
TOWNS
 10
633.3341490499763
 20
4679.7719432190224
 30
0.0
  0
VERTEX
  5
1F66
  8
TOWNS
 10
633.14875129282234
 20
4680.051863228121
 30
0.0
  0
VERTEX
  5
1F67
  8
TOWNS
 10
633.01109086801318
 20
4680.0165314005153
 30
0.0
  0
VERTEX
  5
1F68
  8
TOWNS
 10
632.97449829127845
 20
4680.0647558822757
 30
0.0
  0
VERTEX
  5
1F69
  8
TOWNS
 10
632.27404023748716
 20
4679.8718682545659
 30
0.0
  0
VERTEX
  5
1F6A
  8
TOWNS
 10
632.27143597670681
 20
4679.7928875173602
 30
0.0
  0
VERTEX
  5
1F6B
  8
TOWNS
 10
631.97144605534322
 20
4679.6644266989333
 30
0.0
  0
VERTEX
  5
1F6C
  8
TOWNS
 10
631.95420896636585
 20
4679.6050338742407
 30
0.0
  0
SEQEND
  5
1F6D
  8
TOWNS
  0
POLYLINE
  5
1DA
  8
TOWNS
 66
     1
 10
0.0
 20
0.0
 30
0.0
 70
     1
  0
VERTEX
  5
1F6E
  8
TOWNS
 10
633.50725280190488
 20
4680.206335342531
 30
0.0
  0
VERTEX
  5
1F6F
  8
TOWNS
 10
633.65935436770735
 20
4679.9969567759827
 30
0.0
  0
VERTEX
  5
1F70
  8
TOWNS
 10
633.80736622334723
 20
4680.1320326650803
 30
0.0
  0
VERTEX
  5
1F71
  8
TOWNS
 10
633.76970329727055
 20
4680.2100901403419
 30
0.0
  0
VERTEX
  5
1F72
  8
TOWNS
 10
633.80913127212602
 20
4680.2572429853462
 30
0.0
  0
VERTEX
  5
1F73
  8
TOWNS
 10
633.74268468940454
 20
4680.3029065187138
 30
0.0
  0
VERTEX
  5
1F74
  8
TOWNS
 10
633.65841266811276
 20
4680.2474404539698
 30
0.0
  0
VERTEX
  5
1F75
  8
TOWNS
 10
633.60265242857236
 20
4680.3108440885517
 30
0.0
  0
SEQEND
  5
1F76
  8
TOWNS
  0
POLYLINE
  5
1DB
  8
TOWNS
 66
     1
 10
0.0
 20
0.0
 30
0.0
 70
     1
  0
VERTEX
  5
1F77
  8
TOWNS
 10
633.09583417590443
 20
4680.8457654600152
 30
0.0
  0
VERTEX
  5
1F78
  8
TOWNS
 10
633.1547857384013
 20
4680.7972257909723
 30
0.0
  0
VERTEX
  5
1F79
  8
TOWNS
 10
633.23584542425124
 20
4680.8363372911281
 30
0.0
  0
VERTEX
  5
1F7A
  8
TOWNS
 10
633.28503519292724
 20
4680.8356438791079
 30
0.0
  0
VERTEX
  5
1F7B
  8
TOWNS
 10
633.35769760909443
 20
4680.9136370294973
 30
0.0
  0
VERTEX
  5
1F7C
  8
TOWNS
 10
633.2361421738816
 20
4681.0689127680207
 30
0.0
  0
VERTEX
  5
1F7D
  8
TOWNS
 10
633.1248292448214
 20
4680.9989189375083
 30
0.0
  0
VERTEX
  5
1F7E
  8
TOWNS
 10
633.14769124281725
 20
4680.9285245823539
 30
0.0
  0
SEQEND
  5
1F7F
  8
TOWNS
  0
POLYLINE
  5
1DC
  8
TOWNS
 66
     1
 10
0.0
 20
0.0
 30
0.0
 70
     1
  0
VERTEX
  5
1F80
  8
TOWNS
 10
633.36914297658643
 20
4681.1967457867204
 30
0.0
  0
VERTEX
  5
1F81
  8
TOWNS
 10
633.45864066967283
 20
4681.0941032896544
 30
0.0
  0
VERTEX
  5
1F82
  8
TOWNS
 10
633.78968488352848
 20
4681.5217962925508
 30
0.0
  0
VERTEX
  5
1F83
  8
TOWNS
 10
633.62639267489385
 20
4681.6776603806693
 30
0.0
  0
VERTEX
  5
1F84
  8
TOWNS
 10
633.55062298571227
 20
4681.5907656609452
 30
0.0
  0
VERTEX
  5
1F85
  8
TOWNS
 10
633.50632526389779
 20
4681.6212080165242
 30
0.0
  0
VERTEX
  5
1F86
  8
TOWNS
 10
633.42434102868754
 20
4681.5165101581333
 30
0.0
  0
VERTEX
  5
1F87
  8
TOWNS
 10
633.44510306555412
 20
4681.4029094429916
 30
0.0
  0
SEQEND
  5
1F88
  8
TOWNS
  0
POLYLINE
  5
1DD
  8
TOWNS
 66
     1
 10
0.0
 20
0.0
 30
0.0
 70
     1
  0
VERTEX
  5
1F89
  8
TOWNS
 10
634.01991983622111
 20
4682.413087900145
 30
0.0
  0
VERTEX
  5
1F8A
  8
TOWNS
 10
634.11454071350909
 20
4682.3565909361969
 30
0.0
  0
VERTEX
  5
1F8B
  8
TOWNS
 10
634.17370368827756
 20
4682.4288108027522
 30
0.0
  0
VERTEX
  5
1F8C
  8
TOWNS
 10
634.22875079072935
 20
4682.4205803455361
 30
0.0
  0
VERTEX
  5
1F8D
  8
TOWNS
 10
634.30384936779353
 20
4682.5656294407254
 30
0.0
  0
VERTEX
  5
1F8E
  8
TOWNS
 10
634.34552439117613
 20
4682.6664228390719
 30
0.0
  0
VERTEX
  5
1F8F
  8
TOWNS
 10
634.36509257862235
 20
4682.785418613309
 30
0.0
  0
VERTEX
  5
1F90
  8
TOWNS
 10
634.38243473002683
 20
4682.8522644332534
 30
0.0
  0
VERTEX
  5
1F91
  8
TOWNS
 10
634.21985565848092
 20
4682.9529553440052
 30
0.0
  0
VERTEX
  5
1F92
  8
TOWNS
 10
634.13251710172858
 20
4682.7857153629384
 30
0.0
  0
VERTEX
  5
1F93
  8
TOWNS
 10
634.07635762496454
 20
4682.8207976155536
 30
0.0
  0
VERTEX
  5
1F94
  8
TOWNS
 10
633.98290958461075
 20
4682.6432074910736
 30
0.0
  0
VERTEX
  5
1F95
  8
TOWNS
 10
634.04603876946362
 20
4682.5737363978633
 30
0.0
  0
SEQEND
  5
1F96
  8
TOWNS
  0
POLYLINE
  5
1DE
  8
TOWNS
 66
     1
 10
0.0
 20
0.0
 30
0.0
 70
     1
  0
VERTEX
  5
1F97
  8
TOWNS
 10
634.1546959870409
 20
4683.5129595998387
 30
0.0
  0
VERTEX
  5
1F98
  8
TOWNS
 10
634.26741417779328
 20
4683.471116476574
 30
0.0
  0
VERTEX
  5
1F99
  8
TOWNS
 10
634.31463134766955
 20
4683.5420138439622
 30
0.0
  0
VERTEX
  5
1F9A
  8
TOWNS
 10
634.4860502385103
 20
4683.5395974081339
 30
0.0
  0
VERTEX
  5
1F9B
  8
TOWNS
 10
634.54135077820467
 20
4683.655107684619
 30
0.0
  0
VERTEX
  5
1F9C
  8
TOWNS
 10
634.54672611223202
 20
4683.719140406346
 30
0.0
  0
VERTEX
  5
1F9D
  8
TOWNS
 10
634.76242299981845
 20
4683.7906445609779
 30
0.0
  0
VERTEX
  5
1F9E
  8
TOWNS
 10
634.83514716602485
 20
4683.7672559634293
 30
0.0
  0
VERTEX
  5
1F9F
  8
TOWNS
 10
634.86991551877588
 20
4683.906909999524
 30
0.0
  0
VERTEX
  5
1FA0
  8
TOWNS
 10
634.51584764412576
 20
4684.0669542848309
 30
0.0
  0
VERTEX
  5
1FA1
  8
TOWNS
 10
634.21720380924864
 20
4684.1397453507452
 30
0.0
  0
VERTEX
  5
1FA2
  8
TOWNS
 10
634.1861100666199
 20
4684.0492390583559
 30
0.0
  0
VERTEX
  5
1FA3
  8
TOWNS
 10
634.24814788964557
 20
4684.008110359594
 30
0.0
  0
VERTEX
  5
1FA4
  8
TOWNS
 10
634.11669814861386
 20
4683.6730210353817
 30
0.0
  0
VERTEX
  5
1FA5
  8
TOWNS
 10
634.18264043168449
 20
4683.591583124793
 30
0.0
  0
SEQEND
  5
1FA6
  8
TOWNS
  0
POLYLINE
  5
1DF
  8
TOWNS
 66
     1
 10
0.0
 20
0.0
 30
0.0
 70
     1
  0
VERTEX
  5
1FA7
  8
TOWNS
 10
634.91398168943749
 20
4685.5522371767938
 30
0.0
  0
VERTEX
  5
1FA8
  8
TOWNS
 10
635.00318520772737
 20
4685.4287262930184
 30
0.0
  0
VERTEX
  5
1FA9
  8
TOWNS
 10
635.16551470428215
 20
4685.5218552838378
 30
0.0
  0
VERTEX
  5
1FAA
  8
TOWNS
 10
635.22161114359005
 20
4685.4823012340703
 30
0.0
  0
VERTEX
  5
1FAB
  8
TOWNS
 10
635.28946556283745
 20
4685.5365078371042
 30
0.0
  0
VERTEX
  5
1FAC
  8
TOWNS
 10
635.26219480514555
 20
4685.611437026866
 30
0.0
  0
VERTEX
  5
1FAD
  8
TOWNS
 10
635.40111597908253
 20
4685.7362047975212
 30
0.0
  0
VERTEX
  5
1FAE
  8
TOWNS
 10
635.33443954643803
 20
4685.8713252864227
 30
0.0
  0
VERTEX
  5
1FAF
  8
TOWNS
 10
635.2609169057838
 20
4685.8380711200416
 30
0.0
  0
VERTEX
  5
1FB0
  8
TOWNS
 10
635.25564663418368
 20
4685.7814913935681
 30
0.0
  0
SEQEND
  5
1FB1
  8
TOWNS
  0
POLYLINE
  5
1E0
  8
TOWNS
 66
     1
 10
0.0
 20
0.0
 30
0.0
 70
     1
  0
VERTEX
  5
1FB2
  8
TOWNS
 10
634.48204798074846
 20
4680.7173891053417
 30
0.0
  0
VERTEX
  5
1FB3
  8
TOWNS
 10
634.50721877731121
 20
4680.5992535555924
 30
0.0
  0
VERTEX
  5
1FB4
  8
TOWNS
 10
634.74372101415236
 20
4680.665991738274
 30
0.0
  0
VERTEX
  5
1FB5
  8
TOWNS
 10
634.73822218004625
 20
4680.8047225124265
 30
0.0
  0
SEQEND
  5
1FB6
  8
TOWNS
  0
POLYLINE
  5
1E1
  8
TOWNS
 66
     1
 10
0.0
 20
0.0
 30
0.0
 70
     1
  0
VERTEX
  5
1FB7
  8
TOWNS
 10
634.4550135100651
 20
4681.2321290650289
 30
0.0
  0
VERTEX
  5
1FB8
  8
TOWNS
 10
634.5104152499357
 20
4681.0375317014941
 30
0.0
  0
VERTEX
  5
1FB9
  8
TOWNS
 10
634.46647345295685
 20
4680.9874606958447
 30
0.0
  0
VERTEX
  5
1FBA
  8
TOWNS
 10
634.55177251120244
 20
4680.904259023896
 30
0.0
  0
VERTEX
  5
1FBB
  8
TOWNS
 10
634.62961986161065
 20
4680.9270159594644
 30
0.0
  0
VERTEX
  5
1FBC
  8
TOWNS
 10
634.71069927252904
 20
4680.8617645135801
 30
0.0
  0
VERTEX
  5
1FBD
  8
TOWNS
 10
634.87815195328517
 20
4681.0010390375191
 30
0.0
  0
VERTEX
  5
1FBE
  8
TOWNS
 10
634.83076925835906
 20
4681.1299239679056
 30
0.0
  0
VERTEX
  5
1FBF
  8
TOWNS
 10
635.09126945482808
 20
4681.3126136892697
 30
0.0
  0
VERTEX
  5
1FC0
  8
TOWNS
 10
635.2222123213744
 20
4681.4002215460823
 30
0.0
  0
VERTEX
  5
1FC1
  8
TOWNS
 10
635.37152566369559
 20
4681.5218610312368
 30
0.0
  0
VERTEX
  5
1FC2
  8
TOWNS
 10
635.32643075485066
 20
4681.6015141679782
 30
0.0
  0
VERTEX
  5
1FC3
  8
TOWNS
 10
635.34337366903128
 20
4681.6400386059577
 30
0.0
  0
VERTEX
  5
1FC4
  8
TOWNS
 10
635.29471049990912
 20
4681.7838505393393
 30
0.0
  0
VERTEX
  5
1FC5
  8
TOWNS
 10
635.12096051059905
 20
4681.7266640256212
 30
0.0
  0
VERTEX
  5
1FC6
  8
TOWNS
 10
635.10403989632118
 20
4681.7954837317811
 30
0.0
  0
VERTEX
  5
1FC7
  8
TOWNS
 10
635.01451990333214
 20
4681.7907820847058
 30
0.0
  0
VERTEX
  5
1FC8
  8
TOWNS
 10
634.92839878331961
 20
4681.6041433034943
 30
0.0
  0
VERTEX
  5
1FC9
  8
TOWNS
 10
634.9005829884228
 20
4681.7461704630277
 30
0.0
  0
VERTEX
  5
1FCA
  8
TOWNS
 10
634.77770247920887
 20
4681.701684916261
 30
0.0
  0
VERTEX
  5
1FCB
  8
TOWNS
 10
634.79848552856095
 20
4681.5895748001712
 30
0.0
  0
VERTEX
  5
1FCC
  8
TOWNS
 10
634.52715190151275
 20
4681.378710784239
 30
0.0
  0
VERTEX
  5
1FCD
  8
TOWNS
 10
634.54270799165295
 20
4681.31885568487
 30
0.0
  0
SEQEND
  5
1FCE
  8
TOWNS
  0
POLYLINE
  5
1E2
  8
TOWNS
 66
     1
 10
0.0
 20
0.0
 30
0.0
 70
     1
  0
VERTEX
  5
1FCF
  8
TOWNS
 10
633.90509359200382
 20
4688.6511214276097
 30
0.0
  0
VERTEX
  5
1FD0
  8
TOWNS
 10
633.92593967881226
 20
4688.5434831086732
 30
0.0
  0
VERTEX
  5
1FD1
  8
TOWNS
 10
633.83314431292513
 20
4688.5179550998573
 30
0.0
  0
VERTEX
  5
1FD2
  8
TOWNS
 10
633.83570526131723
 20
4688.4881010938689
 30
0.0
  0
VERTEX
  5
1FD3
  8
TOWNS
 10
633.78328214471435
 20
4688.4709493422488
 30
0.0
  0
VERTEX
  5
1FD4
  8
TOWNS
 10
633.77904019748485
 20
4688.3815554241737
 30
0.0
  0
VERTEX
  5
1FD5
  8
TOWNS
 10
633.70394162042112
 20
4688.2365063289863
 30
0.0
  0
VERTEX
  5
1FD6
  8
TOWNS
 10
633.73286978963029
 20
4688.0676273740519
 30
0.0
  0
VERTEX
  5
1FD7
  8
TOWNS
 10
633.80221223309445
 20
4687.9101058744182
 30
0.0
  0
VERTEX
  5
1FD8
  8
TOWNS
 10
633.87623788598285
 20
4687.8732808729237
 30
0.0
  0
VERTEX
  5
1FD9
  8
TOWNS
 10
633.91358691219432
 20
4687.8787179569917
 30
0.0
  0
VERTEX
  5
1FDA
  8
TOWNS
 10
633.94860483993671
 20
4687.8245520915116
 30
0.0
  0
VERTEX
  5
1FDB
  8
TOWNS
 10
633.98876696436605
 20
4687.8180223582021
 30
0.0
  0
VERTEX
  5
1FDC
  8
TOWNS
 10
634.03514234740715
 20
4687.7234422184692
 30
0.0
  0
VERTEX
  5
1FDD
  8
TOWNS
 10
634.09774750754013
 20
4687.722559694078
 30
0.0
  0
VERTEX
  5
1FDE
  8
TOWNS
 10
634.1558152582304
 20
4687.5055613198092
 30
0.0
  0
VERTEX
  5
1FDF
  8
TOWNS
 10
634.39429138128776
 20
4687.6065622681772
 30
0.0
  0
VERTEX
  5
1FE0
  8
TOWNS
 10
634.29809842984105
 20
4687.8688249385896
 30
0.0
  0
VERTEX
  5
1FE1
  8
TOWNS
 10
634.37754144172754
 20
4687.8990138569261
 30
0.0
  0
VERTEX
  5
1FE2
  8
TOWNS
 10
634.53518515402402
 20
4687.6597392594222
 30
0.0
  0
VERTEX
  5
1FE3
  8
TOWNS
 10
634.94130178278999
 20
4687.8075765780932
 30
0.0
  0
VERTEX
  5
1FE4
  8
TOWNS
 10
635.00621574148965
 20
4687.7589528591079
 30
0.0
  0
VERTEX
  5
1FE5
  8
TOWNS
 10
635.17114821140763
 20
4687.825209042041
 30
0.0
  0
VERTEX
  5
1FE6
  8
TOWNS
 10
635.11328929815477
 20
4687.9512598617266
 30
0.0
  0
VERTEX
  5
1FE7
  8
TOWNS
 10
635.20190704168624
 20
4687.9977192947108
 30
0.0
  0
VERTEX
  5
1FE8
  8
TOWNS
 10
635.1628585789864
 20
4688.0832507777131
 30
0.0
  0
VERTEX
  5
1FE9
  8
TOWNS
 10
635.07018928801187
 20
4688.0666663632019
 30
0.0
  0
VERTEX
  5
1FEA
  8
TOWNS
 10
635.03546553506624
 20
4688.1417006153924
 30
0.0
  0
VERTEX
  5
1FEB
  8
TOWNS
 10
634.85115527748815
 20
4688.0757175947683
 30
0.0
  0
VERTEX
  5
1FEC
  8
TOWNS
 10
634.79310725186645
 20
4688.1883530229961
 30
0.0
  0
VERTEX
  5
1FED
  8
TOWNS
 10
634.85310943863612
 20
4688.2143433064912
 30
0.0
  0
VERTEX
  5
1FEE
  8
TOWNS
 10
634.72620096929882
 20
4688.4129304674307
 30
0.0
  0
VERTEX
  5
1FEF
  8
TOWNS
 10
634.67541553914475
 20
4688.4061918966818
 30
0.0
  0
VERTEX
  5
1FF0
  8
TOWNS
 10
634.5658071962406
 20
4688.6686436794662
 30
0.0
  0
VERTEX
  5
1FF1
  8
TOWNS
 10
634.34859869711795
 20
4688.5956699382659
 30
0.0
  0
VERTEX
  5
1FF2
  8
TOWNS
 10
634.36665269819423
 20
4688.501489035757
 30
0.0
  0
VERTEX
  5
1FF3
  8
TOWNS
 10
634.34269805095425
 20
4688.4943722402704
 30
0.0
  0
VERTEX
  5
1FF4
  8
TOWNS
 10
634.36551802397923
 20
4688.420996687013
 30
0.0
  0
VERTEX
  5
1FF5
  8
TOWNS
 10
634.30555786218042
 20
4688.397987601621
 30
0.0
  0
VERTEX
  5
1FF6
  8
TOWNS
 10
634.32088281498034
 20
4688.3217359126902
 30
0.0
  0
VERTEX
  5
1FF7
  8
TOWNS
 10
634.23237013387632
 20
4688.2827294749586
 30
0.0
  0
VERTEX
  5
1FF8
  8
TOWNS
 10
634.24467186360403
 20
4688.2035386129
 30
0.0
  0
VERTEX
  5
1FF9
  8
TOWNS
 10
634.13822996891975
 20
4688.1618031268927
 30
0.0
  0
VERTEX
  5
1FFA
  8
TOWNS
 10
634.05289146053769
 20
4688.453730690926
 30
0.0
  0
VERTEX
  5
1FFB
  8
TOWNS
 10
634.11770164422705
 20
4688.5035075217793
 30
0.0
  0
VERTEX
  5
1FFC
  8
TOWNS
 10
634.05936073122609
 20
4688.701128108386
 30
0.0
  0
SEQEND
  5
1FFD
  8
TOWNS
  0
POLYLINE
  5
1E3
  8
TOWNS
 66
     1
 10
0.0
 20
0.0
 30
0.0
 70
     1
  0
VERTEX
  5
1FFE
  8
TOWNS
 10
632.43644141212678
 20
4668.4743789074992
 30
0.0
  0
VERTEX
  5
1FFF
  8
TOWNS
 10
632.61873538499196
 20
4668.5647920333331
 30
0.0
  0
VERTEX
  5
2000
  8
TOWNS
 10
632.64310974025432
 20
4668.5263276411251
 30
0.0
  0
VERTEX
  5
2001
  8
TOWNS
 10
632.52565659734876
 20
4668.3830655105758
 30
0.0
  0
VERTEX
  5
2002
  8
TOWNS
 10
632.44325180147268
 20
4668.4103236123647
 30
0.0
  0
SEQEND
  5
2003
  8
TOWNS
  0
POLYLINE
  5
1E4
  8
TOWNS
 66
     1
 10
0.0
 20
0.0
 30
0.0
 70
     1
  0
VERTEX
  5
2004
  8
TOWNS
 10
634.66656269316525
 20
4668.703636518524
 30
0.0
  0
VERTEX
  5
2005
  8
TOWNS
 10
634.69868904824557
 20
4668.6428980453984
 30
0.0
  0
VERTEX
  5
2006
  8
TOWNS
 10
634.94107445932605
 20
4668.7012840393263
 30
0.0
  0
VERTEX
  5
2007
  8
TOWNS
 10
634.94723575111811
 20
4668.7998202313784
 30
0.0
  0
VERTEX
  5
2008
  8
TOWNS
 10
634.9120871495935
 20
4668.8635023974684
 30
0.0
  0
SEQEND
  5
2009
  8
TOWNS
  0
POLYLINE
  5
1E5
  8
TOWNS
 66
     1
 10
0.0
 20
0.0
 30
0.0
 70
     1
  0
VERTEX
  5
200A
  8
TOWNS
 10
633.52547553921545
 20
4671.188773820234
 30
0.0
  0
VERTEX
  5
200B
  8
TOWNS
 10
633.47086217510162
 20
4670.9180491656534
 30
0.0
  0
VERTEX
  5
200C
  8
TOWNS
 10
633.97731998970346
 20
4670.8605727247023
 30
0.0
  0
VERTEX
  5
200D
  8
TOWNS
 10
634.33635543313289
 20
4670.8966267539208
 30
0.0
  0
VERTEX
  5
200E
  8
TOWNS
 10
634.50546170278255
 20
4670.9689653161986
 30
0.0
  0
VERTEX
  5
200F
  8
TOWNS
 10
634.50104513201927
 20
4671.0778044336184
 30
0.0
  0
VERTEX
  5
2010
  8
TOWNS
 10
634.38822148799204
 20
4671.1494143135424
 30
0.0
  0
VERTEX
  5
2011
  8
TOWNS
 10
634.03171733173963
 20
4671.1477037126506
 30
0.0
  0
VERTEX
  5
2012
  8
TOWNS
 10
634.00738328453997
 20
4671.0698126480693
 30
0.0
  0
VERTEX
  5
2013
  8
TOWNS
 10
633.81800398513951
 20
4671.0643356052888
 30
0.0
  0
VERTEX
  5
2014
  8
TOWNS
 10
633.66536193264744
 20
4671.1011110976169
 30
0.0
  0
VERTEX
  5
2015
  8
TOWNS
 10
633.6685402547364
 20
4671.1996080129293
 30
0.0
  0
SEQEND
  5
2016
  8
TOWNS
  0
POLYLINE
  5
1E6
  8
TOWNS
 66
     1
 10
0.0
 20
0.0
 30
0.0
 70
     1
  0
VERTEX
  5
2017
  8
TOWNS
 10
631.99699711065671
 20
4671.259644704588
 30
0.0
  0
VERTEX
  5
2018
  8
TOWNS
 10
631.94275584426475
 20
4671.0739543249138
 30
0.0
  0
VERTEX
  5
2019
  8
TOWNS
 10
632.36029408052605
 20
4670.9720465210266
 30
0.0
  0
VERTEX
  5
201A
  8
TOWNS
 10
632.34795082725054
 20
4670.8898381088593
 30
0.0
  0
VERTEX
  5
201B
  8
TOWNS
 10
632.42709771623402
 20
4670.8834215182478
 30
0.0
  0
VERTEX
  5
201C
  8
TOWNS
 10
632.46858229224472
 20
4671.1315971547201
 30
0.0
  0
SEQEND
  5
201D
  8
TOWNS
  0
POLYLINE
  5
1E7
  8
TOWNS
 66
     1
 10
0.0
 20
0.0
 30
0.0
 70
     1
  0
VERTEX
  5
201E
  8
TOWNS
 10
634.50982339717405
 20
4666.1059391654489
 30
0.0
  0
VERTEX
  5
201F
  8
TOWNS
 10
634.55555192389602
 20
4665.8052090998217
 30
0.0
  0
VERTEX
  5
2020
  8
TOWNS
 10
634.78832072126409
 20
4665.914187748479
 30
0.0
  0
VERTEX
  5
2021
  8
TOWNS
 10
634.71602040440473
 20
4666.1936835355091
 30
0.0
  0
SEQEND
  5
2022
  8
TOWNS
  0
POLYLINE
  5
1E8
  8
TOWNS
 66
     1
 10
0.0
 20
0.0
 30
0.0
 70
     1
  0
VERTEX
  5
2023
  8
TOWNS
 10
633.3964914489361
 20
4665.8033734494602
 30
0.0
  0
VERTEX
  5
2024
  8
TOWNS
 10
633.38548360486766
 20
4665.619744067385
 30
0.0
  0
VERTEX
  5
2025
  8
TOWNS
 10
633.75902252234835
 20
4665.573943175109
 30
0.0
  0
VERTEX
  5
2026
  8
TOWNS
 10
633.75686127025165
 20
4665.8513789958588
 30
0.0
  0
SEQEND
  5
2027
  8
TOWNS
  0
POLYLINE
  5
1E9
  8
TOWNS
 66
     1
 10
0.0
 20
0.0
 30
0.0
 70
     1
  0
VERTEX
  5
2028
  8
TOWNS
 10
631.6664847887663
 20
4665.9983890045196
 30
0.0
  0
VERTEX
  5
2029
  8
TOWNS
 10
631.64864794830214
 20
4665.7669339153472
 30
0.0
  0
VERTEX
  5
202A
  8
TOWNS
 10
631.74200373577685
 20
4665.7010346760089
 30
0.0
  0
VERTEX
  5
202B
  8
TOWNS
 10
631.95826903924592
 20
4665.7038822397599
 30
0.0
  0
VERTEX
  5
202C
  8
TOWNS
 10
631.98625272943104
 20
4665.8444745832167
 30
0.0
  0
VERTEX
  5
202D
  8
TOWNS
 10
631.89550575129522
 20
4666.0521237985567
 30
0.0
  0
SEQEND
  5
202E
  8
TOWNS
  0
POLYLINE
  5
1EA
  8
TOWNS
 66
     1
 10
0.0
 20
0.0
 30
0.0
 70
     1
  0
VERTEX
  5
202F
  8
TOWNS
 10
632.12127912014159
 20
4664.9929752329199
 30
0.0
  0
VERTEX
  5
2030
  8
TOWNS
 10
632.11639432244476
 20
4664.7974925255203
 30
0.0
  0
VERTEX
  5
2031
  8
TOWNS
 10
632.40676254759262
 20
4664.8371176442406
 30
0.0
  0
VERTEX
  5
2032
  8
TOWNS
 10
632.41900657769361
 20
4665.040155967753
 30
0.0
  0
VERTEX
  5
2033
  8
TOWNS
 10
632.3298895843252
 20
4665.1240119404183
 30
0.0
  0
VERTEX
  5
2034
  8
TOWNS
 10
632.24038085486393
 20
4665.124325123028
 30
0.0
  0
SEQEND
  5
2035
  8
TOWNS
  0
POLYLINE
  5
1EB
  8
TOWNS
 66
     1
 10
0.0
 20
0.0
 30
0.0
 70
     1
  0
VERTEX
  5
2036
  8
TOWNS
 10
634.27220284765235
 20
4664.3261439924281
 30
0.0
  0
VERTEX
  5
2037
  8
TOWNS
 10
634.42138751558196
 20
4664.6652423210517
 30
0.0
  0
VERTEX
  5
2038
  8
TOWNS
 10
634.34100340924499
 20
4664.7656224573047
 30
0.0
  0
VERTEX
  5
2039
  8
TOWNS
 10
634.18520164171355
 20
4664.8157820365577
 30
0.0
  0
VERTEX
  5
203A
  8
TOWNS
 10
634.04655246563527
 20
4664.8094812135296
 30
0.0
  0
VERTEX
  5
203B
  8
TOWNS
 10
633.98693337963721
 20
4664.6923402219136
 30
0.0
  0
VERTEX
  5
203C
  8
TOWNS
 10
634.04520051202064
 20
4664.5722762070272
 30
0.0
  0
VERTEX
  5
203D
  8
TOWNS
 10
634.12346470564376
 20
4664.5196039476477
 30
0.0
  0
SEQEND
  5
203E
  8
TOWNS
  0
POLYLINE
  5
1EC
  8
TOWNS
 66
     1
 10
0.0
 20
0.0
 30
0.0
 70
     1
  0
VERTEX
  5
203F
  8
TOWNS
 10
634.87956690923511
 20
4664.7622715151647
 30
0.0
  0
VERTEX
  5
2040
  8
TOWNS
 10
634.67433115084737
 20
4664.7148168744661
 30
0.0
  0
VERTEX
  5
2041
  8
TOWNS
 10
634.70477066868989
 20
4664.5556011243971
 30
0.0
  0
VERTEX
  5
2042
  8
TOWNS
 10
634.88286615551112
 20
4664.5117020601128
 30
0.0
  0
VERTEX
  5
2043
  8
TOWNS
 10
634.77155672866911
 20
4664.2417226322959
 30
0.0
  0
VERTEX
  5
2044
  8
TOWNS
 10
634.87633379731801
 20
4664.2147591060684
 30
0.0
  0
VERTEX
  5
2045
  8
TOWNS
 10
635.01870910722255
 20
4664.5045402427368
 30
0.0
  0
VERTEX
  5
2046
  8
TOWNS
 10
635.01949257940839
 20
4664.6716258228471
 30
0.0
  0
VERTEX
  5
2047
  8
TOWNS
 10
634.89907507384964
 20
4664.6402054177888
 30
0.0
  0
SEQEND
  5
2048
  8
TOWNS
  0
POLYLINE
  5
1ED
  8
TOWNS
 66
     1
 10
0.0
 20
0.0
 30
0.0
 70
     1
  0
VERTEX
  5
2049
  8
TOWNS
 10
633.13483349041712
 20
4663.6965699649154
 30
0.0
  0
VERTEX
  5
204A
  8
TOWNS
 10
633.20874312235219
 20
4663.4081449071437
 30
0.0
  0
VERTEX
  5
204B
  8
TOWNS
 10
633.30249064591965
 20
4663.4257884578674
 30
0.0
  0
VERTEX
  5
204C
  8
TOWNS
 10
633.28351065467155
 20
4663.7343294384218
 30
0.0
  0
SEQEND
  5
204D
  8
TOWNS
  0
POLYLINE
  5
1EE
  8
TOWNS
 66
     1
 10
0.0
 20
0.0
 30
0.0
 70
     1
  0
VERTEX
  5
204E
  8
TOWNS
 10
634.73623752646245
 20
4661.4860074697654
 30
0.0
  0
VERTEX
  5
204F
  8
TOWNS
 10
634.74073265070865
 20
4661.3712024129391
 30
0.0
  0
VERTEX
  5
2050
  8
TOWNS
 10
635.31880034523238
 20
4661.426549616016
 30
0.0
  0
VERTEX
  5
2051
  8
TOWNS
 10
635.3125780756867
 20
4661.5592328526864
 30
0.0
  0
SEQEND
  5
2052
  8
TOWNS
  0
POLYLINE
  5
1EF
  8
TOWNS
 66
     1
 10
0.0
 20
0.0
 30
0.0
 70
     1
  0
VERTEX
  5
2053
  8
TOWNS
 10
630.09929335882191
 20
4700.3724110265439
 30
0.0
  0
VERTEX
  5
2054
  8
TOWNS
 10
630.09147546330246
 20
4700.2813670577489
 30
0.0
  0
VERTEX
  5
2055
  8
TOWNS
 10
629.99442478949175
 20
4700.2802501048127
 30
0.0
  0
VERTEX
  5
2056
  8
TOWNS
 10
629.95017866038165
 20
4700.4207655029559
 30
0.0
  0
VERTEX
  5
2057
  8
TOWNS
 10
629.94311864087263
 20
4700.5253043094417
 30
0.0
  0
VERTEX
  5
2058
  8
TOWNS
 10
629.9999798525738
 20
4700.5579304298053
 30
0.0
  0
VERTEX
  5
2059
  8
TOWNS
 10
630.07153384928574
 20
4700.5292857673721
 30
0.0
  0
VERTEX
  5
205A
  8
TOWNS
 10
630.12664750892804
 20
4700.4962257485286
 30
0.0
  0
SEQEND
  5
205B
  8
TOWNS
  0
POLYLINE
  5
1F0
  8
TOWNS
 66
     1
 10
0.0
 20
0.0
 30
0.0
 70
     1
  0
VERTEX
  5
205C
  8
TOWNS
 10
631.83618723535483
 20
4701.660129576132
 30
0.0
  0
VERTEX
  5
205D
  8
TOWNS
 10
631.77045481364178
 20
4701.6499331419136
 30
0.0
  0
VERTEX
  5
205E
  8
TOWNS
 10
631.78618355720562
 20
4701.4707097093224
 30
0.0
  0
VERTEX
  5
205F
  8
TOWNS
 10
631.68757624666671
 20
4701.4531755605658
 30
0.0
  0
VERTEX
  5
2060
  8
TOWNS
 10
631.66640236096885
 20
4701.3830856355744
 30
0.0
  0
VERTEX
  5
2061
  8
TOWNS
 10
631.68562042333781
 20
4701.333741483114
 30
0.0
  0
VERTEX
  5
2062
  8
TOWNS
 10
631.74385892706255
 20
4701.3365018524719
 30
0.0
  0
VERTEX
  5
2063
  8
TOWNS
 10
631.775136681969
 20
4701.3169713832003
 30
0.0
  0
VERTEX
  5
2064
  8
TOWNS
 10
631.81371165421979
 20
4701.254115037108
 30
0.0
  0
VERTEX
  5
2065
  8
TOWNS
 10
631.84626256551496
 20
4701.1778448477071
 30
0.0
  0
VERTEX
  5
2066
  8
TOWNS
 10
631.85497757207395
 20
4701.1151042078773
 30
0.0
  0
VERTEX
  5
2067
  8
TOWNS
 10
631.89358147089001
 20
4701.0597128532081
 30
0.0
  0
VERTEX
  5
2068
  8
TOWNS
 10
632.01905117992555
 20
4701.0741568697567
 30
0.0
  0
VERTEX
  5
2069
  8
TOWNS
 10
632.09970779917126
 20
4701.082802452559
 30
0.0
  0
VERTEX
  5
206A
  8
TOWNS
 10
632.15802729727875
 20
4701.1064647979038
 30
0.0
  0
VERTEX
  5
206B
  8
TOWNS
 10
632.1642596295045
 20
4701.173626579458
 30
0.0
  0
VERTEX
  5
206C
  8
TOWNS
 10
632.13313807805025
 20
4701.2334680024151
 30
0.0
  0
VERTEX
  5
206D
  8
TOWNS
 10
632.14248368373262
 20
4701.333464175601
 30
0.0
  0
VERTEX
  5
206E
  8
TOWNS
 10
632.14279030532464
 20
4701.4125930846858
 30
0.0
  0
VERTEX
  5
206F
  8
TOWNS
 10
632.11465475043963
 20
4701.4724229370177
 30
0.0
  0
VERTEX
  5
2070
  8
TOWNS
 10
632.11200430202757
 20
4701.55902840815
 30
0.0
  0
VERTEX
  5
2071
  8
TOWNS
 10
632.03447831217738
 20
4701.5876962118336
 30
0.0
  0
VERTEX
  5
2072
  8
TOWNS
 10
631.93483504308517
 20
4701.688114712877
 30
0.0
  0
SEQEND
  5
2073
  8
TOWNS
  0
POLYLINE
  5
1F1
  8
TOWNS
 66
     1
 10
0.0
 20
0.0
 30
0.0
 70
     1
  0
VERTEX
  5
2074
  8
TOWNS
 10
633.3682580291096
 20
4701.7198857694593
 30
0.0
  0
VERTEX
  5
2075
  8
TOWNS
 10
633.68354679155686
 20
4701.7873429894953
 30
0.0
  0
VERTEX
  5
2076
  8
TOWNS
 10
633.74282703914787
 20
4701.673643707345
 30
0.0
  0
VERTEX
  5
2077
  8
TOWNS
 10
633.39459396411792
 20
4701.5809327933566
 30
0.0
  0
SEQEND
  5
2078
  8
TOWNS
  0
POLYLINE
  5
1F2
  8
TOWNS
 66
     1
 10
0.0
 20
0.0
 30
0.0
 70
     1
  0
VERTEX
  5
2079
  8
TOWNS
 10
631.09528869105077
 20
4696.9435620900904
 30
0.0
  0
VERTEX
  5
207A
  8
TOWNS
 10
631.380584425606
 20
4696.9767960558411
 30
0.0
  0
VERTEX
  5
207B
  8
TOWNS
 10
631.42723223466692
 20
4696.6854762603298
 30
0.0
  0
VERTEX
  5
207C
  8
TOWNS
 10
631.1508887045062
 20
4696.6507145844153
 30
0.0
  0
SEQEND
  5
207D
  8
TOWNS
  0
POLYLINE
  5
1F3
  8
TOWNS
 66
     1
 10
0.0
 20
0.0
 30
0.0
 70
     1
  0
VERTEX
  5
207E
  8
TOWNS
 10
630.11909615275852
 20
4694.309177218779
 30
0.0
  0
VERTEX
  5
207F
  8
TOWNS
 10
630.24344312354481
 20
4694.4191789108554
 30
0.0
  0
VERTEX
  5
2080
  8
TOWNS
 10
630.38704286857796
 20
4694.488794440178
 30
0.0
  0
VERTEX
  5
2081
  8
TOWNS
 10
630.50974063762726
 20
4694.558490963881
 30
0.0
  0
VERTEX
  5
2082
  8
TOWNS
 10
630.59646181502035
 20
4694.5910013779849
 30
0.0
  0
VERTEX
  5
2083
  8
TOWNS
 10
630.66342689593046
 20
4694.5340071040846
 30
0.0
  0
VERTEX
  5
2084
  8
TOWNS
 10
630.69141203267577
 20
4694.4353592963535
 30
0.0
  0
VERTEX
  5
2085
  8
TOWNS
 10
630.71917732752513
 20
4694.2799775538097
 30
0.0
  0
VERTEX
  5
2086
  8
TOWNS
 10
630.64440592172195
 20
4694.2489138554884
 30
0.0
  0
VERTEX
  5
2087
  8
TOWNS
 10
630.56564148736163
 20
4694.3432793690063
 30
0.0
  0
VERTEX
  5
2088
  8
TOWNS
 10
630.43706429018289
 20
4694.2974939591077
 30
0.0
  0
VERTEX
  5
2089
  8
TOWNS
 10
630.32196457475675
 20
4694.2621074693843
 30
0.0
  0
VERTEX
  5
208A
  8
TOWNS
 10
630.27693742838414
 20
4694.201068099107
 30
0.0
  0
VERTEX
  5
208B
  8
TOWNS
 10
630.16914071561541
 20
4694.1238487308492
 30
0.0
  0
VERTEX
  5
208C
  8
TOWNS
 10
630.13484803757444
 20
4694.1359257793274
 30
0.0
  0
SEQEND
  5
208D
  8
TOWNS
  0
POLYLINE
  5
1F4
  8
TOWNS
 66
     1
 10
0.0
 20
0.0
 30
0.0
 70
     1
  0
VERTEX
  5
208E
  8
TOWNS
 10
629.61416460890587
 20
4691.5371013446502
 30
0.0
  0
VERTEX
  5
208F
  8
TOWNS
 10
629.66062690043248
 20
4691.5832049467672
 30
0.0
  0
VERTEX
  5
2090
  8
TOWNS
 10
629.80392002387396
 20
4691.5736915670068
 30
0.0
  0
VERTEX
  5
2091
  8
TOWNS
 10
629.93369516837151
 20
4691.5433282790791
 30
0.0
  0
VERTEX
  5
2092
  8
TOWNS
 10
629.98437033035145
 20
4691.5207366041668
 30
0.0
  0
VERTEX
  5
2093
  8
TOWNS
 10
630.00797482256485
 20
4691.4474871232133
 30
0.0
  0
VERTEX
  5
2094
  8
TOWNS
 10
629.98683564874568
 20
4691.3863551879303
 30
0.0
  0
VERTEX
  5
2095
  8
TOWNS
 10
629.90171160527234
 20
4691.3807129576344
 30
0.0
  0
VERTEX
  5
2096
  8
TOWNS
 10
629.8346076768488
 20
4691.4018752727052
 30
0.0
  0
VERTEX
  5
2097
  8
TOWNS
 10
629.75555397683581
 20
4691.4215908719971
 30
0.0
  0
SEQEND
  5
2098
  8
TOWNS
  0
POLYLINE
  5
1F5
  8
TOWNS
 66
     1
 10
0.0
 20
0.0
 30
0.0
 70
     1
  0
VERTEX
  5
2099
  8
TOWNS
 10
633.43281569962153
 20
4690.2532366160221
 30
0.0
  0
VERTEX
  5
209A
  8
TOWNS
 10
633.21483216475963
 20
4690.2525882734444
 30
0.0
  0
VERTEX
  5
209B
  8
TOWNS
 10
633.15677879105237
 20
4690.2976038491906
 30
0.0
  0
VERTEX
  5
209C
  8
TOWNS
 10
633.14213807385943
 20
4690.3723116165502
 30
0.0
  0
VERTEX
  5
209D
  8
TOWNS
 10
633.13349827637012
 20
4690.4544612340806
 30
0.0
  0
VERTEX
  5
209E
  8
TOWNS
 10
633.11160662433724
 20
4690.5844388645346
 30
0.0
  0
VERTEX
  5
209F
  8
TOWNS
 10
633.08231361932496
 20
4690.7308684026848
 30
0.0
  0
VERTEX
  5
20A0
  8
TOWNS
 10
633.00201568948864
 20
4690.8147887135256
 30
0.0
  0
VERTEX
  5
20A1
  8
TOWNS
 10
632.95904271676693
 20
4690.8985643915412
 30
0.0
  0
VERTEX
  5
20A2
  8
TOWNS
 10
632.90721010465961
 20
4691.0077557522727
 30
0.0
  0
VERTEX
  5
20A3
  8
TOWNS
 10
632.87044053759826
 20
4691.1512282204194
 30
0.0
  0
VERTEX
  5
20A4
  8
TOWNS
 10
632.87239057561408
 20
4691.2691692995859
 30
0.0
  0
VERTEX
  5
20A5
  8
TOWNS
 10
632.89814180648762
 20
4691.3646228394782
 30
0.0
  0
VERTEX
  5
20A6
  8
TOWNS
 10
632.96125270635366
 20
4691.4688897362512
 30
0.0
  0
VERTEX
  5
20A7
  8
TOWNS
 10
633.01671927009227
 20
4691.5269026127671
 30
0.0
  0
VERTEX
  5
20A8
  8
TOWNS
 10
633.10070900469077
 20
4691.6251165220174
 30
0.0
  0
VERTEX
  5
20A9
  8
TOWNS
 10
633.14896513078077
 20
4691.748850249619
 30
0.0
  0
VERTEX
  5
20AA
  8
TOWNS
 10
633.22098195253704
 20
4691.8396454499543
 30
0.0
  0
VERTEX
  5
20AB
  8
TOWNS
 10
633.26316194985395
 20
4691.9365283496836
 30
0.0
  0
VERTEX
  5
20AC
  8
TOWNS
 10
633.20963963881798
 20
4691.9949635540543
 30
0.0
  0
VERTEX
  5
20AD
  8
TOWNS
 10
633.16074095546253
 20
4692.0907063595987
 30
0.0
  0
VERTEX
  5
20AE
  8
TOWNS
 10
633.11044183883121
 20
4692.2103429230092
 30
0.0
  0
VERTEX
  5
20AF
  8
TOWNS
 10
633.13335170596179
 20
4692.3431329906398
 30
0.0
  0
VERTEX
  5
20B0
  8
TOWNS
 10
633.21404882239892
 20
4692.3622295614341
 30
0.0
  0
VERTEX
  5
20B1
  8
TOWNS
 10
633.28105440050035
 20
4692.315686275525
 30
0.0
  0
VERTEX
  5
20B2
  8
TOWNS
 10
633.3150925247669
 20
4692.2379173025283
 30
0.0
  0
VERTEX
  5
20B3
  8
TOWNS
 10
633.39064533534895
 20
4692.085336426534
 30
0.0
  0
VERTEX
  5
20B4
  8
TOWNS
 10
633.4233061675917
 20
4692.0374332045394
 30
0.0
  0
VERTEX
  5
20B5
  8
TOWNS
 10
633.53642691843675
 20
4691.9474136236722
 30
0.0
  0
VERTEX
  5
20B6
  8
TOWNS
 10
633.63331560348195
 20
4691.9067266246411
 30
0.0
  0
VERTEX
  5
20B7
  8
TOWNS
 10
633.73762878275875
 20
4691.8555597110517
 30
0.0
  0
VERTEX
  5
20B8
  8
TOWNS
 10
633.82548426902702
 20
4691.7954984461976
 30
0.0
  0
VERTEX
  5
20B9
  8
TOWNS
 10
633.86699317002945
 20
4691.7191935449182
 30
0.0
  0
VERTEX
  5
20BA
  8
TOWNS
 10
633.83225502288315
 20
4691.616309725483
 30
0.0
  0
VERTEX
  5
20BB
  8
TOWNS
 10
633.77088588976301
 20
4691.5762359696328
 30
0.0
  0
VERTEX
  5
20BC
  8
TOWNS
 10
633.62168441162657
 20
4691.602195471778
 30
0.0
  0
VERTEX
  5
20BD
  8
TOWNS
 10
633.58014079874602
 20
4691.6695423833498
 30
0.0
  0
VERTEX
  5
20BE
  8
TOWNS
 10
633.55635117651445
 20
4691.6950159191956
 30
0.0
  0
VERTEX
  5
20BF
  8
TOWNS
 10
633.47398750240131
 20
4691.6311351851773
 30
0.0
  0
VERTEX
  5
20C0
  8
TOWNS
 10
633.39013661531635
 20
4691.5687532347574
 30
0.0
  0
VERTEX
  5
20C1
  8
TOWNS
 10
633.30626837229215
 20
4691.5018922894824
 30
0.0
  0
VERTEX
  5
20C2
  8
TOWNS
 10
633.29255369270436
 20
4691.4302804396393
 30
0.0
  0
VERTEX
  5
20C3
  8
TOWNS
 10
633.30270384441769
 20
4691.3526040316483
 30
0.0
  0
VERTEX
  5
20C4
  8
TOWNS
 10
633.30243772001722
 20
4691.2839261105582
 30
0.0
  0
VERTEX
  5
20C5
  8
TOWNS
 10
633.24990508503015
 20
4691.2124646788552
 30
0.0
  0
VERTEX
  5
20C6
  8
TOWNS
 10
633.14210837226153
 20
4691.1352453105956
 30
0.0
  0
VERTEX
  5
20C7
  8
TOWNS
 10
633.14771589067755
 20
4691.0411632774139
 30
0.0
  0
VERTEX
  5
20C8
  8
TOWNS
 10
633.16993152024145
 20
4690.9947935508981
 30
0.0
  0
VERTEX
  5
20C9
  8
TOWNS
 10
633.21757440314775
 20
4690.9602694603363
 30
0.0
  0
VERTEX
  5
20CA
  8
TOWNS
 10
633.31453251194955
 20
4690.9374984407168
 30
0.0
  0
VERTEX
  5
20CB
  8
TOWNS
 10
633.41861427870435
 20
4690.8266115957449
 30
0.0
  0
VERTEX
  5
20CC
  8
TOWNS
 10
633.45110733686874
 20
4690.7354114234977
 30
0.0
  0
VERTEX
  5
20CD
  8
TOWNS
 10
633.44914572822665
 20
4690.6144843477614
 30
0.0
  0
VERTEX
  5
20CE
  8
TOWNS
 10
633.45026846647579
 20
4690.5189266722336
 30
0.0
  0
VERTEX
  5
20CF
  8
TOWNS
 10
633.40481899224994
 20
4690.3488984271844
 30
0.0
  0
SEQEND
  5
20D0
  8
TOWNS
  0
POLYLINE
  5
1F6
  8
TOWNS
 66
     1
 10
0.0
 20
0.0
 30
0.0
 70
     1
  0
VERTEX
  5
20D1
  8
TOWNS
 10
633.36635969882764
 20
4696.2210978782769
 30
0.0
  0
VERTEX
  5
20D2
  8
TOWNS
 10
633.88665205130656
 20
4696.4072023731887
 30
0.0
  0
VERTEX
  5
20D3
  8
TOWNS
 10
633.94601329328054
 20
4696.3144050670226
 30
0.0
  0
VERTEX
  5
20D4
  8
TOWNS
 10
633.60799979372064
 20
4696.1619337244629
 30
0.0
  0
VERTEX
  5
20D5
  8
TOWNS
 10
633.58813377628974
 20
4696.0440620690497
 30
0.0
  0
VERTEX
  5
20D6
  8
TOWNS
 10
633.44173316470494
 20
4696.0222340554619
 30
0.0
  0
SEQEND
  5
20D7
  8
TOWNS
  0
POLYLINE
  5
1F7
  8
TOWNS
 66
     1
 10
0.0
 20
0.0
 30
0.0
 70
     1
  0
VERTEX
  5
20D8
  8
TOWNS
 10
634.19782283340794
 20
4694.2560467863977
 30
0.0
  0
VERTEX
  5
20D9
  8
TOWNS
 10
634.68203445859592
 20
4694.3780912025886
 30
0.0
  0
VERTEX
  5
20DA
  8
TOWNS
 10
634.70232319139609
 20
4694.2197523900431
 30
0.0
  0
VERTEX
  5
20DB
  8
TOWNS
 10
634.24963230426295
 20
4694.1408834325302
 30
0.0
  0
SEQEND
  5
20DC
  8
TOWNS
  0
POLYLINE
  5
1F8
  8
TOWNS
 66
     1
 10
0.0
 20
0.0
 30
0.0
 70
     1
  0
VERTEX
  5
20DD
  8
TOWNS
 10
632.05564259226389
 20
4693.9493202872736
 30
0.0
  0
VERTEX
  5
20DE
  8
TOWNS
 10
632.44536142704385
 20
4693.9597543068439
 30
0.0
  0
VERTEX
  5
20DF
  8
TOWNS
 10
632.45658803450169
 20
4693.7745762370532
 30
0.0
  0
VERTEX
  5
20E0
  8
TOWNS
 10
632.11932662563902
 20
4693.8161946714863
 30
0.0
  0
SEQEND
  5
20E1
  8
TOWNS
  0
POLYLINE
  5
1F9
  8
TOWNS
 66
     1
 10
0.0
 20
0.0
 30
0.0
 70
     1
  0
VERTEX
  5
20E2
  8
TOWNS
 10
633.59113199719297
 20
4689.8057847236578
 30
0.0
  0
VERTEX
  5
20E3
  8
TOWNS
 10
633.80213142428556
 20
4689.8313692524234
 30
0.0
  0
VERTEX
  5
20E4
  8
TOWNS
 10
633.80934595218309
 20
4689.8937511986296
 30
0.0
  0
VERTEX
  5
20E5
  8
TOWNS
 10
634.00263890503822
 20
4689.9039516700614
 30
0.0
  0
VERTEX
  5
20E6
  8
TOWNS
 10
634.0741539090169
 20
4689.6729062982258
 30
0.0
  0
VERTEX
  5
20E7
  8
TOWNS
 10
633.82129598122901
 20
4689.6292315892497
 30
0.0
  0
VERTEX
  5
20E8
  8
TOWNS
 10
633.86179402963023
 20
4689.2809438176837
 30
0.0
  0
VERTEX
  5
20E9
  8
TOWNS
 10
633.78682794376516
 20
4689.2677201680654
 30
0.0
  0
SEQEND
  5
20EA
  8
TOWNS
  0
POLYLINE
  5
1FA
  8
TOWNS
 66
     1
 10
0.0
 20
0.0
 30
0.0
 70
     1
  0
VERTEX
  5
20EB
  8
TOWNS
 10
634.65091892205612
 20
4689.9782634642606
 30
0.0
  0
VERTEX
  5
20EC
  8
TOWNS
 10
634.68254824346684
 20
4689.8143727744309
 30
0.0
  0
VERTEX
  5
20ED
  8
TOWNS
 10
634.61640981432231
 20
4689.8126573240152
 30
0.0
  0
VERTEX
  5
20EE
  8
TOWNS
 10
634.67337795104129
 20
4689.6642018523171
 30
0.0
  0
VERTEX
  5
20EF
  8
TOWNS
 10
634.91097119668814
 20
4689.7077742397023
 30
0.0
  0
VERTEX
  5
20F0
  8
TOWNS
 10
634.81626925831677
 20
4689.9819160618781
 30
0.0
  0
SEQEND
  5
20F1
  8
TOWNS
  0
POLYLINE
  5
1FB
  8
TOWNS
 66
     1
 10
0.0
 20
0.0
 30
0.0
 70
     1
  0
VERTEX
  5
20F2
  8
TOWNS
 10
627.56210348129889
 20
4672.524068767565
 30
0.0
  0
VERTEX
  5
20F3
  8
TOWNS
 10
627.50592041721495
 20
4672.3459533309488
 30
0.0
  0
VERTEX
  5
20F4
  8
TOWNS
 10
627.62147271867047
 20
4672.293633989354
 30
0.0
  0
VERTEX
  5
20F5
  8
TOWNS
 10
627.75850276891583
 20
4672.2842478454377
 30
0.0
  0
VERTEX
  5
20F6
  8
TOWNS
 10
627.78736918808568
 20
4672.2167506384449
 30
0.0
  0
VERTEX
  5
20F7
  8
TOWNS
 10
627.93013049719366
 20
4672.1908838550271
 30
0.0
  0
VERTEX
  5
20F8
  8
TOWNS
 10
628.00014662760987
 20
4672.1869150701086
 30
0.0
  0
VERTEX
  5
20F9
  8
TOWNS
 10
628.02739766023353
 20
4672.2163488263859
 30
0.0
  0
VERTEX
  5
20FA
  8
TOWNS
 10
628.14933260760142
 20
4672.1937574158655
 30
0.0
  0
VERTEX
  5
20FB
  8
TOWNS
 10
628.32186387275442
 20
4672.1644891846399
 30
0.0
  0
VERTEX
  5
20FC
  8
TOWNS
 10
628.37365790221065
 20
4672.2427765098246
 30
0.0
  0
VERTEX
  5
20FD
  8
TOWNS
 10
628.39267976503527
 20
4672.3230167087431
 30
0.0
  0
VERTEX
  5
20FE
  8
TOWNS
 10
628.25224955439614
 20
4672.4084864417064
 30
0.0
  0
VERTEX
  5
20FF
  8
TOWNS
 10
628.0725174438146
 20
4672.4557469239699
 30
0.0
  0
VERTEX
  5
2100
  8
TOWNS
 10
628.03254443175445
 20
4672.4756920487371
 30
0.0
  0
VERTEX
  5
2101
  8
TOWNS
 10
628.04535174855027
 20
4672.5381291089871
 30
0.0
  0
VERTEX
  5
2102
  8
TOWNS
 10
627.93697928003746
 20
4672.5709656004929
 30
0.0
  0
VERTEX
  5
2103
  8
TOWNS
 10
627.81506534515495
 20
4672.5950476100616
 30
0.0
  0
VERTEX
  5
2104
  8
TOWNS
 10
627.7859665012279
 20
4672.540294682407
 30
0.0
  0
VERTEX
  5
2105
  8
TOWNS
 10
627.66984686266471
 20
4672.5523678496293
 30
0.0
  0
SEQEND
  5
2106
  8
TOWNS
  0
POLYLINE
  5
1FC
  8
TOWNS
 66
     1
 10
0.0
 20
0.0
 30
0.0
 70
     1
  0
VERTEX
  5
2107
  8
TOWNS
 10
626.45576637316685
 20
4672.7290081361998
 30
0.0
  0
VERTEX
  5
2108
  8
TOWNS
 10
626.46323909348928
 20
4672.6245401277329
 30
0.0
  0
VERTEX
  5
2109
  8
TOWNS
 10
626.43609312329295
 20
4672.6025593667073
 30
0.0
  0
VERTEX
  5
210A
  8
TOWNS
 10
626.45479851141852
 20
4672.5545870347732
 30
0.0
  0
VERTEX
  5
210B
  8
TOWNS
 10
626.55630633427029
 20
4672.5635923791151
 30
0.0
  0
VERTEX
  5
210C
  8
TOWNS
 10
626.67146068591921
 20
4672.5888052006503
 30
0.0
  0
VERTEX
  5
210D
  8
TOWNS
 10
626.78462013886633
 20
4672.5782646574498
 30
0.0
  0
VERTEX
  5
210E
  8
TOWNS
 10
626.87705829250046
 20
4672.578452482403
 30
0.0
  0
VERTEX
  5
210F
  8
TOWNS
 10
626.96659929797511
 20
4672.5846447285267
 30
0.0
  0
VERTEX
  5
2110
  8
TOWNS
 10
626.97787399074912
 20
4672.6441216031617
 30
0.0
  0
VERTEX
  5
2111
  8
TOWNS
 10
627.08857755773124
 20
4672.6708880612032
 30
0.0
  0
VERTEX
  5
2112
  8
TOWNS
 10
627.11316257953501
 20
4672.7227228282118
 30
0.0
  0
VERTEX
  5
2113
  8
TOWNS
 10
627.08857884514805
 20
4672.7767416062943
 30
0.0
  0
VERTEX
  5
2114
  8
TOWNS
 10
626.9855383982748
 20
4672.764776076333
 30
0.0
  0
VERTEX
  5
2115
  8
TOWNS
 10
626.9408204267512
 20
4672.7654064508979
 30
0.0
  0
VERTEX
  5
2116
  8
TOWNS
 10
626.91573239271315
 20
4672.7836508517603
 30
0.0
  0
VERTEX
  5
2117
  8
TOWNS
 10
626.8230210767681
 20
4672.7640852391478
 30
0.0
  0
VERTEX
  5
2118
  8
TOWNS
 10
626.72455748947436
 20
4672.7595096669857
 30
0.0
  0
VERTEX
  5
2119
  8
TOWNS
 10
626.71328408411716
 20
4672.8058863374408
 30
0.0
  0
VERTEX
  5
211A
  8
TOWNS
 10
626.59099192449639
 20
4672.8031375640967
 30
0.0
  0
VERTEX
  5
211B
  8
TOWNS
 10
626.49998133245651
 20
4672.7984569295068
 30
0.0
  0
SEQEND
  5
211C
  8
TOWNS
  0
POLYLINE
  5
1FD
  8
TOWNS
 66
     1
 10
0.0
 20
0.0
 30
0.0
 70
     1
  0
VERTEX
  5
211D
  8
TOWNS
 10
627.98886549775045
 20
4671.598170470018
 30
0.0
  0
VERTEX
  5
211E
  8
TOWNS
 10
627.97274078308601
 20
4671.511925849928
 30
0.0
  0
VERTEX
  5
211F
  8
TOWNS
 10
628.06169343896761
 20
4671.4763813226318
 30
0.0
  0
VERTEX
  5
2120
  8
TOWNS
 10
628.23262904264232
 20
4671.4396811086363
 30
0.0
  0
VERTEX
  5
2121
  8
TOWNS
 10
628.31559828983541
 20
4671.4027300322323
 30
0.0
  0
VERTEX
  5
2122
  8
TOWNS
 10
628.5199364347061
 20
4671.4087949160248
 30
0.0
  0
VERTEX
  5
2123
  8
TOWNS
 10
628.53578798705962
 20
4671.4756617484582
 30
0.0
  0
VERTEX
  5
2124
  8
TOWNS
 10
628.44836795519984
 20
4671.5141664613702
 30
0.0
  0
VERTEX
  5
2125
  8
TOWNS
 10
628.42357409595843
 20
4671.5532792489439
 30
0.0
  0
VERTEX
  5
2126
  8
TOWNS
 10
628.3063000581119
 20
4671.5892230134632
 30
0.0
  0
VERTEX
  5
2127
  8
TOWNS
 10
628.15022841997416
 20
4671.6227319045038
 30
0.0
  0
SEQEND
  5
2128
  8
TOWNS
  0
POLYLINE
  5
1FE
  8
TOWNS
 66
     1
 10
0.0
 20
0.0
 30
0.0
 70
     1
  0
VERTEX
  5
2129
  8
TOWNS
 10
626.64913213837497
 20
4671.6394196802121
 30
0.0
  0
VERTEX
  5
212A
  8
TOWNS
 10
626.66309256703676
 20
4671.5721325980721
 30
0.0
  0
VERTEX
  5
212B
  8
TOWNS
 10
626.72571873965546
 20
4671.5727406727328
 30
0.0
  0
VERTEX
  5
212C
  8
TOWNS
 10
626.80889811170312
 20
4671.550695586835
 30
0.0
  0
VERTEX
  5
212D
  8
TOWNS
 10
626.87318298325613
 20
4671.5632074414179
 30
0.0
  0
VERTEX
  5
212E
  8
TOWNS
 10
626.91548580636845
 20
4671.4970117211051
 30
0.0
  0
VERTEX
  5
212F
  8
TOWNS
 10
626.98153443928345
 20
4671.5288803508611
 30
0.0
  0
VERTEX
  5
2130
  8
TOWNS
 10
627.01220793220318
 20
4671.5895746622373
 30
0.0
  0
VERTEX
  5
2131
  8
TOWNS
 10
626.98008715262063
 20
4671.6377361065388
 30
0.0
  0
VERTEX
  5
2132
  8
TOWNS
 10
626.95029618409035
 20
4671.639646955301
 30
0.0
  0
VERTEX
  5
2133
  8
TOWNS
 10
626.92741317360878
 20
4671.7085507114034
 30
0.0
  0
VERTEX
  5
2134
  8
TOWNS
 10
626.84072729132322
 20
4671.6933728460026
 30
0.0
  0
VERTEX
  5
2135
  8
TOWNS
 10
626.74963264934138
 20
4671.6827298152084
 30
0.0
  0
SEQEND
  5
2136
  8
TOWNS
  0
POLYLINE
  5
1FF
  8
TOWNS
 66
     1
 10
0.0
 20
0.0
 30
0.0
 70
     1
  0
VERTEX
  5
2137
  8
TOWNS
 10
625.39384919951101
 20
4672.5948881082841
 30
0.0
  0
VERTEX
  5
2138
  8
TOWNS
 10
625.42957897692486
 20
4672.3796955203497
 30
0.0
  0
VERTEX
  5
2139
  8
TOWNS
 10
625.65967755536815
 20
4672.4152151729077
 30
0.0
  0
VERTEX
  5
213A
  8
TOWNS
 10
625.68195377860513
 20
4672.5147911345157
 30
0.0
  0
VERTEX
  5
213B
  8
TOWNS
 10
625.66362661521805
 20
4672.5895942493662
 30
0.0
  0
VERTEX
  5
213C
  8
TOWNS
 10
625.49982881951496
 20
4672.6038304151716
 30
0.0
  0
SEQEND
  5
213D
  8
TOWNS
  0
POLYLINE
  5
200
  8
TOWNS
 66
     1
 10
0.0
 20
0.0
 30
0.0
 70
     1
  0
VERTEX
  5
213E
  8
TOWNS
 10
625.0
 20
4672.4714956021871
 30
0.0
  0
VERTEX
  5
213F
  8
TOWNS
 10
625.01492056591212
 20
4672.4720127487399
 30
0.0
  0
VERTEX
  5
2140
  8
TOWNS
 10
625.03937951280295
 20
4672.5149039214439
 30
0.0
  0
VERTEX
  5
2141
  8
TOWNS
 10
625.11243987877685
 20
4672.5153649087088
 30
0.0
  0
VERTEX
  5
2142
  8
TOWNS
 10
625.10775924418715
 20
4672.6063755007472
 30
0.0
  0
VERTEX
  5
2143
  8
TOWNS
 10
625.09371476558317
 20
4672.6677001866847
 30
0.0
  0
VERTEX
  5
2144
  8
TOWNS
 10
625.0
 20
4672.6587493347351
 30
0.0
  0
SEQEND
  5
2145
  8
TOWNS
  0
POLYLINE
  5
201
  8
TOWNS
 66
     1
 10
0.0
 20
0.0
 30
0.0
 70
     1
  0
VERTEX
  5
2146
  8
TOWNS
 10
628.43099582536968
 20
4675.8872071390579
 30
0.0
  0
VERTEX
  5
2147
  8
TOWNS
 10
628.50162003044727
 20
4675.8206121815219
 30
0.0
  0
VERTEX
  5
2148
  8
TOWNS
 10
628.59785886911595
 20
4675.8788913444832
 30
0.0
  0
VERTEX
  5
2149
  8
TOWNS
 10
628.68985704797262
 20
4675.9536301344588
 30
0.0
  0
VERTEX
  5
214A
  8
TOWNS
 10
628.73656991819814
 20
4675.9887531246304
 30
0.0
  0
VERTEX
  5
214B
  8
TOWNS
 10
628.7066121372012
 20
4676.0845927260752
 30
0.0
  0
VERTEX
  5
214C
  8
TOWNS
 10
628.65704543120376
 20
4676.1643089002728
 30
0.0
  0
VERTEX
  5
214D
  8
TOWNS
 10
628.55925295602799
 20
4676.1015789526436
 30
0.0
  0
VERTEX
  5
214E
  8
TOWNS
 10
628.50498202812105
 20
4676.0591080296463
 30
0.0
  0
VERTEX
  5
214F
  8
TOWNS
 10
628.46026276918053
 20
4675.9538848591201
 30
0.0
  0
SEQEND
  5
2150
  8
TOWNS
  0
POLYLINE
  5
202
  8
TOWNS
 66
     1
 10
0.0
 20
0.0
 30
0.0
 70
     1
  0
VERTEX
  5
2151
  8
TOWNS
 10
626.765244098415
 20
4676.1745771547667
 30
0.0
  0
VERTEX
  5
2152
  8
TOWNS
 10
626.73452729310725
 20
4676.0050481001999
 30
0.0
  0
VERTEX
  5
2153
  8
TOWNS
 10
626.80590794766135
 20
4675.9921147084888
 30
0.0
  0
VERTEX
  5
2154
  8
TOWNS
 10
626.79538841694682
 20
4675.8804458545956
 30
0.0
  0
VERTEX
  5
2155
  8
TOWNS
 10
626.86328357374816
 20
4675.8317801106368
 30
0.0
  0
VERTEX
  5
2156
  8
TOWNS
 10
626.91056249366443
 20
4675.801295730088
 30
0.0
  0
VERTEX
  5
2157
  8
TOWNS
 10
626.95532249015889
 20
4675.8036465536261
 30
0.0
  0
VERTEX
  5
2158
  8
TOWNS
 10
626.97318995369994
 20
4675.9077573498407
 30
0.0
  0
VERTEX
  5
2159
  8
TOWNS
 10
626.97023105550068
 20
4676.0151435189528
 30
0.0
  0
VERTEX
  5
215A
  8
TOWNS
 10
626.94241397318683
 20
4676.0513171333969
 30
0.0
  0
VERTEX
  5
215B
  8
TOWNS
 10
626.96244314789635
 20
4676.0972525416591
 30
0.0
  0
VERTEX
  5
215C
  8
TOWNS
 10
626.91407286615345
 20
4676.1560793166609
 30
0.0
  0
VERTEX
  5
215D
  8
TOWNS
 10
626.83530225380196
 20
4676.1735895679494
 30
0.0
  0
SEQEND
  5
215E
  8
TOWNS
  0
POLYLINE
  5
203
  8
TOWNS
 66
     1
 10
0.0
 20
0.0
 30
0.0
 70
     1
  0
VERTEX
  5
215F
  8
TOWNS
 10
625.34527614958233
 20
4680.1484481980597
 30
0.0
  0
VERTEX
  5
2160
  8
TOWNS
 10
625.34697429865366
 20
4679.9516260859009
 30
0.0
  0
VERTEX
  5
2161
  8
TOWNS
 10
625.51385835488543
 20
4679.9448008903773
 30
0.0
  0
VERTEX
  5
2162
  8
TOWNS
 10
625.53521002876209
 20
4679.9787904937457
 30
0.0
  0
VERTEX
  5
2163
  8
TOWNS
 10
625.70075057334122
 20
4679.982420504065
 30
0.0
  0
VERTEX
  5
2164
  8
TOWNS
 10
625.73450903937271
 20
4679.9446722406301
 30
0.0
  0
VERTEX
  5
2165
  8
TOWNS
 10
625.83939729754991
 20
4679.9819569419678
 30
0.0
  0
VERTEX
  5
2166
  8
TOWNS
 10
625.97661646016411
 20
4679.9859861895093
 30
0.0
  0
VERTEX
  5
2167
  8
TOWNS
 10
625.96874450261805
 20
4680.0621328160114
 30
0.0
  0
VERTEX
  5
2168
  8
TOWNS
 10
625.90498494320161
 20
4680.0868859376969
 30
0.0
  0
VERTEX
  5
2169
  8
TOWNS
 10
625.88644765495985
 20
4680.1467830620413
 30
0.0
  0
VERTEX
  5
216A
  8
TOWNS
 10
625.79608844996915
 20
4680.1883109980263
 30
0.0
  0
VERTEX
  5
216B
  8
TOWNS
 10
625.62448044675966
 20
4680.177312042395
 30
0.0
  0
VERTEX
  5
216C
  8
TOWNS
 10
625.46660302228895
 20
4680.1884829601604
 30
0.0
  0
SEQEND
  5
216D
  8
TOWNS
  0
POLYLINE
  5
204
  8
TOWNS
 66
     1
 10
0.0
 20
0.0
 30
0.0
 70
     1
  0
VERTEX
  5
216E
  8
TOWNS
 10
625.94181164592339
 20
4678.5745990132682
 30
0.0
  0
VERTEX
  5
216F
  8
TOWNS
 10
625.96402225686973
 20
4678.457996087539
 30
0.0
  0
VERTEX
  5
2170
  8
TOWNS
 10
626.02650134209011
 20
4678.448169968844
 30
0.0
  0
VERTEX
  5
2171
  8
TOWNS
 10
626.12135335671826
 20
4678.4080695944549
 30
0.0
  0
VERTEX
  5
2172
  8
TOWNS
 10
626.15177341239564
 20
4678.3450231721272
 30
0.0
  0
VERTEX
  5
2173
  8
TOWNS
 10
626.25775303239948
 20
4678.3539654790138
 30
0.0
  0
VERTEX
  5
2174
  8
TOWNS
 10
626.3151312333207
 20
4678.4053379713432
 30
0.0
  0
VERTEX
  5
2175
  8
TOWNS
 10
626.3130115471231
 20
4678.4664945573968
 30
0.0
  0
VERTEX
  5
2176
  8
TOWNS
 10
626.39384009563287
 20
4678.4892094679954
 30
0.0
  0
VERTEX
  5
2177
  8
TOWNS
 10
626.36579316339612
 20
4678.6148400379698
 30
0.0
  0
VERTEX
  5
2178
  8
TOWNS
 10
626.21822385736834
 20
4678.6169202740311
 30
0.0
  0
VERTEX
  5
2179
  8
TOWNS
 10
626.0449571552241
 20
4678.5940175384821
 30
0.0
  0
SEQEND
  5
217A
  8
TOWNS
  0
POLYLINE
  5
205
  8
TOWNS
 66
     1
 10
0.0
 20
0.0
 30
0.0
 70
     1
  0
VERTEX
  5
217B
  8
TOWNS
 10
626.23362600921234
 20
4679.7095293782568
 30
0.0
  0
VERTEX
  5
217C
  8
TOWNS
 10
626.23270145985202
 20
4679.6439430200244
 30
0.0
  0
VERTEX
  5
217D
  8
TOWNS
 10
626.1801312558506
 20
4679.6163570750496
 30
0.0
  0
VERTEX
  5
217E
  8
TOWNS
 10
626.21773114447046
 20
4679.5338278026338
 30
0.0
  0
VERTEX
  5
217F
  8
TOWNS
 10
626.48330992533636
 20
4679.5479747688332
 30
0.0
  0
VERTEX
  5
2180
  8
TOWNS
 10
626.49156139503782
 20
4679.6045124703351
 30
0.0
  0
VERTEX
  5
2181
  8
TOWNS
 10
626.6437705981017
 20
4679.6142939892243
 30
0.0
  0
VERTEX
  5
2182
  8
TOWNS
 10
626.62619988419135
 20
4679.7427586699023
 30
0.0
  0
SEQEND
  5
2183
  8
TOWNS
  0
POLYLINE
  5
206
  8
TOWNS
 66
     1
 10
0.0
 20
0.0
 30
0.0
 70
     1
  0
VERTEX
  5
2184
  8
TOWNS
 10
627.26367882917509
 20
4678.5350925519506
 30
0.0
  0
VERTEX
  5
2185
  8
TOWNS
 10
627.2902561748466
 20
4678.4109735935108
 30
0.0
  0
VERTEX
  5
2186
  8
TOWNS
 10
627.32021524326035
 20
4678.4209875371571
 30
0.0
  0
VERTEX
  5
2187
  8
TOWNS
 10
627.32374147856706
 20
4678.3538475424166
 30
0.0
  0
VERTEX
  5
2188
  8
TOWNS
 10
627.36818628777962
 20
4678.3338393801932
 30
0.0
  0
VERTEX
  5
2189
  8
TOWNS
 10
627.39236949752546
 20
4678.1456456750539
 30
0.0
  0
VERTEX
  5
218A
  8
TOWNS
 10
627.99127641607731
 20
4678.2206932152276
 30
0.0
  0
VERTEX
  5
218B
  8
TOWNS
 10
627.96249533426624
 20
4678.4000063635176
 30
0.0
  0
VERTEX
  5
218C
  8
TOWNS
 10
627.8974763131389
 20
4678.4411770872503
 30
0.0
  0
VERTEX
  5
218D
  8
TOWNS
 10
627.89149547928457
 20
4678.651477628322
 30
0.0
  0
VERTEX
  5
218E
  8
TOWNS
 10
627.69194431884796
 20
4678.667708692833
 30
0.0
  0
VERTEX
  5
218F
  8
TOWNS
 10
627.66330903701828
 20
4678.7516024893857
 30
0.0
  0
VERTEX
  5
2190
  8
TOWNS
 10
627.40039626697228
 20
4678.7150545124559
 30
0.0
  0
VERTEX
  5
2191
  8
TOWNS
 10
627.36510388950205
 20
4678.6439890451829
 30
0.0
  0
VERTEX
  5
2192
  8
TOWNS
 10
627.3068654640939
 20
4678.6373555368627
 30
0.0
  0
VERTEX
  5
2193
  8
TOWNS
 10
627.29233641090741
 20
4678.55854289954
 30
0.0
  0
SEQEND
  5
2194
  8
TOWNS
  0
POLYLINE
  5
207
  8
TOWNS
 66
     1
 10
0.0
 20
0.0
 30
0.0
 70
     1
  0
VERTEX
  5
2195
  8
TOWNS
 10
627.13071448796063
 20
4679.6789926734009
 30
0.0
  0
VERTEX
  5
2196
  8
TOWNS
 10
627.23070554960782
 20
4679.2631142508144
 30
0.0
  0
VERTEX
  5
2197
  8
TOWNS
 10
627.33233944737253
 20
4679.2810631894627
 30
0.0
  0
VERTEX
  5
2198
  8
TOWNS
 10
627.33792490625433
 20
4679.3600019016976
 30
0.0
  0
VERTEX
  5
2199
  8
TOWNS
 10
627.3979691179951
 20
4679.3889733832957
 30
0.0
  0
VERTEX
  5
219A
  8
TOWNS
 10
627.41048225999441
 20
4679.4305420568344
 30
0.0
  0
VERTEX
  5
219B
  8
TOWNS
 10
627.58246848794238
 20
4679.4683717953749
 30
0.0
  0
VERTEX
  5
219C
  8
TOWNS
 10
627.56202163835746
 20
4679.6043314962808
 30
0.0
  0
VERTEX
  5
219D
  8
TOWNS
 10
627.38898607355361
 20
4679.5978253502899
 30
0.0
  0
VERTEX
  5
219E
  8
TOWNS
 10
627.30933551164651
 20
4679.7644375316258
 30
0.0
  0
SEQEND
  5
219F
  8
TOWNS
  0
POLYLINE
  5
208
  8
TOWNS
 66
     1
 10
0.0
 20
0.0
 30
0.0
 70
     1
  0
VERTEX
  5
21A0
  8
TOWNS
 10
627.29364782909204
 20
4686.2664528910636
 30
0.0
  0
VERTEX
  5
21A1
  8
TOWNS
 10
627.24720683376052
 20
4686.1448541434629
 30
0.0
  0
VERTEX
  5
21A2
  8
TOWNS
 10
627.27584211559031
 20
4686.0609603469093
 30
0.0
  0
VERTEX
  5
21A3
  8
TOWNS
 10
627.45706353780542
 20
4685.9078253070693
 30
0.0
  0
VERTEX
  5
21A4
  8
TOWNS
 10
627.47977844840307
 20
4685.8269967585566
 30
0.0
  0
VERTEX
  5
21A5
  8
TOWNS
 10
627.61722874835743
 20
4685.847422595657
 30
0.0
  0
VERTEX
  5
21A6
  8
TOWNS
 10
627.68640566677198
 20
4685.8896833937979
 30
0.0
  0
VERTEX
  5
21A7
  8
TOWNS
 10
627.74262946840975
 20
4685.964926483427
 30
0.0
  0
VERTEX
  5
21A8
  8
TOWNS
 10
627.79022486302472
 20
4686.0626546337298
 30
0.0
  0
VERTEX
  5
21A9
  8
TOWNS
 10
627.76018303208582
 20
4686.1525318389713
 30
0.0
  0
VERTEX
  5
21AA
  8
TOWNS
 10
627.72531219174198
 20
4686.2171318978062
 30
0.0
  0
VERTEX
  5
21AB
  8
TOWNS
 10
627.65512796144196
 20
4686.2091758903189
 30
0.0
  0
VERTEX
  5
21AC
  8
TOWNS
 10
627.62640862967044
 20
4686.2871072906673
 30
0.0
  0
VERTEX
  5
21AD
  8
TOWNS
 10
627.52469068196388
 20
4686.2631959558157
 30
0.0
  0
VERTEX
  5
21AE
  8
TOWNS
 10
627.51339626412164
 20
4686.3080820272244
 30
0.0
  0
SEQEND
  5
21AF
  8
TOWNS
  0
POLYLINE
  5
209
  8
TOWNS
 66
     1
 10
0.0
 20
0.0
 30
0.0
 70
     1
  0
VERTEX
  5
21B0
  8
TOWNS
 10
625.0
 20
4685.8723390818213
 30
0.0
  0
VERTEX
  5
21B1
  8
TOWNS
 10
625.05031212047447
 20
4685.8761531003702
 30
0.0
  0
VERTEX
  5
21B2
  8
TOWNS
 10
625.04338443735719
 20
4685.9135231390655
 30
0.0
  0
VERTEX
  5
21B3
  8
TOWNS
 10
625.10913889547567
 20
4685.9245233821111
 30
0.0
  0
VERTEX
  5
21B4
  8
TOWNS
 10
625.10172921260937
 20
4686.0334631877322
 30
0.0
  0
VERTEX
  5
21B5
  8
TOWNS
 10
625.0
 20
4686.0442810726454
 30
0.0
  0
SEQEND
  5
21B6
  8
TOWNS
  0
POLYLINE
  5
20A
  8
TOWNS
 66
     1
 10
0.0
 20
0.0
 30
0.0
 70
     1
  0
VERTEX
  5
21B7
  8
TOWNS
 10
625.82788939837258
 20
4688.3669140898282
 30
0.0
  0
VERTEX
  5
21B8
  8
TOWNS
 10
625.90149608896866
 20
4688.4061306524118
 30
0.0
  0
VERTEX
  5
21B9
  8
TOWNS
 10
625.92049693930778
 20
4688.4848802522802
 30
0.0
  0
VERTEX
  5
21BA
  8
TOWNS
 10
626.28550716921552
 20
4688.6780238920674
 30
0.0
  0
VERTEX
  5
21BB
  8
TOWNS
 10
626.35562707464192
 20
4688.5756545573122
 30
0.0
  0
VERTEX
  5
21BC
  8
TOWNS
 10
626.28577775669237
 20
4688.4856945895453
 30
0.0
  0
VERTEX
  5
21BD
  8
TOWNS
 10
626.08624632132444
 20
4688.3975627080117
 30
0.0
  0
VERTEX
  5
21BE
  8
TOWNS
 10
626.08418838516627
 20
4688.3573375461283
 30
0.0
  0
VERTEX
  5
21BF
  8
TOWNS
 10
625.91272618193773
 20
4688.2509192387643
 30
0.0
  0
SEQEND
  5
21C0
  8
TOWNS
  0
POLYLINE
  5
20B
  8
TOWNS
 66
     1
 10
0.0
 20
0.0
 30
0.0
 70
     1
  0
VERTEX
  5
21C1
  8
TOWNS
 10
626.99572795841345
 20
4669.7453101580259
 30
0.0
  0
VERTEX
  5
21C2
  8
TOWNS
 10
627.01735500442089
 20
4669.6889086708579
 30
0.0
  0
VERTEX
  5
21C3
  8
TOWNS
 10
627.25353881564706
 20
4669.7651139295231
 30
0.0
  0
VERTEX
  5
21C4
  8
TOWNS
 10
627.21805636182103
 20
4669.8541513380878
 30
0.0
  0
SEQEND
  5
21C5
  8
TOWNS
  0
POLYLINE
  5
20C
  8
TOWNS
 66
     1
 10
0.0
 20
0.0
 30
0.0
 70
     1
  0
VERTEX
  5
21C6
  8
TOWNS
 10
626.59781365434924
 20
4669.9429479295968
 30
0.0
  0
VERTEX
  5
21C7
  8
TOWNS
 10
626.63908530224523
 20
4669.8674124381787
 30
0.0
  0
VERTEX
  5
21C8
  8
TOWNS
 10
626.86677188688839
 20
4669.909195715034
 30
0.0
  0
VERTEX
  5
21C9
  8
TOWNS
 10
627.12575898372165
 20
4670.0662553696111
 30
0.0
  0
VERTEX
  5
21CA
  8
TOWNS
 10
627.13282260924427
 20
4670.2095557455814
 30
0.0
  0
VERTEX
  5
21CB
  8
TOWNS
 10
627.00161121905285
 20
4670.2048445992577
 30
0.0
  0
VERTEX
  5
21CC
  8
TOWNS
 10
626.85560384189125
 20
4670.0776156730317
 30
0.0
  0
SEQEND
  5
21CD
  8
TOWNS
  0
POLYLINE
  5
20D
  8
TOWNS
 66
     1
 10
0.0
 20
0.0
 30
0.0
 70
     1
  0
VERTEX
  5
21CE
  8
TOWNS
 10
625.44232525694122
 20
4667.7438212406596
 30
0.0
  0
VERTEX
  5
21CF
  8
TOWNS
 10
625.36200212835843
 20
4667.6129819481894
 30
0.0
  0
VERTEX
  5
21D0
  8
TOWNS
 10
625.35900055160562
 20
4667.5010616692134
 30
0.0
  0
VERTEX
  5
21D1
  8
TOWNS
 10
625.501967075273
 20
4667.5193532861658
 30
0.0
  0
SEQEND
  5
21D2
  8
TOWNS
  0
POLYLINE
  5
20E
  8
TOWNS
 66
     1
 10
0.0
 20
0.0
 30
0.0
 70
     1
  0
VERTEX
  5
21D3
  8
TOWNS
 10
626.85366991313072
 20
4666.9389620327038
 30
0.0
  0
VERTEX
  5
21D4
  8
TOWNS
 10
626.79738728750806
 20
4666.7950135905021
 30
0.0
  0
VERTEX
  5
21D5
  8
TOWNS
 10
626.99722868188201
 20
4666.5723916428551
 30
0.0
  0
VERTEX
  5
21D6
  8
TOWNS
 10
626.96296483835965
 20
4666.4555845035402
 30
0.0
  0
VERTEX
  5
21D7
  8
TOWNS
 10
627.17489418718992
 20
4666.3345602711324
 30
0.0
  0
VERTEX
  5
21D8
  8
TOWNS
 10
627.41490541805888
 20
4666.3466709579234
 30
0.0
  0
VERTEX
  5
21D9
  8
TOWNS
 10
627.18537076392874
 20
4666.6718322312809
 30
0.0
  0
VERTEX
  5
21DA
  8
TOWNS
 10
627.07586291058567
 20
4666.831498632554
 30
0.0
  0
SEQEND
  5
21DB
  8
TOWNS
  0
POLYLINE
  5
20F
  8
TOWNS
 66
     1
 10
0.0
 20
0.0
 30
0.0
 70
     1
  0
VERTEX
  5
21DC
  8
TOWNS
 10
627.27457559266895
 20
4665.5616579354401
 30
0.0
  0
VERTEX
  5
21DD
  8
TOWNS
 10
627.44275885889613
 20
4665.7040962857409
 30
0.0
  0
VERTEX
  5
21DE
  8
TOWNS
 10
627.60007381229161
 20
4665.4257198858368
 30
0.0
  0
VERTEX
  5
21DF
  8
TOWNS
 10
627.41295189419975
 20
4665.3620945722178
 30
0.0
  0
SEQEND
  5
21E0
  8
TOWNS
  0
POLYLINE
  5
210
  8
TOWNS
 66
     1
 10
0.0
 20
0.0
 30
0.0
 70
     1
  0
VERTEX
  5
21E1
  8
TOWNS
 10
627.19500280418436
 20
4662.7680665005
 30
0.0
  0
VERTEX
  5
21E2
  8
TOWNS
 10
627.32743177335874
 20
4662.6803055860291
 30
0.0
  0
VERTEX
  5
21E3
  8
TOWNS
 10
627.48613692578931
 20
4662.7495237100111
 30
0.0
  0
VERTEX
  5
21E4
  8
TOWNS
 10
627.41099213914276
 20
4662.905167339256
 30
0.0
  0
SEQEND
  5
21E5
  8
TOWNS
  0
POLYLINE
  5
211
  8
TOWNS
 66
     1
 10
0.0
 20
0.0
 30
0.0
 70
     1
  0
VERTEX
  5
21E6
  8
TOWNS
 10
625.77438363715191
 20
4662.6911832240221
 30
0.0
  0
VERTEX
  5
21E7
  8
TOWNS
 10
625.75772303628719
 20
4662.5969840179287
 30
0.0
  0
VERTEX
  5
21E8
  8
TOWNS
 10
625.68670127616485
 20
4662.5527883154418
 30
0.0
  0
VERTEX
  5
21E9
  8
TOWNS
 10
625.72045658469119
 20
4662.481629086722
 30
0.0
  0
VERTEX
  5
21EA
  8
TOWNS
 10
626.12731567258027
 20
4662.737599093718
 30
0.0
  0
VERTEX
  5
21EB
  8
TOWNS
 10
626.09936919649465
 20
4662.8207687547301
 30
0.0
  0
SEQEND
  5
21EC
  8
TOWNS
  0
POLYLINE
  5
212
  8
TOWNS
 66
     1
 10
0.0
 20
0.0
 30
0.0
 70
     1
  0
VERTEX
  5
21ED
  8
TOWNS
 10
625.13677644143365
 20
4662.3993566028357
 30
0.0
  0
VERTEX
  5
21EE
  8
TOWNS
 10
625.19775160633037
 20
4662.3002126526144
 30
0.0
  0
VERTEX
  5
21EF
  8
TOWNS
 10
625.37170545957747
 20
4662.3442719178274
 30
0.0
  0
VERTEX
  5
21F0
  8
TOWNS
 10
625.41744949938607
 20
4662.495540315691
 30
0.0
  0
SEQEND
  5
21F1
  8
TOWNS
  0
POLYLINE
  5
213
  8
TOWNS
 66
     1
 10
0.0
 20
0.0
 30
0.0
 70
     1
  0
VERTEX
  5
21F2
  8
TOWNS
 10
628.48894700138294
 20
4660.3431198601811
 30
0.0
  0
VERTEX
  5
21F3
  8
TOWNS
 10
628.53100418410645
 20
4660.2079249747012
 30
0.0
  0
VERTEX
  5
21F4
  8
TOWNS
 10
628.77079939289808
 20
4660.236441994859
 30
0.0
  0
VERTEX
  5
21F5
  8
TOWNS
 10
628.74020276808994
 20
4660.40758962374
 30
0.0
  0
SEQEND
  5
21F6
  8
TOWNS
  0
POLYLINE
  5
214
  8
TOWNS
 66
     1
 10
0.0
 20
0.0
 30
0.0
 70
     1
  0
VERTEX
  5
21F7
  8
TOWNS
 10
625.06160864233675
 20
4690.6798321987653
 30
0.0
  0
VERTEX
  5
21F8
  8
TOWNS
 10
625.57503227815414
 20
4690.6345451008192
 30
0.0
  0
VERTEX
  5
21F9
  8
TOWNS
 10
625.61112496358805
 20
4690.3163918333794
 30
0.0
  0
VERTEX
  5
21FA
  8
TOWNS
 10
625.10799032699686
 20
4690.3198344821631
 30
0.0
  0
SEQEND
  5
21FB
  8
TOWNS
  0
POLYLINE
  5
215
  8
TOWNS
 66
     1
 10
0.0
 20
0.0
 30
0.0
 70
     1
  0
VERTEX
  5
21FC
  8
TOWNS
 10
626.31943171188937
 20
4695.4839778635642
 30
0.0
  0
VERTEX
  5
21FD
  8
TOWNS
 10
626.88938640904735
 20
4695.7714153264978
 30
0.0
  0
VERTEX
  5
21FE
  8
TOWNS
 10
626.82732265084405
 20
4695.9373811192354
 30
0.0
  0
VERTEX
  5
21FF
  8
TOWNS
 10
626.91261446839587
 20
4695.9863202997831
 30
0.0
  0
VERTEX
  5
2200
  8
TOWNS
 10
626.98810364053452
 20
4695.817316442658
 30
0.0
  0
VERTEX
  5
2201
  8
TOWNS
 10
627.05237777584125
 20
4695.836476651898
 30
0.0
  0
VERTEX
  5
2202
  8
TOWNS
 10
627.13148354367183
 20
4695.8301980371671
 30
0.0
  0
VERTEX
  5
2203
  8
TOWNS
 10
627.24776963579041
 20
4695.7864498324952
 30
0.0
  0
VERTEX
  5
2204
  8
TOWNS
 10
627.38497505983264
 20
4695.7470996282946
 30
0.0
  0
VERTEX
  5
2205
  8
TOWNS
 10
627.51920027261849
 20
4695.7092539930072
 30
0.0
  0
VERTEX
  5
2206
  8
TOWNS
 10
627.68031681046614
 20
4695.675783216936
 30
0.0
  0
VERTEX
  5
2207
  8
TOWNS
 10
627.77571828253986
 20
4695.6365950014997
 30
0.0
  0
VERTEX
  5
2208
  8
TOWNS
 10
627.75162203871662
 20
4695.5829396282652
 30
0.0
  0
VERTEX
  5
2209
  8
TOWNS
 10
627.68711649088755
 20
4695.5040594876418
 30
0.0
  0
VERTEX
  5
220A
  8
TOWNS
 10
627.62419650635218
 20
4695.4490615342629
 30
0.0
  0
VERTEX
  5
220B
  8
TOWNS
 10
627.51082698704602
 20
4695.4748821888916
 30
0.0
  0
VERTEX
  5
220C
  8
TOWNS
 10
627.38864411085865
 20
4695.5380625125163
 30
0.0
  0
VERTEX
  5
220D
  8
TOWNS
 10
627.28883306768785
 20
4695.5951840633043
 30
0.0
  0
VERTEX
  5
220E
  8
TOWNS
 10
627.2112492247071
 20
4695.6089218841444
 30
0.0
  0
VERTEX
  5
220F
  8
TOWNS
 10
627.15272145532936
 20
4695.531511600554
 30
0.0
  0
VERTEX
  5
2210
  8
TOWNS
 10
627.07494669701805
 20
4695.4959804780028
 30
0.0
  0
VERTEX
  5
2211
  8
TOWNS
 10
627.02127396784272
 20
4695.5155977269742
 30
0.0
  0
VERTEX
  5
2212
  8
TOWNS
 10
626.97517615103845
 20
4695.5635530167847
 30
0.0
  0
VERTEX
  5
2213
  8
TOWNS
 10
626.9289337014078
 20
4695.5741833494812
 30
0.0
  0
VERTEX
  5
2214
  8
TOWNS
 10
626.8481845171533
 20
4695.5416497941251
 30
0.0
  0
VERTEX
  5
2215
  8
TOWNS
 10
626.71510518386867
 20
4695.4899097470279
 30
0.0
  0
VERTEX
  5
2216
  8
TOWNS
 10
626.6388697063461
 20
4695.4663168254401
 30
0.0
  0
VERTEX
  5
2217
  8
TOWNS
 10
626.55220059677083
 20
4695.4472433958981
 30
0.0
  0
VERTEX
  5
2218
  8
TOWNS
 10
626.50886893463951
 20
4695.438453180268
 30
0.0
  0
VERTEX
  5
2219
  8
TOWNS
 10
626.4894136744357
 20
4695.4265844030624
 30
0.0
  0
VERTEX
  5
221A
  8
TOWNS
 10
626.46980221077899
 20
4695.3744046721713
 30
0.0
  0
VERTEX
  5
221B
  8
TOWNS
 10
626.39049974230454
 20
4695.3299213452246
 30
0.0
  0
VERTEX
  5
221C
  8
TOWNS
 10
626.33550757423643
 20
4695.3943343280462
 30
0.0
  0
SEQEND
  5
221D
  8
TOWNS
  0
POLYLINE
  5
216
  8
TOWNS
 66
     1
 10
0.0
 20
0.0
 30
0.0
 70
     1
  0
VERTEX
  5
221E
  8
TOWNS
 10
626.85646368765106
 20
4697.2929309966257
 30
0.0
  0
VERTEX
  5
221F
  8
TOWNS
 10
626.81552213484474
 20
4697.1303503870622
 30
0.0
  0
VERTEX
  5
2220
  8
TOWNS
 10
626.78397247022463
 20
4697.0797099369584
 30
0.0
  0
VERTEX
  5
2221
  8
TOWNS
 10
626.71814169818981
 20
4697.0441325319043
 30
0.0
  0
VERTEX
  5
2222
  8
TOWNS
 10
626.6599379063432
 20
4697.0503301522504
 30
0.0
  0
VERTEX
  5
2223
  8
TOWNS
 10
626.64678440212174
 20
4697.1235391360133
 30
0.0
  0
VERTEX
  5
2224
  8
TOWNS
 10
626.66357185797438
 20
4697.2175343894987
 30
0.0
  0
VERTEX
  5
2225
  8
TOWNS
 10
626.70877256373899
 20
4697.3233637083113
 30
0.0
  0
SEQEND
  5
2226
  8
TOWNS
  0
POLYLINE
  5
217
  8
TOWNS
 66
     1
 10
0.0
 20
0.0
 30
0.0
 70
     1
  0
VERTEX
  5
2227
  8
TOWNS
 10
626.88484491086649
 20
4700.3788948124129
 30
0.0
  0
VERTEX
  5
2228
  8
TOWNS
 10
626.89045242928239
 20
4700.2848127792331
 30
0.0
  0
VERTEX
  5
2229
  8
TOWNS
 10
626.45884864815105
 20
4700.2536387724431
 30
0.0
  0
VERTEX
  5
222A
  8
TOWNS
 10
626.42493780077166
 20
4700.364253707703
 30
0.0
  0
SEQEND
  5
222B
  8
TOWNS
  0
POLYLINE
  5
218
  8
TOWNS
 66
     1
 10
0.0
 20
0.0
 30
0.0
 70
     1
  0
VERTEX
  5
222C
  8
TOWNS
 10
628.11258784018037
 20
4693.9526553127762
 30
0.0
  0
VERTEX
  5
222D
  8
TOWNS
 10
628.28510415736116
 20
4694.1639957581829
 30
0.0
  0
VERTEX
  5
222E
  8
TOWNS
 10
628.53519891972564
 20
4693.9749060417334
 30
0.0
  0
VERTEX
  5
222F
  8
TOWNS
 10
628.5830963564066
 20
4694.0060738756929
 30
0.0
  0
VERTEX
  5
2230
  8
TOWNS
 10
628.71111237821901
 20
4693.9070384519882
 30
0.0
  0
VERTEX
  5
2231
  8
TOWNS
 10
628.79573309945636
 20
4693.7827898315218
 30
0.0
  0
VERTEX
  5
2232
  8
TOWNS
 10
628.80134640318545
 20
4693.6902007966273
 30
0.0
  0
VERTEX
  5
2233
  8
TOWNS
 10
628.76835580809825
 20
4693.6530031164002
 30
0.0
  0
VERTEX
  5
2234
  8
TOWNS
 10
628.68018791492523
 20
4693.6324424738859
 30
0.0
  0
VERTEX
  5
2235
  8
TOWNS
 10
628.58621001737924
 20
4693.653708924593
 30
0.0
  0
VERTEX
  5
2236
  8
TOWNS
 10
628.45362243570446
 20
4693.728873731684
 30
0.0
  0
SEQEND
  5
2237
  8
TOWNS
  0
POLYLINE
  5
219
  8
TOWNS
 66
     1
 10
0.0
 20
0.0
 30
0.0
 70
     1
  0
VERTEX
  5
2238
  8
TOWNS
 10
628.7290298383765
 20
4672.2810029107568
 30
0.0
  0
VERTEX
  5
2239
  8
TOWNS
 10
628.68361716741538
 20
4672.1265899715554
 30
0.0
  0
VERTEX
  5
223A
  8
TOWNS
 10
628.87342625909935
 20
4672.0538422180289
 30
0.0
  0
VERTEX
  5
223B
  8
TOWNS
 10
628.91407167069451
 20
4672.0815962628867
 30
0.0
  0
VERTEX
  5
223C
  8
TOWNS
 10
629.05813446648415
 20
4672.0422930755249
 30
0.0
  0
VERTEX
  5
223D
  8
TOWNS
 10
629.12495927394411
 20
4672.0234603250719
 30
0.0
  0
VERTEX
  5
223E
  8
TOWNS
 10
629.14102095115254
 20
4672.1052331480096
 30
0.0
  0
VERTEX
  5
223F
  8
TOWNS
 10
629.13598310430962
 20
4672.1709035561871
 30
0.0
  0
VERTEX
  5
2240
  8
TOWNS
 10
629.03951441571758
 20
4672.2020813487579
 30
0.0
  0
VERTEX
  5
2241
  8
TOWNS
 10
628.86872589944119
 20
4672.2492157561092
 30
0.0
  0
VERTEX
  5
2242
  8
TOWNS
 10
628.79302053513288
 20
4672.2726463786294
 30
0.0
  0
SEQEND
  5
2243
  8
TOWNS
  0
POLYLINE
  5
21A
  8
TOWNS
 66
     1
 10
0.0
 20
0.0
 30
0.0
 70
     1
  0
VERTEX
  5
2244
  8
TOWNS
 10
628.2636761164033
 20
4679.7763297247939
 30
0.0
  0
VERTEX
  5
2245
  8
TOWNS
 10
628.25166598663805
 20
4679.6646818833842
 30
0.0
  0
VERTEX
  5
2246
  8
TOWNS
 10
628.43060091018879
 20
4679.6666321822804
 30
0.0
  0
VERTEX
  5
2247
  8
TOWNS
 10
628.44584310046412
 20
4679.6902716422383
 30
0.0
  0
VERTEX
  5
2248
  8
TOWNS
 10
628.85607302671235
 20
4679.7068521944984
 30
0.0
  0
VERTEX
  5
2249
  8
TOWNS
 10
628.96872689259146
 20
4679.5546837289867
 30
0.0
  0
VERTEX
  5
224A
  8
TOWNS
 10
629.15234373814917
 20
4679.5714769809356
 30
0.0
  0
VERTEX
  5
224B
  8
TOWNS
 10
629.19158002580139
 20
4679.3935073442999
 30
0.0
  0
VERTEX
  5
224C
  8
TOWNS
 10
629.51405372042245
 20
4679.4247430246569
 30
0.0
  0
VERTEX
  5
224D
  8
TOWNS
 10
629.50349473957124
 20
4679.521800062842
 30
0.0
  0
VERTEX
  5
224E
  8
TOWNS
 10
629.61688532985841
 20
4679.5276561092023
 30
0.0
  0
VERTEX
  5
224F
  8
TOWNS
 10
629.81393857935871
 20
4679.5457508478312
 30
0.0
  0
VERTEX
  5
2250
  8
TOWNS
 10
629.72219769999595
 20
4679.9123134268311
 30
0.0
  0
VERTEX
  5
2251
  8
TOWNS
 10
629.60859698485388
 20
4679.8915513899619
 30
0.0
  0
VERTEX
  5
2252
  8
TOWNS
 10
629.49581575664547
 20
4679.928922716078
 30
0.0
  0
VERTEX
  5
2253
  8
TOWNS
 10
629.35937276857601
 20
4679.8741920883249
 30
0.0
  0
VERTEX
  5
2254
  8
TOWNS
 10
629.26867607640122
 20
4679.7860168944053
 30
0.0
  0
VERTEX
  5
2255
  8
TOWNS
 10
629.00891260434048
 20
4679.7613516849096
 30
0.0
  0
VERTEX
  5
2256
  8
TOWNS
 10
628.93986304825557
 20
4679.8338880261654
 30
0.0
  0
SEQEND
  5
2257
  8
TOWNS
  0
POLYLINE
  5
21B
  8
TOWNS
 66
     1
 10
0.0
 20
0.0
 30
0.0
 70
     1
  0
VERTEX
  5
2258
  8
TOWNS
 10
628.49750811234014
 20
4686.422426317672
 30
0.0
  0
VERTEX
  5
2259
  8
TOWNS
 10
628.54463865744071
 20
4686.2756541986737
 30
0.0
  0
VERTEX
  5
225A
  8
TOWNS
 10
629.09823925487592
 20
4686.3095953399907
 30
0.0
  0
VERTEX
  5
225B
  8
TOWNS
 10
629.09614058116358
 20
4686.3722425250917
 30
0.0
  0
VERTEX
  5
225C
  8
TOWNS
 10
629.06068139122647
 20
4686.3951058105058
 30
0.0
  0
VERTEX
  5
225D
  8
TOWNS
 10
629.05278842119515
 20
4686.4697618379569
 30
0.0
  0
VERTEX
  5
225E
  8
TOWNS
 10
628.84716980212818
 20
4686.4786239571558
 30
0.0
  0
VERTEX
  5
225F
  8
TOWNS
 10
628.78553121632649
 20
4686.5480740378798
 30
0.0
  0
VERTEX
  5
2260
  8
TOWNS
 10
628.55381596391965
 20
4686.5036318035018
 30
0.0
  0
VERTEX
  5
2261
  8
TOWNS
 10
628.5589378607043
 20
4686.4439237915303
 30
0.0
  0
SEQEND
  5
2262
  8
TOWNS
  0
POLYLINE
  5
21C
  8
TOWNS
 66
     1
 10
0.0
 20
0.0
 30
0.0
 70
     1
  0
VERTEX
  5
2263
  8
TOWNS
 10
628.7887728869955
 20
4671.3337580260222
 30
0.0
  0
VERTEX
  5
2264
  8
TOWNS
 10
628.79216929380402
 20
4671.1891036337938
 30
0.0
  0
VERTEX
  5
2265
  8
TOWNS
 10
629.05135380566514
 20
4671.2178759527724
 30
0.0
  0
VERTEX
  5
2266
  8
TOWNS
 10
629.13379684696156
 20
4671.3010073683618
 30
0.0
  0
VERTEX
  5
2267
  8
TOWNS
 10
629.12879215639828
 20
4671.3412185442403
 30
0.0
  0
SEQEND
  5
2268
  8
TOWNS
  0
POLYLINE
  5
21D
  8
TOWNS
 66
     1
 10
0.0
 20
0.0
 30
0.0
 70
     1
  0
VERTEX
  5
2269
  8
TOWNS
 10
628.82152017732471
 20
4698.5110864722274
 30
0.0
  0
VERTEX
  5
226A
  8
TOWNS
 10
629.02449273495802
 20
4698.4908906919518
 30
0.0
  0
VERTEX
  5
226B
  8
TOWNS
 10
629.26587827607636
 20
4698.3660346136157
 30
0.0
  0
VERTEX
  5
226C
  8
TOWNS
 10
629.50140753031781
 20
4698.2710616422237
 30
0.0
  0
VERTEX
  5
226D
  8
TOWNS
 10
629.47414015990751
 20
4698.1696418945094
 30
0.0
  0
VERTEX
  5
226E
  8
TOWNS
 10
629.74221454013104
 20
4697.9969057354319
 30
0.0
  0
VERTEX
  5
226F
  8
TOWNS
 10
629.66852537538557
 20
4697.8598333735899
 30
0.0
  0
VERTEX
  5
2270
  8
TOWNS
 10
629.45230674852178
 20
4697.9293501650736
 30
0.0
  0
VERTEX
  5
2271
  8
TOWNS
 10
629.29434398132173
 20
4698.0061063207713
 30
0.0
  0
VERTEX
  5
2272
  8
TOWNS
 10
629.26936219708477
 20
4698.1092215527287
 30
0.0
  0
VERTEX
  5
2273
  8
TOWNS
 10
629.12315250083066
 20
4698.1366624825314
 30
0.0
  0
VERTEX
  5
2274
  8
TOWNS
 10
629.05292372832491
 20
4698.1220044093971
 30
0.0
  0
VERTEX
  5
2275
  8
TOWNS
 10
628.91739643258552
 20
4698.2091247733933
 30
0.0
  0
VERTEX
  5
2276
  8
TOWNS
 10
628.82054824473141
 20
4698.2602627604192
 30
0.0
  0
VERTEX
  5
2277
  8
TOWNS
 10
628.76449119154472
 20
4698.4351634016093
 30
0.0
  0
SEQEND
  5
2278
  8
TOWNS
  0
POLYLINE
  5
21E
  8
TOWNS
 66
     1
 10
0.0
 20
0.0
 30
0.0
 70
     1
  0
VERTEX
  5
2279
  8
TOWNS
 10
628.7953706784898
 20
4689.2202683817322
 30
0.0
  0
VERTEX
  5
227A
  8
TOWNS
 10
628.8568402571542
 20
4689.3491639362592
 30
0.0
  0
VERTEX
  5
227B
  8
TOWNS
 10
628.92957772090836
 20
4689.3153044290084
 30
0.0
  0
VERTEX
  5
227C
  8
TOWNS
 10
628.98009334233495
 20
4689.3703439453238
 30
0.0
  0
VERTEX
  5
227D
  8
TOWNS
 10
629.18424489390668
 20
4689.278848083547
 30
0.0
  0
VERTEX
  5
227E
  8
TOWNS
 10
629.13831285496565
 20
4689.1093490315716
 30
0.0
  0
VERTEX
  5
227F
  8
TOWNS
 10
629.07594796235924
 20
4689.1140194457803
 30
0.0
  0
VERTEX
  5
2280
  8
TOWNS
 10
629.08943750648746
 20
4689.1891645944334
 30
0.0
  0
VERTEX
  5
2281
  8
TOWNS
 10
629.0498161547024
 20
4689.2168855142399
 30
0.0
  0
VERTEX
  5
2282
  8
TOWNS
 10
628.95605060054322
 20
4689.161556086744
 30
0.0
  0
SEQEND
  5
2283
  8
TOWNS
  0
POLYLINE
  5
21F
  8
TOWNS
 66
     1
 10
0.0
 20
0.0
 30
0.0
 70
     1
  0
VERTEX
  5
2284
  8
TOWNS
 10
635.15708432958945
 20
4675.9340267269617
 30
0.0
  0
VERTEX
  5
2285
  8
TOWNS
 10
635.16730711067305
 20
4675.8131201039623
 30
0.0
  0
VERTEX
  5
2286
  8
TOWNS
 10
635.24754602217308
 20
4675.688244696049
 30
0.0
  0
VERTEX
  5
2287
  8
TOWNS
 10
635.34762628343049
 20
4675.7017428500303
 30
0.0
  0
VERTEX
  5
2288
  8
TOWNS
 10
635.38296068587192
 20
4675.7757895154027
 30
0.0
  0
VERTEX
  5
2289
  8
TOWNS
 10
635.43679035158402
 20
4675.7869578583341
 30
0.0
  0
VERTEX
  5
228A
  8
TOWNS
 10
635.49759101280131
 20
4675.8695909057597
 30
0.0
  0
VERTEX
  5
228B
  8
TOWNS
 10
635.46087236115375
 20
4675.9088717932163
 30
0.0
  0
VERTEX
  5
228C
  8
TOWNS
 10
635.45871064998516
 20
4675.9670471811678
 30
0.0
  0
VERTEX
  5
228D
  8
TOWNS
 10
635.39770115133024
 20
4675.9753616883254
 30
0.0
  0
VERTEX
  5
228E
  8
TOWNS
 10
635.39085751815446
 20
4676.0186941232259
 30
0.0
  0
VERTEX
  5
228F
  8
TOWNS
 10
635.26440874866319
 20
4676.0383673731003
 30
0.0
  0
VERTEX
  5
2290
  8
TOWNS
 10
635.22739463480195
 20
4675.9509263287546
 30
0.0
  0
SEQEND
  5
2291
  8
TOWNS
  0
POLYLINE
  5
220
  8
TOWNS
 66
     1
 10
0.0
 20
0.0
 30
0.0
 70
     1
  0
VERTEX
  5
2292
  8
TOWNS
 10
634.79115005609242
 20
4684.347834431177
 30
0.0
  0
VERTEX
  5
2293
  8
TOWNS
 10
635.17158643897653
 20
4684.1546187420117
 30
0.0
  0
VERTEX
  5
2294
  8
TOWNS
 10
635.15390808780444
 20
4684.063923337254
 30
0.0
  0
VERTEX
  5
2295
  8
TOWNS
 10
635.41453049693507
 20
4683.9379960176493
 30
0.0
  0
VERTEX
  5
2296
  8
TOWNS
 10
635.44833227535446
 20
4684.0090824974059
 30
0.0
  0
VERTEX
  5
2297
  8
TOWNS
 10
635.42393765333713
 20
4684.0765166669462
 30
0.0
  0
VERTEX
  5
2298
  8
TOWNS
 10
635.44638068904067
 20
4684.0821638758662
 30
0.0
  0
VERTEX
  5
2299
  8
TOWNS
 10
635.5288902363875
 20
4684.2241267105264
 30
0.0
  0
VERTEX
  5
229A
  8
TOWNS
 10
635.24802981510982
 20
4684.3950661764529
 30
0.0
  0
VERTEX
  5
229B
  8
TOWNS
 10
635.20543152978405
 20
4684.3345399649643
 30
0.0
  0
VERTEX
  5
229C
  8
TOWNS
 10
634.88279231011325
 20
4684.5030865823819
 30
0.0
  0
SEQEND
  5
229D
  8
TOWNS
  0
POLYLINE
  5
221
  8
TOWNS
 66
     1
 10
0.0
 20
0.0
 30
0.0
 70
     1
  0
VERTEX
  5
229E
  8
TOWNS
 10
635.28491486541145
 20
4685.9540226587224
 30
0.0
  0
VERTEX
  5
229F
  8
TOWNS
 10
635.34422364016132
 20
4685.9308231735422
 30
0.0
  0
VERTEX
  5
22A0
  8
TOWNS
 10
635.37443485840072
 20
4685.9587243057958
 30
0.0
  0
VERTEX
  5
22A1
  8
TOWNS
 10
635.44835544886155
 20
4685.9144463090506
 30
0.0
  0
VERTEX
  5
22A2
  8
TOWNS
 10
635.54679931108706
 20
4686.0233848272546
 30
0.0
  0
VERTEX
  5
22A3
  8
TOWNS
 10
635.66722393433588
 20
4686.1051773752633
 30
0.0
  0
VERTEX
  5
22A4
  8
TOWNS
 10
635.721011575077
 20
4686.1133645200898
 30
0.0
  0
VERTEX
  5
22A5
  8
TOWNS
 10
635.86891836828954
 20
4686.240987413933
 30
0.0
  0
VERTEX
  5
22A6
  8
TOWNS
 10
635.80881240650911
 20
4686.3133976802728
 30
0.0
  0
VERTEX
  5
22A7
  8
TOWNS
 10
635.71253154286956
 20
4686.2521373192112
 30
0.0
  0
VERTEX
  5
22A8
  8
TOWNS
 10
635.66703739680065
 20
4686.3034690739878
 30
0.0
  0
VERTEX
  5
22A9
  8
TOWNS
 10
635.6219622130244
 20
4686.2787592646882
 30
0.0
  0
VERTEX
  5
22AA
  8
TOWNS
 10
635.58366891238416
 20
4686.3120987684279
 30
0.0
  0
SEQEND
  5
22AB
  8
TOWNS
  0
POLYLINE
  5
222
  8
TOWNS
 66
     1
 10
0.0
 20
0.0
 30
0.0
 70
     1
  0
VERTEX
  5
22AC
  8
TOWNS
 10
635.44162116762197
 20
4671.245330308453
 30
0.0
  0
VERTEX
  5
22AD
  8
TOWNS
 10
635.41656153202734
 20
4671.1092516962917
 30
0.0
  0
VERTEX
  5
22AE
  8
TOWNS
 10
635.63688888426645
 20
4671.143479357037
 30
0.0
  0
VERTEX
  5
22AF
  8
TOWNS
 10
635.60949125123886
 20
4671.2982599292927
 30
0.0
  0
SEQEND
  5
22B0
  8
TOWNS
  0
POLYLINE
  5
223
  8
TOWNS
 66
     1
 10
0.0
 20
0.0
 30
0.0
 70
     1
  0
VERTEX
  5
22B1
  8
TOWNS
 10
648.36311984013048
 20
4665.568236632751
 30
0.0
  0
VERTEX
  5
22B2
  8
TOWNS
 10
648.99463435678786
 20
4665.1905265208652
 30
0.0
  0
VERTEX
  5
22B3
  8
TOWNS
 10
648.81420693136715
 20
4664.9322283856036
 30
0.0
  0
VERTEX
  5
22B4
  8
TOWNS
 10
648.2818162287117
 20
4665.0716752448297
 30
0.0
  0
SEQEND
  5
22B5
  8
TOWNS
  0
POLYLINE
  5
224
  8
TOWNS
 66
     1
 10
0.0
 20
0.0
 30
0.0
 70
     1
  0
VERTEX
  5
22B6
  8
TOWNS
 10
648.18073213961975
 20
4666.4101722056739
 30
0.0
  0
VERTEX
  5
22B7
  8
TOWNS
 10
648.78845926958149
 20
4666.236975730948
 30
0.0
  0
VERTEX
  5
22B8
  8
TOWNS
 10
649.12857761435566
 20
4666.7271153514585
 30
0.0
  0
VERTEX
  5
22B9
  8
TOWNS
 10
648.36477125213798
 20
4666.9835072462893
 30
0.0
  0
SEQEND
  5
22BA
  8
TOWNS
  0
POLYLINE
  5
225
  8
TOWNS
 66
     1
 10
0.0
 20
0.0
 30
0.0
 70
     1
  0
VERTEX
  5
22BB
  8
TOWNS
 10
648.54454310861365
 20
4666.1782957229561
 30
0.0
  0
VERTEX
  5
22BC
  8
TOWNS
 10
648.76723430764309
 20
4666.184264137838
 30
0.0
  0
VERTEX
  5
22BD
  8
TOWNS
 10
648.62622035721279
 20
4665.658607843995
 30
0.0
  0
VERTEX
  5
22BE
  8
TOWNS
 10
648.36176765680375
 20
4665.7039735618446
 30
0.0
  0
SEQEND
  5
22BF
  8
TOWNS
  0
ENDSEC
  0
EOF
