  0
SECTION
  2
HEADER
  9
$ACADVER
  1
AC1009
  9
$INSBASE
 10
0.0
 20
0.0
 30
0.0
  9
$EXTMIN
 10
627.19869123199999
 20
4662.8408385800012
 30
1.0
  9
$EXTMAX
 10
653.11371411900006
 20
4695.3448052000003
 30
16.0
  9
$LIMMIN
 10
0.0
 20
0.0
  9
$LIMMAX
 10
12.0
 20
9.0
  9
$ORTHOMODE
 70
     0
  9
$REGENMODE
 70
     1
  9
$FILLMODE
 70
     1
  9
$QTEXTMODE
 70
     0
  9
$MIRRTEXT
 70
     1
  9
$DRAGMODE
 70
     2
  9
$LTSCALE
 40
1.0
  9
$OSMODE
 70
   613
  9
$ATTMODE
 70
     1
  9
$TEXTSIZE
 40
0.5
  9
$TRACEWID
 40
0.05
  9
$TEXTSTYLE
  7
STANDARD
  9
$CLAYER
  8
DISTRICTS
  9
$CELTYPE
  6
BYLAYER
  9
$CECOLOR
 62
   256
  9
$DIMSCALE
 40
1.0
  9
$DIMASZ
 40
0.18
  9
$DIMEXO
 40
0.0625
  9
$DIMDLI
 40
0.38
  9
$DIMRND
 40
0.0
  9
$DIMDLE
 40
0.0
  9
$DIMEXE
 40
0.18
  9
$DIMTP
 40
0.0
  9
$DIMTM
 40
0.0
  9
$DIMTXT
 40
0.18
  9
$DIMCEN
 40
0.09
  9
$DIMTSZ
 40
0.0
  9
$DIMTOL
 70
     0
  9
$DIMLIM
 70
     0
  9
$DIMTIH
 70
     1
  9
$DIMTOH
 70
     1
  9
$DIMSE1
 70
     0
  9
$DIMSE2
 70
     0
  9
$DIMTAD
 70
     0
  9
$DIMZIN
 70
     0
  9
$DIMBLK
  1

  9
$DIMASO
 70
     1
  9
$DIMSHO
 70
     1
  9
$DIMPOST
  1

  9
$DIMAPOST
  1

  9
$DIMALT
 70
     0
  9
$DIMALTD
 70
     2
  9
$DIMALTF
 40
25.399999999999999
  9
$DIMLFAC
 40
1.0
  9
$DIMTOFL
 70
     0
  9
$DIMTVP
 40
0.0
  9
$DIMTIX
 70
     0
  9
$DIMSOXD
 70
     0
  9
$DIMSAH
 70
     0
  9
$DIMBLK1
  1

  9
$DIMBLK2
  1

  9
$DIMSTYLE
  2
STANDARD
  9
$DIMCLRD
 70
     0
  9
$DIMCLRE
 70
     0
  9
$DIMCLRT
 70
     0
  9
$DIMTFAC
 40
1.0
  9
$DIMGAP
 40
0.09
  9
$LUNITS
 70
     2
  9
$LUPREC
 70
     4
  9
$SKETCHINC
 40
0.1
  9
$FILLETRAD
 40
0.5
  9
$AUNITS
 70
     0
  9
$AUPREC
 70
     0
  9
$MENU
  1
.
  9
$ELEVATION
 40
0.0
  9
$PELEVATION
 40
0.0
  9
$THICKNESS
 40
0.0
  9
$LIMCHECK
 70
     0
  9
$BLIPMODE
 70
     0
  9
$CHAMFERA
 40
0.5
  9
$CHAMFERB
 40
0.5
  9
$SKPOLY
 70
     0
  9
$TDCREATE
 40
2454381.8473497801
  9
$TDUPDATE
 40
2455808.6549083102
  9
$TDINDWG
 40
0.1500747685
  9
$TDUSRTIMER
 40
0.1500747685
  9
$USRTIMER
 70
     1
  9
$ANGBASE
 50
0.0
  9
$ANGDIR
 70
     1
  9
$PDMODE
 70
    66
  9
$PDSIZE
 40
0.0
  9
$PLINEWID
 40
0.0
  9
$COORDS
 70
     1
  9
$SPLFRAME
 70
     0
  9
$SPLINETYPE
 70
     6
  9
$SPLINESEGS
 70
     8
  9
$ATTDIA
 70
     0
  9
$ATTREQ
 70
     1
  9
$HANDLING
 70
     1
  9
$HANDSEED
  5
C0A
  9
$SURFTAB1
 70
     6
  9
$SURFTAB2
 70
     6
  9
$SURFTYPE
 70
     6
  9
$SURFU
 70
     6
  9
$SURFV
 70
     6
  9
$UCSNAME
  2

  9
$UCSORG
 10
0.0
 20
0.0
 30
0.0
  9
$UCSXDIR
 10
1.0
 20
0.0
 30
0.0
  9
$UCSYDIR
 10
0.0
 20
1.0
 30
0.0
  9
$PUCSNAME
  2

  9
$PUCSORG
 10
0.0
 20
0.0
 30
0.0
  9
$PUCSXDIR
 10
1.0
 20
0.0
 30
0.0
  9
$PUCSYDIR
 10
0.0
 20
1.0
 30
0.0
  9
$USERI1
 70
     0
  9
$USERI2
 70
     0
  9
$USERI3
 70
     0
  9
$USERI4
 70
     0
  9
$USERI5
 70
     0
  9
$USERR1
 40
0.0
  9
$USERR2
 40
0.0
  9
$USERR3
 40
0.0
  9
$USERR4
 40
0.0
  9
$USERR5
 40
0.0
  9
$WORLDVIEW
 70
     1
  9
$SHADEDGE
 70
     3
  9
$SHADEDIF
 70
    70
  9
$TILEMODE
 70
     1
  9
$MAXACTVP
 70
    64
  9
$PLIMCHECK
 70
     0
  9
$PEXTMIN
 10
0.0
 20
0.0
 30
0.0
  9
$PEXTMAX
 10
0.0
 20
0.0
 30
0.0
  9
$PLIMMIN
 10
0.0
 20
0.0
  9
$PLIMMAX
 10
12.0
 20
9.0
  9
$UNITMODE
 70
     0
  9
$VISRETAIN
 70
     1
  9
$PLINEGEN
 70
     0
  9
$PSLTSCALE
 70
     1
  0
ENDSEC
  0
SECTION
  2
TABLES
  0
TABLE
  2
VPORT
 70
     1
  0
VPORT
  2
*ACTIVE
 70
     0
 10
0.0
 20
0.0
 11
1.0
 21
1.0
 12
661.05683037308665
 22
4688.1837030760871
 13
0.0
 23
0.0
 14
0.5
 24
0.5
 15
0.5
 25
0.5
 16
0.0
 26
0.0
 36
1.0
 17
0.0
 27
0.0
 37
0.0
 40
61.440141656865848
 41
1.336206896551724
 42
50.0
 43
0.0
 44
0.0
 50
0.0
 51
0.0
 71
     0
 72
   100
 73
     1
 74
     2
 75
     0
 76
     0
 77
     0
 78
     0
  0
ENDTAB
  0
TABLE
  2
LTYPE
 70
     1
  0
LTYPE
  2
CONTINUOUS
 70
     0
  3
Solid line
 72
    65
 73
     0
 40
0.0
  0
ENDTAB
  0
TABLE
  2
LAYER
 70
     2
  0
LAYER
  2
0
 70
     0
 62
    -7
  6
CONTINUOUS
  0
LAYER
  2
DISTRICTS
 70
     0
 62
     3
  6
CONTINUOUS
  0
ENDTAB
  0
TABLE
  2
STYLE
 70
     3
  0
STYLE
  2
STANDARD
 70
     0
 40
0.0
 41
1.0
 50
0.0
 71
     0
 42
0.5
  3
txt
  4

  0
STYLE
  2
ANNOTATIVE
 70
     0
 40
0.0
 41
1.0
 50
0.0
 71
     0
 42
0.2
  3
txt
  4

  0
STYLE
  2
LEGEND
 70
     0
 40
0.0
 41
1.0
 50
0.0
 71
     0
 42
0.5
  3
txt
  4

  0
ENDTAB
  0
TABLE
  2
VIEW
 70
     0
  0
ENDTAB
  0
TABLE
  2
UCS
 70
     0
  0
ENDTAB
  0
TABLE
  2
APPID
 70
     7
  0
APPID
  2
ACAD
 70
     0
  0
APPID
  2
ACADANNOTATIVE
 70
     0
  0
APPID
  2
ADE
 70
     0
  0
APPID
  2
ACMAPDMDISPLAYSTYLEREGAPP
 70
     0
  0
APPID
  2
MAPGWS
 70
     0
  0
APPID
  2
DCO15
 70
     0
  0
APPID
  2
ACAD_MLEADERVER
 70
     0
  0
ENDTAB
  0
TABLE
  2
DIMSTYLE
 70
     2
  0
DIMSTYLE
  2
STANDARD
 70
     0
  3

  4

  5

  6

  7

 40
1.0
 41
0.18
 42
0.0625
 43
0.38
 44
0.18
 45
0.0
 46
0.0
 47
0.0
 48
0.0
140
0.18
141
0.09
142
0.0
143
25.399999999999999
144
1.0
145
0.0
146
1.0
147
0.09
 71
     0
 72
     0
 73
     1
 74
     1
 75
     0
 76
     0
 77
     0
 78
     0
170
     0
171
     2
172
     0
173
     0
174
     0
175
     0
176
     0
177
     0
178
     0
  0
DIMSTYLE
  2
ANNOTATIVE
 70
     0
  3

  4

  5

  6

  7

 40
1.0
 41
0.18
 42
0.0625
 43
0.38
 44
0.18
 45
0.0
 46
0.0
 47
0.0
 48
0.0
140
0.18
141
0.09
142
0.0
143
25.399999999999999
144
1.0
145
0.0
146
1.0
147
0.09
 71
     0
 72
     0
 73
     1
 74
     1
 75
     0
 76
     0
 77
     0
 78
     0
170
     0
171
     2
172
     0
173
     0
174
     0
175
     0
176
     0
177
     0
178
     0
  0
ENDTAB
  0
ENDSEC
  0
SECTION
  2
BLOCKS
  0
BLOCK
  8
0
  2
$MODEL_SPACE
 70
     0
 10
0.0
 20
0.0
 30
0.0
  3
$MODEL_SPACE
  1

  0
ENDBLK
  5
62A
  8
0
  0
BLOCK
 67
     1
  8
0
  2
$PAPER_SPACE
 70
     0
 10
0.0
 20
0.0
 30
0.0
  3
$PAPER_SPACE
  1

  0
ENDBLK
  5
626
 67
     1
  8
0
  0
ENDSEC
  0
SECTION
  2
ENTITIES
  0
POLYLINE
  5
28
  8
DISTRICTS
 66
     1
 10
0.0
 20
0.0
 30
4.0
 70
     1
  0
VERTEX
  5
662
  8
DISTRICTS
 10
631.02695032513122
 20
4676.616813809731
 30
4.0
  0
VERTEX
  5
663
  8
DISTRICTS
 10
633.84597326713026
 20
4677.2829770944018
 30
4.0
  0
VERTEX
  5
664
  8
DISTRICTS
 10
635.28111204015374
 20
4678.4615734882818
 30
4.0
  0
VERTEX
  5
665
  8
DISTRICTS
 10
636.56248605298708
 20
4680.1526031430612
 30
4.0
  0
VERTEX
  5
666
  8
DISTRICTS
 10
638.22875816999988
 20
4681.5912288400013
 30
4.0
  0
VERTEX
  5
667
  8
DISTRICTS
 10
638.128540305
 20
4681.6046373600002
 30
4.0
  0
VERTEX
  5
668
  8
DISTRICTS
 10
638.02832244000001
 20
4681.62404788
 30
4.0
  0
VERTEX
  5
669
  8
DISTRICTS
 10
637.92381038099995
 20
4681.6515513099994
 30
4.0
  0
VERTEX
  5
66A
  8
DISTRICTS
 10
637.82788671000003
 20
4681.68359642
 30
4.0
  0
VERTEX
  5
66B
  8
DISTRICTS
 10
637.72766884500004
 20
4681.7251501700011
 30
4.0
  0
VERTEX
  5
66C
  8
DISTRICTS
 10
637.67467595800008
 20
4681.7517899799977
 30
4.0
  0
VERTEX
  5
66D
  8
DISTRICTS
 10
637.62745098000005
 20
4681.7754653700013
 30
4.0
  0
VERTEX
  5
66E
  8
DISTRICTS
 10
637.52723311499994
 20
4681.8349876299999
 30
4.0
  0
VERTEX
  5
66F
  8
DISTRICTS
 10
637.50275039600001
 20
4681.8520286399998
 30
4.0
  0
VERTEX
  5
670
  8
DISTRICTS
 10
637.42701525099994
 20
4681.9036125299999
 30
4.0
  0
VERTEX
  5
671
  8
DISTRICTS
 10
637.36471632999985
 20
4681.9522673000001
 30
4.0
  0
VERTEX
  5
672
  8
DISTRICTS
 10
637.32679738599995
 20
4681.9808889200003
 30
4.0
  0
VERTEX
  5
673
  8
DISTRICTS
 10
637.24226484600001
 20
4682.0525059700003
 30
4.0
  0
VERTEX
  5
674
  8
DISTRICTS
 10
637.22657952099985
 20
4682.0652159399979
 30
4.0
  0
VERTEX
  5
675
  8
DISTRICTS
 10
637.12636165599997
 20
4682.1543430199999
 30
4.0
  0
VERTEX
  5
676
  8
DISTRICTS
 10
637.01900737300002
 20
4682.25298329
 30
4.0
  0
VERTEX
  5
677
  8
DISTRICTS
 10
636.92592592599976
 20
4682.3390419500001
 30
4.0
  0
VERTEX
  5
678
  8
DISTRICTS
 10
636.91127670699996
 20
4682.3532219600002
 30
4.0
  0
VERTEX
  5
679
  8
DISTRICTS
 10
636.825708061
 20
4682.4337949700002
 30
4.0
  0
VERTEX
  5
67A
  8
DISTRICTS
 10
636.80585850800003
 20
4682.4534606200004
 30
4.0
  0
VERTEX
  5
67B
  8
DISTRICTS
 10
636.7254901959999
 20
4682.5347147900002
 30
4.0
  0
VERTEX
  5
67C
  8
DISTRICTS
 10
636.70866326700002
 20
4682.553699279998
 30
4.0
  0
VERTEX
  5
67D
  8
DISTRICTS
 10
636.62527233100002
 20
4682.6600489700004
 30
4.0
  0
VERTEX
  5
67E
  8
DISTRICTS
 10
636.57974220899985
 20
4682.7541766100003
 30
4.0
  0
VERTEX
  5
67F
  8
DISTRICTS
 10
636.52377204100003
 20
4682.8544152699988
 30
4.0
  0
VERTEX
  5
680
  8
DISTRICTS
 10
636.46225231300002
 20
4682.9546539399998
 30
4.0
  0
VERTEX
  5
681
  8
DISTRICTS
 10
636.42483660100004
 20
4682.9868828299977
 30
4.0
  0
VERTEX
  5
682
  8
DISTRICTS
 10
636.32461873599993
 20
4683.0382715899987
 30
4.0
  0
VERTEX
  5
683
  8
DISTRICTS
 10
636.22440087099994
 20
4683.00107398
 30
4.0
  0
VERTEX
  5
684
  8
DISTRICTS
 10
636.12418300699994
 20
4682.976675259999
 30
4.0
  0
VERTEX
  5
685
  8
DISTRICTS
 10
636.02396514199995
 20
4682.9711684599988
 30
4.0
  0
VERTEX
  5
686
  8
DISTRICTS
 10
635.92374727699985
 20
4682.9834988900002
 30
4.0
  0
VERTEX
  5
687
  8
DISTRICTS
 10
635.82352941199986
 20
4683.0078003299977
 30
4.0
  0
VERTEX
  5
688
  8
DISTRICTS
 10
635.72331154699975
 20
4683.0394669799998
 30
4.0
  0
VERTEX
  5
689
  8
DISTRICTS
 10
635.68102171099974
 20
4683.054892600001
 30
4.0
  0
VERTEX
  5
68A
  8
DISTRICTS
 10
635.62309368199999
 20
4683.0769257100001
 30
4.0
  0
VERTEX
  5
68B
  8
DISTRICTS
 10
635.52287581699989
 20
4683.1185869999999
 30
4.0
  0
VERTEX
  5
68C
  8
DISTRICTS
 10
635.43998690999979
 20
4683.1551312600004
 30
4.0
  0
VERTEX
  5
68D
  8
DISTRICTS
 10
635.42265795200001
 20
4683.1630166499999
 30
4.0
  0
VERTEX
  5
68E
  8
DISTRICTS
 10
635.32244008700002
 20
4683.2109774600003
 30
4.0
  0
VERTEX
  5
68F
  8
DISTRICTS
 10
635.23157122199996
 20
4683.2553699299997
 30
4.0
  0
VERTEX
  5
690
  8
DISTRICTS
 10
635.22222222199991
 20
4683.2600582100013
 30
4.0
  0
VERTEX
  5
691
  8
DISTRICTS
 10
635.12200435699992
 20
4683.3118509699998
 30
4.0
  0
VERTEX
  5
692
  8
DISTRICTS
 10
635.03712924800004
 20
4683.35560859
 30
4.0
  0
VERTEX
  5
693
  8
DISTRICTS
 10
635.02178649199993
 20
4683.3637577299978
 30
4.0
  0
VERTEX
  5
694
  8
DISTRICTS
 10
634.92156862699994
 20
4683.4176783599996
 30
4.0
  0
VERTEX
  5
695
  8
DISTRICTS
 10
634.84967256000004
 20
4683.4558472600002
 30
4.0
  0
VERTEX
  5
696
  8
DISTRICTS
 10
634.82135076300005
 20
4683.4716052800004
 30
4.0
  0
VERTEX
  5
697
  8
DISTRICTS
 10
634.72113289800006
 20
4683.5274903299987
 30
4.0
  0
VERTEX
  5
698
  8
DISTRICTS
 10
634.66929714000003
 20
4683.5560859200023
 30
4.0
  0
VERTEX
  5
699
  8
DISTRICTS
 10
634.62091503299996
 20
4683.5852756900003
 30
4.0
  0
VERTEX
  5
69A
  8
DISTRICTS
 10
634.52069716799997
 20
4683.6464191699979
 30
4.0
  0
VERTEX
  5
69B
  8
DISTRICTS
 10
634.50444536799989
 20
4683.6563245799998
 30
4.0
  0
VERTEX
  5
69C
  8
DISTRICTS
 10
634.42047930299998
 20
4683.7193388999976
 30
4.0
  0
VERTEX
  5
69D
  8
DISTRICTS
 10
634.3729651000001
 20
4683.75656325
 30
4.0
  0
VERTEX
  5
69E
  8
DISTRICTS
 10
634.32026143799987
 20
4683.8259348600004
 30
4.0
  0
VERTEX
  5
69F
  8
DISTRICTS
 10
634.29848974499998
 20
4683.8568019100003
 30
4.0
  0
VERTEX
  5
6A0
  8
DISTRICTS
 10
634.29482514300003
 20
4683.9570405699988
 30
4.0
  0
VERTEX
  5
6A1
  8
DISTRICTS
 10
634.32026143799987
 20
4684.0062466099998
 30
4.0
  0
VERTEX
  5
6A2
  8
DISTRICTS
 10
634.33535789300004
 20
4684.0572792399998
 30
4.0
  0
VERTEX
  5
6A3
  8
DISTRICTS
 10
634.37057030999995
 20
4684.1575179000001
 30
4.0
  0
VERTEX
  5
6A4
  8
DISTRICTS
 10
634.37287319500001
 20
4684.2577565600004
 30
4.0
  0
VERTEX
  5
6A5
  8
DISTRICTS
 10
634.32026143799987
 20
4684.3376903400003
 30
4.0
  0
VERTEX
  5
6A6
  8
DISTRICTS
 10
634.30599464800002
 20
4684.3579952299997
 30
4.0
  0
VERTEX
  5
6A7
  8
DISTRICTS
 10
634.22004357299977
 20
4684.4248301500002
 30
4.0
  0
VERTEX
  5
6A8
  8
DISTRICTS
 10
634.11982570800001
 20
4684.44452267
 30
4.0
  0
VERTEX
  5
6A9
  8
DISTRICTS
 10
634.0196078429999
 20
4684.4327547000003
 30
4.0
  0
VERTEX
  5
6AA
  8
DISTRICTS
 10
633.91938997800003
 20
4684.3830582500004
 30
4.0
  0
VERTEX
  5
6AB
  8
DISTRICTS
 10
633.88353142999995
 20
4684.3579952299997
 30
4.0
  0
VERTEX
  5
6AC
  8
DISTRICTS
 10
633.81917211300004
 20
4684.274087419999
 30
4.0
  0
VERTEX
  5
6AD
  8
DISTRICTS
 10
633.78911500599986
 20
4684.2577565600004
 30
4.0
  0
VERTEX
  5
6AE
  8
DISTRICTS
 10
633.71895424800005
 20
4684.2294220200001
 30
4.0
  0
VERTEX
  5
6AF
  8
DISTRICTS
 10
633.61873638300005
 20
4684.2240646600003
 30
4.0
  0
VERTEX
  5
6B0
  8
DISTRICTS
 10
633.51851851900005
 20
4684.1918957400003
 30
4.0
  0
VERTEX
  5
6B1
  8
DISTRICTS
 10
633.47652237699981
 20
4684.1575179000001
 30
4.0
  0
VERTEX
  5
6B2
  8
DISTRICTS
 10
633.41830065399995
 20
4684.1050953800004
 30
4.0
  0
VERTEX
  5
6B3
  8
DISTRICTS
 10
633.37765274900005
 20
4684.0572792399998
 30
4.0
  0
VERTEX
  5
6B4
  8
DISTRICTS
 10
633.35215644200002
 20
4683.9570405699988
 30
4.0
  0
VERTEX
  5
6B5
  8
DISTRICTS
 10
633.31808278899985
 20
4683.8989226699987
 30
4.0
  0
VERTEX
  5
6B6
  8
DISTRICTS
 10
633.27043311399996
 20
4683.8568019100003
 30
4.0
  0
VERTEX
  5
6B7
  8
DISTRICTS
 10
633.21786492399985
 20
4683.8240843000003
 30
4.0
  0
VERTEX
  5
6B8
  8
DISTRICTS
 10
633.11764705899986
 20
4683.7746765900001
 30
4.0
  0
VERTEX
  5
6B9
  8
DISTRICTS
 10
633.07765540100002
 20
4683.75656325
 30
4.0
  0
VERTEX
  5
6BA
  8
DISTRICTS
 10
633.01742919399976
 20
4683.7332961100001
 30
4.0
  0
VERTEX
  5
6BB
  8
DISTRICTS
 10
632.917211329
 20
4683.6941420200001
 30
4.0
  0
VERTEX
  5
6BC
  8
DISTRICTS
 10
632.81699346399989
 20
4683.6538566700001
 30
4.0
  0
VERTEX
  5
6BD
  8
DISTRICTS
 10
632.71677559900002
 20
4683.6152797300001
 30
4.0
  0
VERTEX
  5
6BE
  8
DISTRICTS
 10
632.61655773400003
 20
4683.5742381199998
 30
4.0
  0
VERTEX
  5
6BF
  8
DISTRICTS
 10
632.57443693899995
 20
4683.5560859200023
 30
4.0
  0
VERTEX
  5
6C0
  8
DISTRICTS
 10
632.51633986900003
 20
4683.5327119399981
 30
4.0
  0
VERTEX
  5
6C1
  8
DISTRICTS
 10
632.41612200400004
 20
4683.4900193399999
 30
4.0
  0
VERTEX
  5
6C2
  8
DISTRICTS
 10
632.34025838900004
 20
4683.4558472600002
 30
4.0
  0
VERTEX
  5
6C3
  8
DISTRICTS
 10
632.31590413900005
 20
4683.4454317399995
 30
4.0
  0
VERTEX
  5
6C4
  8
DISTRICTS
 10
632.21568627500005
 20
4683.4005689599981
 30
4.0
  0
VERTEX
  5
6C5
  8
DISTRICTS
 10
632.11546840999995
 20
4683.3531151400002
 30
4.0
  0
VERTEX
  5
6C6
  8
DISTRICTS
 10
632.01525054499984
 20
4683.30579132
 30
4.0
  0
VERTEX
  5
6C7
  8
DISTRICTS
 10
631.91438177999976
 20
4683.2553699299997
 30
4.0
  0
VERTEX
  5
6C8
  8
DISTRICTS
 10
631.81481481499975
 20
4683.2057868100001
 30
4.0
  0
VERTEX
  5
6C9
  8
DISTRICTS
 10
631.71459694999999
 20
4683.1532887900003
 30
4.0
  0
VERTEX
  5
6CA
  8
DISTRICTS
 10
631.61437908499988
 20
4683.1008535199999
 30
4.0
  0
VERTEX
  5
6CB
  8
DISTRICTS
 10
631.53026968599988
 20
4683.054892600001
 30
4.0
  0
VERTEX
  5
6CC
  8
DISTRICTS
 10
631.51416122000001
 20
4683.046265429999
 30
4.0
  0
VERTEX
  5
6CD
  8
DISTRICTS
 10
631.41394335500001
 20
4682.9914304699987
 30
4.0
  0
VERTEX
  5
6CE
  8
DISTRICTS
 10
631.34893168300005
 20
4682.9546539399998
 30
4.0
  0
VERTEX
  5
6CF
  8
DISTRICTS
 10
631.3137254899998
 20
4682.9350713999984
 30
4.0
  0
VERTEX
  5
6D0
  8
DISTRICTS
 10
631.21350762500003
 20
4682.8780356200004
 30
4.0
  0
VERTEX
  5
6D1
  8
DISTRICTS
 10
631.17289932699998
 20
4682.8544152699988
 30
4.0
  0
VERTEX
  5
6D2
  8
DISTRICTS
 10
631.11328976000004
 20
4682.8202379100003
 30
4.0
  0
VERTEX
  5
6D3
  8
DISTRICTS
 10
631.01307189500005
 20
4682.76126931
 30
4.0
  0
VERTEX
  5
6D4
  8
DISTRICTS
 10
631.00112483299995
 20
4682.7541766100003
 30
4.0
  0
VERTEX
  5
6D5
  8
DISTRICTS
 10
630.91285403099994
 20
4682.7024208900002
 30
4.0
  0
VERTEX
  5
6D6
  8
DISTRICTS
 10
630.83206563300007
 20
4682.6539379499991
 30
4.0
  0
VERTEX
  5
6D7
  8
DISTRICTS
 10
630.81263616599995
 20
4682.64240617
 30
4.0
  0
VERTEX
  5
6D8
  8
DISTRICTS
 10
630.71241830099984
 20
4682.5825836399999
 30
4.0
  0
VERTEX
  5
6D9
  8
DISTRICTS
 10
630.66451981599994
 20
4682.553699279998
 30
4.0
  0
VERTEX
  5
6DA
  8
DISTRICTS
 10
630.61220043599985
 20
4682.5224815600004
 30
4.0
  0
VERTEX
  5
6DB
  8
DISTRICTS
 10
630.51198257099998
 20
4682.46228015
 30
4.0
  0
VERTEX
  5
6DC
  8
DISTRICTS
 10
630.49719404699977
 20
4682.4534606200004
 30
4.0
  0
VERTEX
  5
6DD
  8
DISTRICTS
 10
630.41176470599987
 20
4682.4031299400003
 30
4.0
  0
VERTEX
  5
6DE
  8
DISTRICTS
 10
630.32701097500001
 20
4682.3532219600002
 30
4.0
  0
VERTEX
  5
6DF
  8
DISTRICTS
 10
630.31154684099977
 20
4682.3442401900002
 30
4.0
  0
VERTEX
  5
6E0
  8
DISTRICTS
 10
630.211328976
 20
4682.2872015100002
 30
4.0
  0
VERTEX
  5
6E1
  8
DISTRICTS
 10
630.15020283900003
 20
4682.25298329
 30
4.0
  0
VERTEX
  5
6E2
  8
DISTRICTS
 10
630.1111111109999
 20
4682.2315568200002
 30
4.0
  0
VERTEX
  5
6E3
  8
DISTRICTS
 10
630.01089324600002
 20
4682.1782449000002
 30
4.0
  0
VERTEX
  5
6E4
  8
DISTRICTS
 10
629.96137615299995
 20
4682.1527446299979
 30
4.0
  0
VERTEX
  5
6E5
  8
DISTRICTS
 10
629.91067538100003
 20
4682.1274896000004
 30
4.0
  0
VERTEX
  5
6E6
  8
DISTRICTS
 10
629.81045751599993
 20
4682.0796343999991
 30
4.0
  0
VERTEX
  5
6E7
  8
DISTRICTS
 10
629.75117743700002
 20
4682.0525059700003
 30
4.0
  0
VERTEX
  5
6E8
  8
DISTRICTS
 10
629.71023965099994
 20
4682.0346918200003
 30
4.0
  0
VERTEX
  5
6E9
  8
DISTRICTS
 10
629.61002178599995
 20
4681.9931200499977
 30
4.0
  0
VERTEX
  5
6EA
  8
DISTRICTS
 10
629.50689255699979
 20
4681.9522673000001
 30
4.0
  0
VERTEX
  5
6EB
  8
DISTRICTS
 10
629.40958605699996
 20
4681.9174532699981
 30
4.0
  0
VERTEX
  5
6EC
  8
DISTRICTS
 10
629.30936819199985
 20
4681.8825546500002
 30
4.0
  0
VERTEX
  5
6ED
  8
DISTRICTS
 10
629.22141780799996
 20
4681.8520286399998
 30
4.0
  0
VERTEX
  5
6EE
  8
DISTRICTS
 10
629.20915032699986
 20
4681.8481586000016
 30
4.0
  0
VERTEX
  5
6EF
  8
DISTRICTS
 10
629.10893246199976
 20
4681.8157838400002
 30
4.0
  0
VERTEX
  5
6F0
  8
DISTRICTS
 10
629.00871459699999
 20
4681.7821379099987
 30
4.0
  0
VERTEX
  5
6F1
  8
DISTRICTS
 10
628.9238169329999
 20
4681.7517899799977
 30
4.0
  0
VERTEX
  5
6F2
  8
DISTRICTS
 10
628.90849673199989
 20
4681.7468615500002
 30
4.0
  0
VERTEX
  5
6F3
  8
DISTRICTS
 10
628.80827886700001
 20
4681.71201354
 30
4.0
  0
VERTEX
  5
6F4
  8
DISTRICTS
 10
628.70806100200002
 20
4681.673642769998
 30
4.0
  0
VERTEX
  5
6F5
  8
DISTRICTS
 10
628.65620586
 20
4681.6515513099994
 30
4.0
  0
VERTEX
  5
6F6
  8
DISTRICTS
 10
628.60784313699992
 20
4681.6331528399987
 30
4.0
  0
VERTEX
  5
6F7
  8
DISTRICTS
 10
628.50762527199993
 20
4681.5891493600002
 30
4.0
  0
VERTEX
  5
6F8
  8
DISTRICTS
 10
628.43425475799995
 20
4681.5513126499991
 30
4.0
  0
VERTEX
  5
6F9
  8
DISTRICTS
 10
628.40740740699994
 20
4681.5380059099998
 30
4.0
  0
VERTEX
  5
6FA
  8
DISTRICTS
 10
628.30718954199995
 20
4681.4836488399988
 30
4.0
  0
VERTEX
  5
6FB
  8
DISTRICTS
 10
628.24104894000004
 20
4681.4510739899988
 30
4.0
  0
VERTEX
  5
6FC
  8
DISTRICTS
 10
628.20697167799995
 20
4681.4335878700003
 30
4.0
  0
VERTEX
  5
6FD
  8
DISTRICTS
 10
628.10675381300007
 20
4681.4094638500001
 30
4.0
  0
VERTEX
  5
6FE
  8
DISTRICTS
 10
628.00653594799996
 20
4681.43738992
 30
4.0
  0
VERTEX
  5
6FF
  8
DISTRICTS
 10
627.90631808299975
 20
4681.4460797900001
 30
4.0
  0
VERTEX
  5
700
  8
DISTRICTS
 10
627.80610021799998
 20
4681.418140329999
 30
4.0
  0
VERTEX
  5
701
  8
DISTRICTS
 10
627.748792772
 20
4681.3508353200004
 30
4.0
  0
VERTEX
  5
702
  8
DISTRICTS
 10
627.77133266199985
 20
4681.2505966599992
 30
4.0
  0
VERTEX
  5
703
  8
DISTRICTS
 10
627.80610021799998
 20
4681.1675927899987
 30
4.0
  0
VERTEX
  5
704
  8
DISTRICTS
 10
627.82233212199992
 20
4681.1503579999999
 30
4.0
  0
VERTEX
  5
705
  8
DISTRICTS
 10
627.82659396400004
 20
4681.0501193299997
 30
4.0
  0
VERTEX
  5
706
  8
DISTRICTS
 10
627.80610021799998
 20
4680.9871412000002
 30
4.0
  0
VERTEX
  5
707
  8
DISTRICTS
 10
627.79399424500002
 20
4680.9498806700003
 30
4.0
  0
VERTEX
  5
708
  8
DISTRICTS
 10
627.74777524000001
 20
4680.8496420000001
 30
4.0
  0
VERTEX
  5
709
  8
DISTRICTS
 10
627.70588235299988
 20
4680.7668626799978
 30
4.0
  0
VERTEX
  5
70A
  8
DISTRICTS
 10
627.69646210600001
 20
4680.7494033399998
 30
4.0
  0
VERTEX
  5
70B
  8
DISTRICTS
 10
627.63779912300004
 20
4680.6491646799996
 30
4.0
  0
VERTEX
  5
70C
  8
DISTRICTS
 10
627.605664488
 20
4680.5999131400004
 30
4.0
  0
VERTEX
  5
70D
  8
DISTRICTS
 10
627.56776201800005
 20
4680.5489260100003
 30
4.0
  0
VERTEX
  5
70E
  8
DISTRICTS
 10
627.50544662300001
 20
4680.4874017399979
 30
4.0
  0
VERTEX
  5
70F
  8
DISTRICTS
 10
627.45767924099994
 20
4680.44868735
 30
4.0
  0
VERTEX
  5
710
  8
DISTRICTS
 10
627.40522875799991
 20
4680.4287069099992
 30
4.0
  0
VERTEX
  5
711
  8
DISTRICTS
 10
627.30501089300003
 20
4680.3740082100012
 30
4.0
  0
VERTEX
  5
712
  8
DISTRICTS
 10
627.28143642099985
 20
4680.3484486899997
 30
4.0
  0
VERTEX
  5
713
  8
DISTRICTS
 10
627.21111565399985
 20
4680.2482100200004
 30
4.0
  0
VERTEX
  5
714
  8
DISTRICTS
 10
627.20479302800004
 20
4680.1796494600003
 30
4.0
  0
VERTEX
  5
715
  8
DISTRICTS
 10
627.19869123199999
 20
4680.1479713600002
 30
4.0
  0
VERTEX
  5
716
  8
DISTRICTS
 10
627.20479302800004
 20
4680.1283740600002
 30
4.0
  0
VERTEX
  5
717
  8
DISTRICTS
 10
627.22786804600003
 20
4680.0477326999999
 30
4.0
  0
VERTEX
  5
718
  8
DISTRICTS
 10
627.30501089300003
 20
4679.9552263799978
 30
4.0
  0
VERTEX
  5
719
  8
DISTRICTS
 10
627.32210102600004
 20
4679.9474940299979
 30
4.0
  0
VERTEX
  5
71A
  8
DISTRICTS
 10
627.40522875799991
 20
4679.8658741700001
 30
4.0
  0
VERTEX
  5
71B
  8
DISTRICTS
 10
627.42815711000003
 20
4679.8472553700003
 30
4.0
  0
VERTEX
  5
71C
  8
DISTRICTS
 10
627.49394745099994
 20
4679.74701671
 30
4.0
  0
VERTEX
  5
71D
  8
DISTRICTS
 10
627.50544662300001
 20
4679.7226034799996
 30
4.0
  0
VERTEX
  5
71E
  8
DISTRICTS
 10
627.53926761499997
 20
4679.6467780399998
 30
4.0
  0
VERTEX
  5
71F
  8
DISTRICTS
 10
627.57828495299975
 20
4679.5465393799977
 30
4.0
  0
VERTEX
  5
720
  8
DISTRICTS
 10
627.605664488
 20
4679.4739516500003
 30
4.0
  0
VERTEX
  5
721
  8
DISTRICTS
 10
627.61566609299996
 20
4679.4463007200002
 30
4.0
  0
VERTEX
  5
722
  8
DISTRICTS
 10
627.65252100400005
 20
4679.34606205
 30
4.0
  0
VERTEX
  5
723
  8
DISTRICTS
 10
627.69208301699985
 20
4679.2458233899997
 30
4.0
  0
VERTEX
  5
724
  8
DISTRICTS
 10
627.70588235299988
 20
4679.2122172700001
 30
4.0
  0
VERTEX
  5
725
  8
DISTRICTS
 10
627.73307391499986
 20
4679.1455847300003
 30
4.0
  0
VERTEX
  5
726
  8
DISTRICTS
 10
627.77679398700002
 20
4679.0453460600002
 30
4.0
  0
VERTEX
  5
727
  8
DISTRICTS
 10
627.80610021799998
 20
4678.9815200499997
 30
4.0
  0
VERTEX
  5
728
  8
DISTRICTS
 10
627.82307457299999
 20
4678.945107399999
 30
4.0
  0
VERTEX
  5
729
  8
DISTRICTS
 10
627.8710490389999
 20
4678.8448687399978
 30
4.0
  0
VERTEX
  5
72A
  8
DISTRICTS
 10
627.90631808299975
 20
4678.7734304599999
 30
4.0
  0
VERTEX
  5
72B
  8
DISTRICTS
 10
627.920925635
 20
4678.7446300700003
 30
4.0
  0
VERTEX
  5
72C
  8
DISTRICTS
 10
627.97121245099993
 20
4678.6443914099982
 30
4.0
  0
VERTEX
  5
72D
  8
DISTRICTS
 10
628.00653594799996
 20
4678.5738849500003
 30
4.0
  0
VERTEX
  5
72E
  8
DISTRICTS
 10
628.02181640199979
 20
4678.544152739998
 30
4.0
  0
VERTEX
  5
72F
  8
DISTRICTS
 10
628.07138836199977
 20
4678.4439140799977
 30
4.0
  0
VERTEX
  5
730
  8
DISTRICTS
 10
628.10675381300007
 20
4678.3704649299998
 30
4.0
  0
VERTEX
  5
731
  8
DISTRICTS
 10
628.11985738400006
 20
4678.3436754200002
 30
4.0
  0
VERTEX
  5
732
  8
DISTRICTS
 10
628.166176716
 20
4678.24343675
 30
4.0
  0
VERTEX
  5
733
  8
DISTRICTS
 10
628.21081327299999
 20
4678.1431980899988
 30
4.0
  0
VERTEX
  5
734
  8
DISTRICTS
 10
628.25264240000001
 20
4678.0429594300003
 30
4.0
  0
VERTEX
  5
735
  8
DISTRICTS
 10
628.29268202699996
 20
4677.9427207599992
 30
4.0
  0
VERTEX
  5
736
  8
DISTRICTS
 10
628.30718954199995
 20
4677.9040927799988
 30
4.0
  0
VERTEX
  5
737
  8
DISTRICTS
 10
628.33022081599995
 20
4677.842482099999
 30
4.0
  0
VERTEX
  5
738
  8
DISTRICTS
 10
628.36554525500003
 20
4677.7422434399996
 30
4.0
  0
VERTEX
  5
739
  8
DISTRICTS
 10
628.39900070500005
 20
4677.6420047700003
 30
4.0
  0
VERTEX
  5
73A
  8
DISTRICTS
 10
628.40740740699994
 20
4677.614773440001
 30
4.0
  0
VERTEX
  5
73B
  8
DISTRICTS
 10
628.42980016599995
 20
4677.54176611
 30
4.0
  0
VERTEX
  5
73C
  8
DISTRICTS
 10
628.45826304499997
 20
4677.4415274499997
 30
4.0
  0
VERTEX
  5
73D
  8
DISTRICTS
 10
628.48438677399997
 20
4677.3412887799996
 30
4.0
  0
VERTEX
  5
73E
  8
DISTRICTS
 10
628.50791127399998
 20
4677.2410501200002
 30
4.0
  0
VERTEX
  5
73F
  8
DISTRICTS
 10
628.52814508500001
 20
4677.1408114599999
 30
4.0
  0
VERTEX
  5
740
  8
DISTRICTS
 10
628.54545334099998
 20
4677.0405727899997
 30
4.0
  0
VERTEX
  5
741
  8
DISTRICTS
 10
628.55969116699987
 20
4676.9403341300012
 30
4.0
  0
VERTEX
  5
742
  8
DISTRICTS
 10
628.57078811400004
 20
4676.8400954700001
 30
4.0
  0
VERTEX
  5
743
  8
DISTRICTS
 10
628.57874976400001
 20
4676.7398568000008
 30
4.0
  0
VERTEX
  5
744
  8
DISTRICTS
 10
629.28428165250887
 20
4676.6680571509887
 30
4.0
  0
SEQEND
  5
745
  8
DISTRICTS
  0
POLYLINE
  5
29
  8
DISTRICTS
 66
     1
 10
0.0
 20
0.0
 30
1.0
 70
     1
  0
VERTEX
  5
746
  8
DISTRICTS
 10
635.63273257200001
 20
4690.6730310299999
 30
1.0
  0
VERTEX
  5
747
  8
DISTRICTS
 10
635.52287581699989
 20
4690.6819648800001
 30
1.0
  0
VERTEX
  5
748
  8
DISTRICTS
 10
635.42265795200001
 20
4690.6845687300001
 30
1.0
  0
VERTEX
  5
749
  8
DISTRICTS
 10
635.32244008700002
 20
4690.6854586099989
 30
1.0
  0
VERTEX
  5
74A
  8
DISTRICTS
 10
635.22222222199991
 20
4690.6880334799989
 30
1.0
  0
VERTEX
  5
74B
  8
DISTRICTS
 10
635.12200435699992
 20
4690.6946764900003
 30
1.0
  0
VERTEX
  5
74C
  8
DISTRICTS
 10
635.02178649199993
 20
4690.7071015700012
 30
1.0
  0
VERTEX
  5
74D
  8
DISTRICTS
 10
634.92156862699994
 20
4690.7266744199978
 30
1.0
  0
VERTEX
  5
74E
  8
DISTRICTS
 10
634.82135076300005
 20
4690.7543423200004
 30
1.0
  0
VERTEX
  5
74F
  8
DISTRICTS
 10
634.76674528800004
 20
4690.7732696900011
 30
1.0
  0
VERTEX
  5
750
  8
DISTRICTS
 10
634.72113289800006
 20
4690.7874972
 30
1.0
  0
VERTEX
  5
751
  8
DISTRICTS
 10
634.62091503299996
 20
4690.8249693999996
 30
1.0
  0
VERTEX
  5
752
  8
DISTRICTS
 10
634.52069716799997
 20
4690.8683850099987
 30
1.0
  0
VERTEX
  5
753
  8
DISTRICTS
 10
634.50887761900003
 20
4690.8735083499996
 30
1.0
  0
VERTEX
  5
754
  8
DISTRICTS
 10
634.42047930299998
 20
4690.9104779999998
 30
1.0
  0
VERTEX
  5
755
  8
DISTRICTS
 10
634.32026143799987
 20
4690.9522216699988
 30
1.0
  0
VERTEX
  5
756
  8
DISTRICTS
 10
634.26362516500001
 20
4690.9737470199998
 30
1.0
  0
VERTEX
  5
757
  8
DISTRICTS
 10
634.22004357299977
 20
4690.9894847699989
 30
1.0
  0
VERTEX
  5
758
  8
DISTRICTS
 10
634.11982570800001
 20
4691.0199442200001
 30
1.0
  0
VERTEX
  5
759
  8
DISTRICTS
 10
634.0196078429999
 20
4691.0441182900004
 30
1.0
  0
VERTEX
  5
75A
  8
DISTRICTS
 10
633.91938997800003
 20
4691.0617073699987
 30
1.0
  0
VERTEX
  5
75B
  8
DISTRICTS
 10
633.81917211300004
 20
4691.0733684799998
 30
1.0
  0
VERTEX
  5
75C
  8
DISTRICTS
 10
633.71895424800005
 20
4691.0797934499997
 30
1.0
  0
VERTEX
  5
75D
  8
DISTRICTS
 10
633.61873638300005
 20
4691.0839108299979
 30
1.0
  0
VERTEX
  5
75E
  8
DISTRICTS
 10
633.51851851900005
 20
4691.0879840099988
 30
1.0
  0
VERTEX
  5
75F
  8
DISTRICTS
 10
633.41830065399995
 20
4691.0941868199998
 30
1.0
  0
VERTEX
  5
760
  8
DISTRICTS
 10
633.31808278899985
 20
4691.1046281600002
 30
1.0
  0
VERTEX
  5
761
  8
DISTRICTS
 10
633.21786492399985
 20
4691.1215283999991
 30
1.0
  0
VERTEX
  5
762
  8
DISTRICTS
 10
633.11764705899986
 20
4691.147436109999
 30
1.0
  0
VERTEX
  5
763
  8
DISTRICTS
 10
633.04595602099994
 20
4691.1742243400004
 30
1.0
  0
VERTEX
  5
764
  8
DISTRICTS
 10
633.01742919399976
 20
4691.18317974
 30
1.0
  0
VERTEX
  5
765
  8
DISTRICTS
 10
632.917211329
 20
4691.2277945100013
 30
1.0
  0
VERTEX
  5
766
  8
DISTRICTS
 10
632.84108958900003
 20
4691.2744630099996
 30
1.0
  0
VERTEX
  5
767
  8
DISTRICTS
 10
632.81699346399989
 20
4691.2886176900001
 30
1.0
  0
VERTEX
  5
768
  8
DISTRICTS
 10
632.71677559900002
 20
4691.365216979998
 30
1.0
  0
VERTEX
  5
769
  8
DISTRICTS
 10
632.70731695799998
 20
4691.3747016699999
 30
1.0
  0
VERTEX
  5
76A
  8
DISTRICTS
 10
632.61655773400003
 20
4691.4495752299999
 30
1.0
  0
VERTEX
  5
76B
  8
DISTRICTS
 10
632.59503620500004
 20
4691.4749403300002
 30
1.0
  0
VERTEX
  5
76C
  8
DISTRICTS
 10
632.54004729400003
 20
4691.5751789999986
 30
1.0
  0
VERTEX
  5
76D
  8
DISTRICTS
 10
632.51633986900003
 20
4691.6406468699979
 30
1.0
  0
VERTEX
  5
76E
  8
DISTRICTS
 10
632.50232076600003
 20
4691.6754176599989
 30
1.0
  0
VERTEX
  5
76F
  8
DISTRICTS
 10
632.45399789999976
 20
4691.7756563199991
 30
1.0
  0
VERTEX
  5
770
  8
DISTRICTS
 10
632.41612200400004
 20
4691.8534369299978
 30
1.0
  0
VERTEX
  5
771
  8
DISTRICTS
 10
632.40620220300002
 20
4691.8758949900002
 30
1.0
  0
VERTEX
  5
772
  8
DISTRICTS
 10
632.37883051999995
 20
4691.9761336499978
 30
1.0
  0
VERTEX
  5
773
  8
DISTRICTS
 10
632.407344287
 20
4692.076372319998
 30
1.0
  0
VERTEX
  5
774
  8
DISTRICTS
 10
632.41612200400004
 20
4692.1125911099989
 30
1.0
  0
VERTEX
  5
775
  8
DISTRICTS
 10
632.43182263000006
 20
4692.1766109800001
 30
1.0
  0
VERTEX
  5
776
  8
DISTRICTS
 10
632.45758699800001
 20
4692.2768496400004
 30
1.0
  0
VERTEX
  5
777
  8
DISTRICTS
 10
632.48723613000004
 20
4692.3770883099978
 30
1.0
  0
VERTEX
  5
778
  8
DISTRICTS
 10
632.51633986900003
 20
4692.4729803799983
 30
1.0
  0
VERTEX
  5
779
  8
DISTRICTS
 10
632.54416856900002
 20
4692.5775656300002
 30
1.0
  0
VERTEX
  5
77A
  8
DISTRICTS
 10
632.56474122199995
 20
4692.6778043000004
 30
1.0
  0
VERTEX
  5
77B
  8
DISTRICTS
 10
632.574612591
 20
4692.7780429599989
 30
1.0
  0
VERTEX
  5
77C
  8
DISTRICTS
 10
632.56874655000001
 20
4692.8782816199991
 30
1.0
  0
VERTEX
  5
77D
  8
DISTRICTS
 10
632.54340768600002
 20
4692.9785202900002
 30
1.0
  0
VERTEX
  5
77E
  8
DISTRICTS
 10
632.51633986900003
 20
4693.0395123000017
 30
1.0
  0
VERTEX
  5
77F
  8
DISTRICTS
 10
632.49870850399998
 20
4693.0787589499996
 30
1.0
  0
VERTEX
  5
780
  8
DISTRICTS
 10
632.43850586899987
 20
4693.1789976099999
 30
1.0
  0
VERTEX
  5
781
  8
DISTRICTS
 10
632.41612200400004
 20
4693.2101744600004
 30
1.0
  0
VERTEX
  5
782
  8
DISTRICTS
 10
632.36602346099994
 20
4693.2792362800001
 30
1.0
  0
VERTEX
  5
783
  8
DISTRICTS
 10
632.31590413900005
 20
4693.3405767599979
 30
1.0
  0
VERTEX
  5
784
  8
DISTRICTS
 10
632.28432804099975
 20
4693.3794749400013
 30
1.0
  0
VERTEX
  5
785
  8
DISTRICTS
 10
632.21568627500005
 20
4693.4596841399998
 30
1.0
  0
VERTEX
  5
786
  8
DISTRICTS
 10
632.19843423099985
 20
4693.4797136000007
 30
1.0
  0
VERTEX
  5
787
  8
DISTRICTS
 10
632.11546840999995
 20
4693.5764104600003
 30
1.0
  0
VERTEX
  5
788
  8
DISTRICTS
 10
632.02094653400002
 20
4693.6801909300002
 30
1.0
  0
VERTEX
  5
789
  8
DISTRICTS
 10
631.915244648
 20
4693.7804295899978
 30
1.0
  0
VERTEX
  5
78A
  8
DISTRICTS
 10
631.81481481499975
 20
4693.8523259900003
 30
1.0
  0
VERTEX
  5
78B
  8
DISTRICTS
 10
631.76585424300004
 20
4693.8806682599989
 30
1.0
  0
VERTEX
  5
78C
  8
DISTRICTS
 10
631.71459694999999
 20
4693.90700483
 30
1.0
  0
VERTEX
  5
78D
  8
DISTRICTS
 10
631.61437908499988
 20
4693.9477084600003
 30
1.0
  0
VERTEX
  5
78E
  8
DISTRICTS
 10
631.521485138
 20
4693.9809069200001
 30
1.0
  0
VERTEX
  5
78F
  8
DISTRICTS
 10
631.41394335500001
 20
4694.0124516300002
 30
1.0
  0
VERTEX
  5
790
  8
DISTRICTS
 10
631.3137254899998
 20
4694.0520540899997
 30
1.0
  0
VERTEX
  5
791
  8
DISTRICTS
 10
631.26203568899996
 20
4694.0811455800003
 30
1.0
  0
VERTEX
  5
792
  8
DISTRICTS
 10
631.21350762500003
 20
4694.1041661600002
 30
1.0
  0
VERTEX
  5
793
  8
DISTRICTS
 10
631.11328976000004
 20
4694.1640228899987
 30
1.0
  0
VERTEX
  5
794
  8
DISTRICTS
 10
631.08318303800002
 20
4694.1813842499996
 30
1.0
  0
VERTEX
  5
795
  8
DISTRICTS
 10
631.01307189500005
 20
4694.218050479999
 30
1.0
  0
VERTEX
  5
796
  8
DISTRICTS
 10
630.91285403099994
 20
4694.2475594799989
 30
1.0
  0
VERTEX
  5
797
  8
DISTRICTS
 10
630.81263616599995
 20
4694.2378113999994
 30
1.0
  0
VERTEX
  5
798
  8
DISTRICTS
 10
630.71241830099984
 20
4694.2020142600004
 30
1.0
  0
VERTEX
  5
799
  8
DISTRICTS
 10
630.66533007600003
 20
4694.1813842499996
 30
1.0
  0
VERTEX
  5
79A
  8
DISTRICTS
 10
630.61220043599985
 20
4694.1621456299999
 30
1.0
  0
VERTEX
  5
79B
  8
DISTRICTS
 10
630.51198257099998
 20
4694.128286189999
 30
1.0
  0
VERTEX
  5
79C
  8
DISTRICTS
 10
630.41176470599987
 20
4694.1068898100002
 30
1.0
  0
VERTEX
  5
79D
  8
DISTRICTS
 10
630.31154684099977
 20
4694.09612844
 30
1.0
  0
VERTEX
  5
79E
  8
DISTRICTS
 10
630.211328976
 20
4694.0870294200004
 30
1.0
  0
VERTEX
  5
79F
  8
DISTRICTS
 10
630.17456462199993
 20
4694.0811455800003
 30
1.0
  0
VERTEX
  5
7A0
  8
DISTRICTS
 10
630.1111111109999
 20
4694.0716314399988
 30
1.0
  0
VERTEX
  5
7A1
  8
DISTRICTS
 10
630.07872558099984
 20
4694.0811455800003
 30
1.0
  0
VERTEX
  5
7A2
  8
DISTRICTS
 10
630.01089324600002
 20
4694.0985848500004
 30
1.0
  0
VERTEX
  5
7A3
  8
DISTRICTS
 10
629.94986349199985
 20
4694.1813842499996
 30
1.0
  0
VERTEX
  5
7A4
  8
DISTRICTS
 10
629.932851992
 20
4694.2816229099999
 30
1.0
  0
VERTEX
  5
7A5
  8
DISTRICTS
 10
629.91067538100003
 20
4694.3437387399999
 30
1.0
  0
VERTEX
  5
7A6
  8
DISTRICTS
 10
629.89570008700002
 20
4694.381861580001
 30
1.0
  0
VERTEX
  5
7A7
  8
DISTRICTS
 10
629.87746476999996
 20
4694.4821002400013
 30
1.0
  0
VERTEX
  5
7A8
  8
DISTRICTS
 10
629.88636626000005
 20
4694.5823388999997
 30
1.0
  0
VERTEX
  5
7A9
  8
DISTRICTS
 10
629.91067538100003
 20
4694.6568716199999
 30
1.0
  0
VERTEX
  5
7AA
  8
DISTRICTS
 10
629.91782658599993
 20
4694.6825775699999
 30
1.0
  0
VERTEX
  5
7AB
  8
DISTRICTS
 10
629.97293958900002
 20
4694.7828162300002
 30
1.0
  0
VERTEX
  5
7AC
  8
DISTRICTS
 10
630.01089324600002
 20
4694.8294089800002
 30
1.0
  0
VERTEX
  5
7AD
  8
DISTRICTS
 10
630.07560159499997
 20
4694.8830548899996
 30
1.0
  0
VERTEX
  5
7AE
  8
DISTRICTS
 10
630.1111111109999
 20
4694.9121513700002
 30
1.0
  0
VERTEX
  5
7AF
  8
DISTRICTS
 10
630.211328976
 20
4694.9605740999996
 30
1.0
  0
VERTEX
  5
7B0
  8
DISTRICTS
 10
630.31154684099977
 20
4694.9819691499979
 30
1.0
  0
VERTEX
  5
7B1
  8
DISTRICTS
 10
630.33218474
 20
4694.9832935599989
 30
1.0
  0
VERTEX
  5
7B2
  8
DISTRICTS
 10
630.41176470599987
 20
4694.9920339600012
 30
1.0
  0
VERTEX
  5
7B3
  8
DISTRICTS
 10
630.51198257099998
 20
4694.9869005299997
 30
1.0
  0
VERTEX
  5
7B4
  8
DISTRICTS
 10
630.54320119800002
 20
4694.9832935599989
 30
1.0
  0
VERTEX
  5
7B5
  8
DISTRICTS
 10
630.61220043599985
 20
4694.9754209299999
 30
1.0
  0
VERTEX
  5
7B6
  8
DISTRICTS
 10
630.71241830099984
 20
4694.9692010500003
 30
1.0
  0
VERTEX
  5
7B7
  8
DISTRICTS
 10
630.76946211999984
 20
4694.9832935599989
 30
1.0
  0
VERTEX
  5
7B8
  8
DISTRICTS
 10
630.81263616599995
 20
4694.9957895899997
 30
1.0
  0
VERTEX
  5
7B9
  8
DISTRICTS
 10
630.91285403099994
 20
4695.0660593800003
 30
1.0
  0
VERTEX
  5
7BA
  8
DISTRICTS
 10
630.93815479699992
 20
4695.0835322199991
 30
1.0
  0
VERTEX
  5
7BB
  8
DISTRICTS
 10
631.01307189500005
 20
4695.1376380900001
 30
1.0
  0
VERTEX
  5
7BC
  8
DISTRICTS
 10
631.07678578399998
 20
4695.1837708800003
 30
1.0
  0
VERTEX
  5
7BD
  8
DISTRICTS
 10
631.11328976000004
 20
4695.2077013899998
 30
1.0
  0
VERTEX
  5
7BE
  8
DISTRICTS
 10
631.21350762500003
 20
4695.2653869699998
 30
1.0
  0
VERTEX
  5
7BF
  8
DISTRICTS
 10
631.25797083600003
 20
4695.2840095499987
 30
1.0
  0
VERTEX
  5
7C0
  8
DISTRICTS
 10
631.3137254899998
 20
4695.3073191399999
 30
1.0
  0
VERTEX
  5
7C1
  8
DISTRICTS
 10
631.41394335500001
 20
4695.3342966600003
 30
1.0
  0
VERTEX
  5
7C2
  8
DISTRICTS
 10
631.51416122000001
 20
4695.3448052000003
 30
1.0
  0
VERTEX
  5
7C3
  8
DISTRICTS
 10
631.61437908499988
 20
4695.3404037
 30
1.0
  0
VERTEX
  5
7C4
  8
DISTRICTS
 10
631.71459694999999
 20
4695.3200466099997
 30
1.0
  0
VERTEX
  5
7C5
  8
DISTRICTS
 10
631.80596125500006
 20
4695.2840095499987
 30
1.0
  0
VERTEX
  5
7C6
  8
DISTRICTS
 10
631.91503267999985
 20
4695.2288387500003
 30
1.0
  0
VERTEX
  5
7C7
  8
DISTRICTS
 10
631.97622859699993
 20
4695.1837708800003
 30
1.0
  0
VERTEX
  5
7C8
  8
DISTRICTS
 10
632.01525054499984
 20
4695.1510239400022
 30
1.0
  0
VERTEX
  5
7C9
  8
DISTRICTS
 10
632.08617623899977
 20
4695.0835322199991
 30
1.0
  0
VERTEX
  5
7CA
  8
DISTRICTS
 10
632.11546840999995
 20
4695.0475491200004
 30
1.0
  0
VERTEX
  5
7CB
  8
DISTRICTS
 10
632.17314292200001
 20
4694.9832935599989
 30
1.0
  0
VERTEX
  5
7CC
  8
DISTRICTS
 10
632.21568627500005
 20
4694.9248438199993
 30
1.0
  0
VERTEX
  5
7CD
  8
DISTRICTS
 10
632.25554063000004
 20
4694.8830548899996
 30
1.0
  0
VERTEX
  5
7CE
  8
DISTRICTS
 10
632.31590413900005
 20
4694.8247919100004
 30
1.0
  0
VERTEX
  5
7CF
  8
DISTRICTS
 10
632.37593527599995
 20
4694.7828162300002
 30
1.0
  0
VERTEX
  5
7D0
  8
DISTRICTS
 10
632.41612200400004
 20
4694.7654672299977
 30
1.0
  0
VERTEX
  5
7D1
  8
DISTRICTS
 10
632.51633986900003
 20
4694.7028233299998
 30
1.0
  0
VERTEX
  5
7D2
  8
DISTRICTS
 10
632.55198981199976
 20
4694.6825775699999
 30
1.0
  0
VERTEX
  5
7D3
  8
DISTRICTS
 10
632.61655773400003
 20
4694.6480603700002
 30
1.0
  0
VERTEX
  5
7D4
  8
DISTRICTS
 10
632.71677559900002
 20
4694.6152322500002
 30
1.0
  0
VERTEX
  5
7D5
  8
DISTRICTS
 10
632.8130741949999
 20
4694.5823388999997
 30
1.0
  0
VERTEX
  5
7D6
  8
DISTRICTS
 10
632.917211329
 20
4694.5461531499986
 30
1.0
  0
VERTEX
  5
7D7
  8
DISTRICTS
 10
633.01742919399976
 20
4694.4934201699998
 30
1.0
  0
VERTEX
  5
7D8
  8
DISTRICTS
 10
633.03465733199994
 20
4694.4821002400013
 30
1.0
  0
VERTEX
  5
7D9
  8
DISTRICTS
 10
633.11764705899986
 20
4694.42650822
 30
1.0
  0
VERTEX
  5
7DA
  8
DISTRICTS
 10
633.17035726899985
 20
4694.381861580001
 30
1.0
  0
VERTEX
  5
7DB
  8
DISTRICTS
 10
633.21786492399985
 20
4694.3339884699999
 30
1.0
  0
VERTEX
  5
7DC
  8
DISTRICTS
 10
633.267461905
 20
4694.2816229099999
 30
1.0
  0
VERTEX
  5
7DD
  8
DISTRICTS
 10
633.31808278899985
 20
4694.2136149400003
 30
1.0
  0
VERTEX
  5
7DE
  8
DISTRICTS
 10
633.34488582899985
 20
4694.1813842499996
 30
1.0
  0
VERTEX
  5
7DF
  8
DISTRICTS
 10
633.41802055799997
 20
4694.0811455800003
 30
1.0
  0
VERTEX
  5
7E0
  8
DISTRICTS
 10
633.49492478599996
 20
4693.9809069200001
 30
1.0
  0
VERTEX
  5
7E1
  8
DISTRICTS
 10
633.51851851900005
 20
4693.9230734700004
 30
1.0
  0
VERTEX
  5
7E2
  8
DISTRICTS
 10
633.54896572999996
 20
4693.8806682599989
 30
1.0
  0
VERTEX
  5
7E3
  8
DISTRICTS
 10
633.61873638300005
 20
4693.7932407999979
 30
1.0
  0
VERTEX
  5
7E4
  8
DISTRICTS
 10
633.63534468199975
 20
4693.7804295899978
 30
1.0
  0
VERTEX
  5
7E5
  8
DISTRICTS
 10
633.71895424800005
 20
4693.7268193500004
 30
1.0
  0
VERTEX
  5
7E6
  8
DISTRICTS
 10
633.81917211300004
 20
4693.6884834700004
 30
1.0
  0
VERTEX
  5
7E7
  8
DISTRICTS
 10
633.85202823199995
 20
4693.6801909300002
 30
1.0
  0
VERTEX
  5
7E8
  8
DISTRICTS
 10
633.91938997800003
 20
4693.6661469000001
 30
1.0
  0
VERTEX
  5
7E9
  8
DISTRICTS
 10
634.0196078429999
 20
4693.6524043199979
 30
1.0
  0
VERTEX
  5
7EA
  8
DISTRICTS
 10
634.11982570800001
 20
4693.64481316
 30
1.0
  0
VERTEX
  5
7EB
  8
DISTRICTS
 10
634.22004357299977
 20
4693.6451092899997
 30
1.0
  0
VERTEX
  5
7EC
  8
DISTRICTS
 10
634.32026143799987
 20
4693.6587527299998
 30
1.0
  0
VERTEX
  5
7ED
  8
DISTRICTS
 10
634.38101743200002
 20
4693.6801909300002
 30
1.0
  0
VERTEX
  5
7EE
  8
DISTRICTS
 10
634.42047930299998
 20
4693.691521499999
 30
1.0
  0
VERTEX
  5
7EF
  8
DISTRICTS
 10
634.52069716799997
 20
4693.7299853799996
 30
1.0
  0
VERTEX
  5
7F0
  8
DISTRICTS
 10
634.62091503299996
 20
4693.7466013800004
 30
1.0
  0
VERTEX
  5
7F1
  8
DISTRICTS
 10
634.72113289800006
 20
4693.7198589700001
 30
1.0
  0
VERTEX
  5
7F2
  8
DISTRICTS
 10
634.77314140700003
 20
4693.6801909300002
 30
1.0
  0
VERTEX
  5
7F3
  8
DISTRICTS
 10
634.82135076300005
 20
4693.6175647800001
 30
1.0
  0
VERTEX
  5
7F4
  8
DISTRICTS
 10
634.84994527699985
 20
4693.5799522699999
 30
1.0
  0
VERTEX
  5
7F5
  8
DISTRICTS
 10
634.88109168999995
 20
4693.4797136000007
 30
1.0
  0
VERTEX
  5
7F6
  8
DISTRICTS
 10
634.90110105799988
 20
4693.3794749400013
 30
1.0
  0
VERTEX
  5
7F7
  8
DISTRICTS
 10
634.92156862699994
 20
4693.3222588500003
 30
1.0
  0
VERTEX
  5
7F8
  8
DISTRICTS
 10
634.94348890200001
 20
4693.2792362800001
 30
1.0
  0
VERTEX
  5
7F9
  8
DISTRICTS
 10
635.009007838
 20
4693.1789976099999
 30
1.0
  0
VERTEX
  5
7FA
  8
DISTRICTS
 10
635.02178649199993
 20
4693.1620344299999
 30
1.0
  0
VERTEX
  5
7FB
  8
DISTRICTS
 10
635.09242360999997
 20
4693.0787589499996
 30
1.0
  0
VERTEX
  5
7FC
  8
DISTRICTS
 10
635.12200435699992
 20
4693.0452326300001
 30
1.0
  0
VERTEX
  5
7FD
  8
DISTRICTS
 10
635.18648690500004
 20
4692.9785202900002
 30
1.0
  0
VERTEX
  5
7FE
  8
DISTRICTS
 10
635.22222222199991
 20
4692.9411388199987
 30
1.0
  0
VERTEX
  5
7FF
  8
DISTRICTS
 10
635.28762694300008
 20
4692.8782816199991
 30
1.0
  0
VERTEX
  5
800
  8
DISTRICTS
 10
635.32244008700002
 20
4692.8472941500004
 30
1.0
  0
VERTEX
  5
801
  8
DISTRICTS
 10
635.42265795200001
 20
4692.7782743400003
 30
1.0
  0
VERTEX
  5
802
  8
DISTRICTS
 10
635.52287581699989
 20
4692.7394075499988
 30
1.0
  0
VERTEX
  5
803
  8
DISTRICTS
 10
635.58067017199994
 20
4692.6778043000004
 30
1.0
  0
VERTEX
  5
804
  8
DISTRICTS
 10
635.57809948399995
 20
4692.5775656300002
 30
1.0
  0
VERTEX
  5
805
  8
DISTRICTS
 10
635.571952033
 20
4692.4773269699981
 30
1.0
  0
VERTEX
  5
806
  8
DISTRICTS
 10
635.59991225800002
 20
4692.3770883099978
 30
1.0
  0
VERTEX
  5
807
  8
DISTRICTS
 10
635.62309368199999
 20
4692.3208831399979
 30
1.0
  0
VERTEX
  5
808
  8
DISTRICTS
 10
635.64361502899999
 20
4692.2768496400004
 30
1.0
  0
VERTEX
  5
809
  8
DISTRICTS
 10
635.69845212500002
 20
4692.1766109800001
 30
1.0
  0
VERTEX
  5
80A
  8
DISTRICTS
 10
635.72331154699975
 20
4692.1383933999987
 30
1.0
  0
VERTEX
  5
80B
  8
DISTRICTS
 10
635.76419955199981
 20
4692.076372319998
 30
1.0
  0
VERTEX
  5
80C
  8
DISTRICTS
 10
635.82352941199986
 20
4691.9942818700001
 30
1.0
  0
VERTEX
  5
80D
  8
DISTRICTS
 10
635.83538850000002
 20
4691.9761336499978
 30
1.0
  0
VERTEX
  5
80E
  8
DISTRICTS
 10
635.89455413199994
 20
4691.8758949900002
 30
1.0
  0
VERTEX
  5
80F
  8
DISTRICTS
 10
635.92120838900007
 20
4691.7756563199991
 30
1.0
  0
VERTEX
  5
810
  8
DISTRICTS
 10
635.92374727699985
 20
4691.7630395699998
 30
1.0
  0
VERTEX
  5
811
  8
DISTRICTS
 10
635.94985624900005
 20
4691.6754176599989
 30
1.0
  0
VERTEX
  5
812
  8
DISTRICTS
 10
635.97962173300004
 20
4691.5751789999986
 30
1.0
  0
VERTEX
  5
813
  8
DISTRICTS
 10
636.01023523699985
 20
4691.4749403300002
 30
1.0
  0
VERTEX
  5
814
  8
DISTRICTS
 10
636.02396514199995
 20
4691.4269663699988
 30
1.0
  0
VERTEX
  5
815
  8
DISTRICTS
 10
636.042011581
 20
4691.3747016699999
 30
1.0
  0
VERTEX
  5
816
  8
DISTRICTS
 10
636.07441366699993
 20
4691.2744630099996
 30
1.0
  0
VERTEX
  5
817
  8
DISTRICTS
 10
636.10715495299996
 20
4691.1742243400004
 30
1.0
  0
VERTEX
  5
818
  8
DISTRICTS
 10
636.12418300699994
 20
4691.1225657799978
 30
1.0
  0
VERTEX
  5
819
  8
DISTRICTS
 10
636.14181355100004
 20
4691.0739856800001
 30
1.0
  0
VERTEX
  5
81A
  8
DISTRICTS
 10
636.16236192500003
 20
4690.9737470199998
 30
1.0
  0
VERTEX
  5
81B
  8
DISTRICTS
 10
636.14720651100004
 20
4690.8735083499996
 30
1.0
  0
VERTEX
  5
81C
  8
DISTRICTS
 10
636.12418300699994
 20
4690.8219103000001
 30
1.0
  0
VERTEX
  5
81D
  8
DISTRICTS
 10
636.09767903099976
 20
4690.7732696900011
 30
1.0
  0
VERTEX
  5
81E
  8
DISTRICTS
 10
636.02396514199995
 20
4690.6808597400013
 30
1.0
  0
VERTEX
  5
81F
  8
DISTRICTS
 10
636.00030012199989
 20
4690.6730310299999
 30
1.0
  0
VERTEX
  5
820
  8
DISTRICTS
 10
635.92374727699985
 20
4690.6305544200004
 30
1.0
  0
VERTEX
  5
821
  8
DISTRICTS
 10
635.82352941199986
 20
4690.6406734599987
 30
1.0
  0
VERTEX
  5
822
  8
DISTRICTS
 10
635.72331154699975
 20
4690.6580914799979
 30
1.0
  0
SEQEND
  5
823
  8
DISTRICTS
  0
POLYLINE
  5
2A
  8
DISTRICTS
 66
     1
 10
0.0
 20
0.0
 30
2.0
 70
     1
  0
VERTEX
  5
824
  8
DISTRICTS
 10
639.14733475399976
 20
4690.0715990500003
 30
2.0
  0
VERTEX
  5
825
  8
DISTRICTS
 10
639.13071895400003
 20
4690.0723409199991
 30
2.0
  0
VERTEX
  5
826
  8
DISTRICTS
 10
639.03050108900004
 20
4690.0821616100002
 30
2.0
  0
VERTEX
  5
827
  8
DISTRICTS
 10
638.93028322400005
 20
4690.1014902999996
 30
2.0
  0
VERTEX
  5
828
  8
DISTRICTS
 10
638.83006535899995
 20
4690.1376402599999
 30
2.0
  0
VERTEX
  5
829
  8
DISTRICTS
 10
638.77613539900005
 20
4690.1718377099987
 30
2.0
  0
VERTEX
  5
82A
  8
DISTRICTS
 10
638.72984749499994
 20
4690.1916404800013
 30
2.0
  0
VERTEX
  5
82B
  8
DISTRICTS
 10
638.62962962999995
 20
4690.2685813600001
 30
2.0
  0
VERTEX
  5
82C
  8
DISTRICTS
 10
638.53187390799997
 20
4690.3723150400001
 30
2.0
  0
VERTEX
  5
82D
  8
DISTRICTS
 10
638.46586477699998
 20
4690.4725537000004
 30
2.0
  0
VERTEX
  5
82E
  8
DISTRICTS
 10
638.42919389999975
 20
4690.5695289100004
 30
2.0
  0
VERTEX
  5
82F
  8
DISTRICTS
 10
638.40004649299976
 20
4690.6730310299999
 30
2.0
  0
VERTEX
  5
830
  8
DISTRICTS
 10
638.38709033500004
 20
4690.7732696900011
 30
2.0
  0
VERTEX
  5
831
  8
DISTRICTS
 10
638.38426173899995
 20
4690.8735083499996
 30
2.0
  0
VERTEX
  5
832
  8
DISTRICTS
 10
638.38879584099993
 20
4690.9737470199998
 30
2.0
  0
VERTEX
  5
833
  8
DISTRICTS
 10
638.39973630899976
 20
4691.0739856800001
 30
2.0
  0
VERTEX
  5
834
  8
DISTRICTS
 10
638.41813165199994
 20
4691.1742243400004
 30
2.0
  0
VERTEX
  5
835
  8
DISTRICTS
 10
638.42919389999975
 20
4691.2128189200002
 30
2.0
  0
VERTEX
  5
836
  8
DISTRICTS
 10
638.44280934400001
 20
4691.2744630099996
 30
2.0
  0
VERTEX
  5
837
  8
DISTRICTS
 10
638.47624980900002
 20
4691.3747016699999
 30
2.0
  0
VERTEX
  5
838
  8
DISTRICTS
 10
638.52575010899989
 20
4691.4749403300002
 30
2.0
  0
VERTEX
  5
839
  8
DISTRICTS
 10
638.58140366400005
 20
4691.5751789999986
 30
2.0
  0
VERTEX
  5
83A
  8
DISTRICTS
 10
638.62962962999995
 20
4691.6397174999984
 30
2.0
  0
VERTEX
  5
83B
  8
DISTRICTS
 10
638.65452620999997
 20
4691.6754176599989
 30
2.0
  0
VERTEX
  5
83C
  8
DISTRICTS
 10
638.72984749499994
 20
4691.7607071900002
 30
2.0
  0
VERTEX
  5
83D
  8
DISTRICTS
 10
638.74316152400002
 20
4691.7756563199991
 30
2.0
  0
VERTEX
  5
83E
  8
DISTRICTS
 10
638.83006535899995
 20
4691.8586380500001
 30
2.0
  0
VERTEX
  5
83F
  8
DISTRICTS
 10
638.84963429199991
 20
4691.8758949900002
 30
2.0
  0
VERTEX
  5
840
  8
DISTRICTS
 10
638.93028322400005
 20
4691.9414198000004
 30
2.0
  0
VERTEX
  5
841
  8
DISTRICTS
 10
638.97746617199994
 20
4691.9761336499978
 30
2.0
  0
VERTEX
  5
842
  8
DISTRICTS
 10
639.03050108900004
 20
4692.0147562700004
 30
2.0
  0
VERTEX
  5
843
  8
DISTRICTS
 10
639.10375928500002
 20
4692.076372319998
 30
2.0
  0
VERTEX
  5
844
  8
DISTRICTS
 10
639.13071895400003
 20
4692.0965129799997
 30
2.0
  0
VERTEX
  5
845
  8
DISTRICTS
 10
639.22415300299997
 20
4692.1766109800001
 30
2.0
  0
VERTEX
  5
846
  8
DISTRICTS
 10
639.33115468400001
 20
4692.1802750699999
 30
2.0
  0
VERTEX
  5
847
  8
DISTRICTS
 10
639.43137254899989
 20
4692.203737599998
 30
2.0
  0
VERTEX
  5
848
  8
DISTRICTS
 10
639.53159041399999
 20
4692.2354595300003
 30
2.0
  0
VERTEX
  5
849
  8
DISTRICTS
 10
639.63180827899976
 20
4692.2659875500003
 30
2.0
  0
VERTEX
  5
84A
  8
DISTRICTS
 10
639.67065584500006
 20
4692.2768496400004
 30
2.0
  0
VERTEX
  5
84B
  8
DISTRICTS
 10
639.73202614399986
 20
4692.2947503799987
 30
2.0
  0
VERTEX
  5
84C
  8
DISTRICTS
 10
639.83224400899985
 20
4692.3196556700004
 30
2.0
  0
VERTEX
  5
84D
  8
DISTRICTS
 10
639.93246187399996
 20
4692.3384603900004
 30
2.0
  0
VERTEX
  5
84E
  8
DISTRICTS
 10
640.03267973899995
 20
4692.3507260899987
 30
2.0
  0
VERTEX
  5
84F
  8
DISTRICTS
 10
640.13289760300006
 20
4692.3563222499997
 30
2.0
  0
VERTEX
  5
850
  8
DISTRICTS
 10
640.23311546800005
 20
4692.3551333699988
 30
2.0
  0
VERTEX
  5
851
  8
DISTRICTS
 10
640.33333333300004
 20
4692.3467861799991
 30
2.0
  0
VERTEX
  5
852
  8
DISTRICTS
 10
640.43355119800003
 20
4692.33048297
 30
2.0
  0
VERTEX
  5
853
  8
DISTRICTS
 10
640.53376906300002
 20
4692.3049560199997
 30
2.0
  0
VERTEX
  5
854
  8
DISTRICTS
 10
640.61260692199994
 20
4692.2768496400004
 30
2.0
  0
VERTEX
  5
855
  8
DISTRICTS
 10
640.6339869279999
 20
4692.2698435499997
 30
2.0
  0
VERTEX
  5
856
  8
DISTRICTS
 10
640.734204793
 20
4692.2272466200002
 30
2.0
  0
VERTEX
  5
857
  8
DISTRICTS
 10
640.82440870599987
 20
4692.1766109800001
 30
2.0
  0
VERTEX
  5
858
  8
DISTRICTS
 10
640.83442265799977
 20
4692.1709452300001
 30
2.0
  0
VERTEX
  5
859
  8
DISTRICTS
 10
640.93464052299987
 20
4692.1046909400002
 30
2.0
  0
VERTEX
  5
85A
  8
DISTRICTS
 10
640.97183581299998
 20
4692.076372319998
 30
2.0
  0
VERTEX
  5
85B
  8
DISTRICTS
 10
641.03485838799998
 20
4692.0244863000016
 30
2.0
  0
VERTEX
  5
85C
  8
DISTRICTS
 10
641.08881462800002
 20
4691.9761336499978
 30
2.0
  0
VERTEX
  5
85D
  8
DISTRICTS
 10
641.13507625299997
 20
4691.9301262599993
 30
2.0
  0
VERTEX
  5
85E
  8
DISTRICTS
 10
641.18804214500017
 20
4691.8758949900002
 30
2.0
  0
VERTEX
  5
85F
  8
DISTRICTS
 10
641.23529411799996
 20
4691.8218349899998
 30
2.0
  0
VERTEX
  5
860
  8
DISTRICTS
 10
641.27596665500016
 20
4691.7756563199991
 30
2.0
  0
VERTEX
  5
861
  8
DISTRICTS
 10
641.33551198300006
 20
4691.7000883399996
 30
2.0
  0
VERTEX
  5
862
  8
DISTRICTS
 10
641.35583750900003
 20
4691.6754176599989
 30
2.0
  0
VERTEX
  5
863
  8
DISTRICTS
 10
641.43146404000004
 20
4691.5751789999986
 30
2.0
  0
VERTEX
  5
864
  8
DISTRICTS
 10
641.52019962999975
 20
4691.4749403300002
 30
2.0
  0
VERTEX
  5
865
  8
DISTRICTS
 10
641.53594771199994
 20
4691.4610270699986
 30
2.0
  0
VERTEX
  5
866
  8
DISTRICTS
 10
641.63616557699993
 20
4691.41766534
 30
2.0
  0
VERTEX
  5
867
  8
DISTRICTS
 10
641.72882014799995
 20
4691.3747016699999
 30
2.0
  0
VERTEX
  5
868
  8
DISTRICTS
 10
641.83660130699991
 20
4691.2936821999983
 30
2.0
  0
VERTEX
  5
869
  8
DISTRICTS
 10
641.85021465999978
 20
4691.2744630099996
 30
2.0
  0
VERTEX
  5
86A
  8
DISTRICTS
 10
641.85359113699997
 20
4691.1742243400004
 30
2.0
  0
VERTEX
  5
86B
  8
DISTRICTS
 10
641.83660130699991
 20
4691.136632910001
 30
2.0
  0
VERTEX
  5
86C
  8
DISTRICTS
 10
641.80161087800002
 20
4691.0739856800001
 30
2.0
  0
VERTEX
  5
86D
  8
DISTRICTS
 10
641.73638344199992
 20
4691.0090711599978
 30
2.0
  0
VERTEX
  5
86E
  8
DISTRICTS
 10
641.63698119399999
 20
4690.9737470199998
 30
2.0
  0
VERTEX
  5
86F
  8
DISTRICTS
 10
641.53594771199994
 20
4690.9025165800003
 30
2.0
  0
VERTEX
  5
870
  8
DISTRICTS
 10
641.50768103799999
 20
4690.8735083499996
 30
2.0
  0
VERTEX
  5
871
  8
DISTRICTS
 10
641.43572984699995
 20
4690.7891558999991
 30
2.0
  0
VERTEX
  5
872
  8
DISTRICTS
 10
641.42322700400007
 20
4690.7732696900011
 30
2.0
  0
VERTEX
  5
873
  8
DISTRICTS
 10
641.33566137800005
 20
4690.6730310299999
 30
2.0
  0
VERTEX
  5
874
  8
DISTRICTS
 10
641.23529411799996
 20
4690.57516192
 30
2.0
  0
VERTEX
  5
875
  8
DISTRICTS
 10
641.13507625299997
 20
4690.4941150300001
 30
2.0
  0
VERTEX
  5
876
  8
DISTRICTS
 10
641.10061137499997
 20
4690.4725537000004
 30
2.0
  0
VERTEX
  5
877
  8
DISTRICTS
 10
641.03485838799998
 20
4690.4280608700001
 30
2.0
  0
VERTEX
  5
878
  8
DISTRICTS
 10
640.93464052299987
 20
4690.3761528499981
 30
2.0
  0
VERTEX
  5
879
  8
DISTRICTS
 10
640.92529318499999
 20
4690.3723150400001
 30
2.0
  0
VERTEX
  5
87A
  8
DISTRICTS
 10
640.83442265799977
 20
4690.3283718099992
 30
2.0
  0
VERTEX
  5
87B
  8
DISTRICTS
 10
640.734204793
 20
4690.2906455599996
 30
2.0
  0
VERTEX
  5
87C
  8
DISTRICTS
 10
640.67257039699984
 20
4690.2720763699999
 30
2.0
  0
VERTEX
  5
87D
  8
DISTRICTS
 10
640.6339869279999
 20
4690.2579516400001
 30
2.0
  0
VERTEX
  5
87E
  8
DISTRICTS
 10
640.53376906300002
 20
4690.2279286000003
 30
2.0
  0
VERTEX
  5
87F
  8
DISTRICTS
 10
640.43355119800003
 20
4690.2031558299987
 30
2.0
  0
VERTEX
  5
880
  8
DISTRICTS
 10
640.33333333300004
 20
4690.1823314099993
 30
2.0
  0
VERTEX
  5
881
  8
DISTRICTS
 10
640.27368913700002
 20
4690.1718377099987
 30
2.0
  0
VERTEX
  5
882
  8
DISTRICTS
 10
640.23311546800005
 20
4690.1629134699997
 30
2.0
  0
VERTEX
  5
883
  8
DISTRICTS
 10
640.13289760300006
 20
4690.14388151
 30
2.0
  0
VERTEX
  5
884
  8
DISTRICTS
 10
640.03267973899995
 20
4690.12637017
 30
2.0
  0
VERTEX
  5
885
  8
DISTRICTS
 10
639.93246187399996
 20
4690.1089210700002
 30
2.0
  0
VERTEX
  5
886
  8
DISTRICTS
 10
639.83224400899985
 20
4690.0895245299998
 30
2.0
  0
VERTEX
  5
887
  8
DISTRICTS
 10
639.74165529800007
 20
4690.0715990500003
 30
2.0
  0
VERTEX
  5
888
  8
DISTRICTS
 10
639.73202614399986
 20
4690.0631627100001
 30
2.0
  0
VERTEX
  5
889
  8
DISTRICTS
 10
639.63180827899976
 20
4690.0251581800003
 30
2.0
  0
VERTEX
  5
88A
  8
DISTRICTS
 10
639.53159041399999
 20
4690.0580249900004
 30
2.0
  0
VERTEX
  5
88B
  8
DISTRICTS
 10
639.43137254899989
 20
4690.0623277499999
 30
2.0
  0
VERTEX
  5
88C
  8
DISTRICTS
 10
639.33115468400001
 20
4690.0641479899987
 30
2.0
  0
VERTEX
  5
88D
  8
DISTRICTS
 10
639.23093681900002
 20
4690.0664287199997
 30
2.0
  0
SEQEND
  5
88E
  8
DISTRICTS
  0
POLYLINE
  5
2B
  8
DISTRICTS
 66
     1
 10
0.0
 20
0.0
 30
6.0
 70
     1
  0
VERTEX
  5
88F
  8
DISTRICTS
 10
636.73366652622406
 20
4673.2852894890848
 30
6.0
  0
VERTEX
  5
890
  8
DISTRICTS
 10
636.9725257295097
 20
4672.7735644288477
 30
6.0
  0
VERTEX
  5
891
  8
DISTRICTS
 10
637.22880064584172
 20
4671.3387513286771
 30
6.0
  0
VERTEX
  5
892
  8
DISTRICTS
 10
637.07503569604239
 20
4669.9039382285027
 30
6.0
  0
VERTEX
  5
893
  8
DISTRICTS
 10
636.66499601952012
 20
4669.135288413001
 30
6.0
  0
VERTEX
  5
894
  8
DISTRICTS
 10
635.02483731343079
 20
4667.956692019121
 30
6.0
  0
VERTEX
  5
895
  8
DISTRICTS
 10
632.9746389308192
 20
4669.3915051192944
 30
6.0
  0
VERTEX
  5
896
  8
DISTRICTS
 10
630.61691064860895
 20
4670.9800480915528
 30
6.0
  0
VERTEX
  5
897
  8
DISTRICTS
 10
629.84808627883069
 20
4672.7223210875909
 30
6.0
  0
VERTEX
  5
898
  8
DISTRICTS
 10
629.89934126209721
 20
4674.5670807661427
 30
6.0
  0
VERTEX
  5
899
  8
DISTRICTS
 10
631.02695032513122
 20
4676.616813809731
 30
6.0
  0
VERTEX
  5
89A
  8
DISTRICTS
 10
633.84597326713026
 20
4677.2829770944018
 30
6.0
  0
VERTEX
  5
89B
  8
DISTRICTS
 10
635.5373869564861
 20
4675.3357307333317
 30
6.0
  0
VERTEX
  5
89C
  8
DISTRICTS
 10
636.6137410362536
 20
4673.5422143960386
 30
6.0
  0
SEQEND
  5
89D
  8
DISTRICTS
  0
POLYLINE
  5
2C
  8
DISTRICTS
 66
     1
 10
0.0
 20
0.0
 30
7.0
 70
     1
  0
VERTEX
  5
89E
  8
DISTRICTS
 10
636.73366652622406
 20
4673.2852894890848
 30
7.0
  0
VERTEX
  5
89F
  8
DISTRICTS
 10
637.89511504908717
 20
4673.8496742919024
 30
7.0
  0
VERTEX
  5
8A0
  8
DISTRICTS
 10
639.53527375517649
 20
4674.0546476569361
 30
7.0
  0
VERTEX
  5
8A1
  8
DISTRICTS
 10
639.89405844843225
 20
4673.3372410310049
 30
7.0
  0
VERTEX
  5
8A2
  8
DISTRICTS
 10
640.20158815842183
 20
4671.6974547174841
 30
7.0
  0
VERTEX
  5
8A3
  8
DISTRICTS
 10
639.89405844843225
 20
4671.1337781153297
 30
7.0
  0
VERTEX
  5
8A4
  8
DISTRICTS
 10
638.76644938539823
 20
4670.67258819569
 30
7.0
  0
VERTEX
  5
8A5
  8
DISTRICTS
 10
637.07503569604239
 20
4669.9039382285027
 30
7.0
  0
VERTEX
  5
8A6
  8
DISTRICTS
 10
637.22880064584172
 20
4671.3387513286771
 30
7.0
  0
VERTEX
  5
8A7
  8
DISTRICTS
 10
636.9725257295097
 20
4672.7735644288477
 30
7.0
  0
SEQEND
  5
8A8
  8
DISTRICTS
  0
POLYLINE
  5
2D
  8
DISTRICTS
 66
     1
 10
0.0
 20
0.0
 30
8.0
 70
     1
  0
VERTEX
  5
8A9
  8
DISTRICTS
 10
643.45517477844066
 20
4671.0015309474493
 30
8.0
  0
VERTEX
  5
8AA
  8
DISTRICTS
 10
642.05715169628354
 20
4671.1427134133864
 30
8.0
  0
VERTEX
  5
8AB
  8
DISTRICTS
 10
640.20158815842183
 20
4671.6974547174841
 30
8.0
  0
VERTEX
  5
8AC
  8
DISTRICTS
 10
639.89405844843225
 20
4673.3372410310049
 30
8.0
  0
VERTEX
  5
8AD
  8
DISTRICTS
 10
639.53527375517649
 20
4674.0546476569361
 30
8.0
  0
VERTEX
  5
8AE
  8
DISTRICTS
 10
641.53663163873057
 20
4674.7855262477178
 30
8.0
  0
VERTEX
  5
8AF
  8
DISTRICTS
 10
642.57767156422722
 20
4674.8760309907238
 30
8.0
  0
VERTEX
  5
8B0
  8
DISTRICTS
 10
643.73186820533965
 20
4674.7176478042293
 30
8.0
  0
VERTEX
  5
8B1
  8
DISTRICTS
 10
643.98445422564214
 20
4674.6989419912652
 30
8.0
  0
VERTEX
  5
8B2
  8
DISTRICTS
 10
643.75449958638455
 20
4673.5184609074431
 30
8.0
  0
VERTEX
  5
8B3
  8
DISTRICTS
 10
643.64134306037806
 20
4672.5907880879886
 30
8.0
  0
VERTEX
  5
8B4
  8
DISTRICTS
 10
643.46029258084525
 20
4671.4594796346901
 30
8.0
  0
SEQEND
  5
8B5
  8
DISTRICTS
  0
POLYLINE
  5
2E
  8
DISTRICTS
 66
     1
 10
0.0
 20
0.0
 30
3.0
 70
     1
  0
VERTEX
  5
8B6
  8
DISTRICTS
 10
648.04872664022014
 20
4682.2746337717863
 30
3.0
  0
VERTEX
  5
8B7
  8
DISTRICTS
 10
647.75485149495432
 20
4683.1641841775991
 30
3.0
  0
VERTEX
  5
8B8
  8
DISTRICTS
 10
647.35151545352005
 20
4683.7522489284383
 30
3.0
  0
VERTEX
  5
8B9
  8
DISTRICTS
 10
647.04959198999995
 20
4684.1575179000001
 30
3.0
  0
VERTEX
  5
8BA
  8
DISTRICTS
 10
647.14814814800002
 20
4684.2182988200002
 30
3.0
  0
VERTEX
  5
8BB
  8
DISTRICTS
 10
647.20731645900003
 20
4684.2577565600004
 30
3.0
  0
VERTEX
  5
8BC
  8
DISTRICTS
 10
647.2483660129999
 20
4684.2852858200004
 30
3.0
  0
VERTEX
  5
8BD
  8
DISTRICTS
 10
647.348583878
 20
4684.3580024800003
 30
3.0
  0
VERTEX
  5
8BE
  8
DISTRICTS
 10
647.44880174299976
 20
4684.4369034600004
 30
3.0
  0
VERTEX
  5
8BF
  8
DISTRICTS
 10
647.47373203300003
 20
4684.45823389
 30
3.0
  0
VERTEX
  5
8C0
  8
DISTRICTS
 10
647.54901960799987
 20
4684.5220822900001
 30
3.0
  0
VERTEX
  5
8C1
  8
DISTRICTS
 10
647.58842641199999
 20
4684.5584725500003
 30
3.0
  0
VERTEX
  5
8C2
  8
DISTRICTS
 10
647.64923747300008
 20
4684.6136361899989
 30
3.0
  0
VERTEX
  5
8C3
  8
DISTRICTS
 10
647.69478547400001
 20
4684.6587112200004
 30
3.0
  0
VERTEX
  5
8C4
  8
DISTRICTS
 10
647.74945533799996
 20
4684.711231979998
 30
3.0
  0
VERTEX
  5
8C5
  8
DISTRICTS
 10
647.79495484999995
 20
4684.7589498799989
 30
3.0
  0
VERTEX
  5
8C6
  8
DISTRICTS
 10
647.84967320299995
 20
4684.8138297799997
 30
3.0
  0
VERTEX
  5
8C7
  8
DISTRICTS
 10
647.89117986099996
 20
4684.8591885400001
 30
3.0
  0
VERTEX
  5
8C8
  8
DISTRICTS
 10
647.94989106800006
 20
4684.9194844100002
 30
3.0
  0
VERTEX
  5
8C9
  8
DISTRICTS
 10
647.98580246799975
 20
4684.9594272100003
 30
3.0
  0
VERTEX
  5
8CA
  8
DISTRICTS
 10
648.05010893199994
 20
4685.0254495299996
 30
3.0
  0
VERTEX
  5
8CB
  8
DISTRICTS
 10
648.08124266499999
 20
4685.0596658699988
 30
3.0
  0
VERTEX
  5
8CC
  8
DISTRICTS
 10
648.15032679699993
 20
4685.1286845100003
 30
3.0
  0
VERTEX
  5
8CD
  8
DISTRICTS
 10
648.18006778099993
 20
4685.1599045299981
 30
3.0
  0
VERTEX
  5
8CE
  8
DISTRICTS
 10
648.25054466199992
 20
4685.2265465500004
 30
3.0
  0
VERTEX
  5
8CF
  8
DISTRICTS
 10
648.28526028500016
 20
4685.2601431999992
 30
3.0
  0
VERTEX
  5
8D0
  8
DISTRICTS
 10
648.35076252699992
 20
4685.3172369599979
 30
3.0
  0
VERTEX
  5
8D1
  8
DISTRICTS
 10
648.40079861799995
 20
4685.3603818600004
 30
3.0
  0
VERTEX
  5
8D2
  8
DISTRICTS
 10
648.45098039199991
 20
4685.39974222
 30
3.0
  0
VERTEX
  5
8D3
  8
DISTRICTS
 10
648.53268862599998
 20
4685.4606205299979
 30
3.0
  0
VERTEX
  5
8D4
  8
DISTRICTS
 10
648.55119825700001
 20
4685.4734049299977
 30
3.0
  0
VERTEX
  5
8D5
  8
DISTRICTS
 10
648.651416122
 20
4685.5388154900011
 30
3.0
  0
VERTEX
  5
8D6
  8
DISTRICTS
 10
648.68905678299996
 20
4685.56085919
 30
3.0
  0
VERTEX
  5
8D7
  8
DISTRICTS
 10
648.75163398699988
 20
4685.5960529599997
 30
3.0
  0
VERTEX
  5
8D8
  8
DISTRICTS
 10
648.85185185199998
 20
4685.6447755400013
 30
3.0
  0
VERTEX
  5
8D9
  8
DISTRICTS
 10
648.89132552399985
 20
4685.6610978500003
 30
3.0
  0
VERTEX
  5
8DA
  8
DISTRICTS
 10
648.95206971699974
 20
4685.6864874399989
 30
3.0
  0
VERTEX
  5
8DB
  8
DISTRICTS
 10
649.05228758199985
 20
4685.721072889999
 30
3.0
  0
VERTEX
  5
8DC
  8
DISTRICTS
 10
649.15250544699995
 20
4685.7475585900011
 30
3.0
  0
VERTEX
  5
8DD
  8
DISTRICTS
 10
649.22369463300004
 20
4685.7613365200004
 30
3.0
  0
VERTEX
  5
8DE
  8
DISTRICTS
 10
649.25272331199994
 20
4685.7674521899999
 30
3.0
  0
VERTEX
  5
8DF
  8
DISTRICTS
 10
649.35294117599994
 20
4685.7818680299997
 30
3.0
  0
VERTEX
  5
8E0
  8
DISTRICTS
 10
649.45315904099994
 20
4685.7894136300001
 30
3.0
  0
VERTEX
  5
8E1
  8
DISTRICTS
 10
649.55337690600004
 20
4685.7905303500002
 30
3.0
  0
VERTEX
  5
8E2
  8
DISTRICTS
 10
649.65359477100003
 20
4685.7855226199999
 30
3.0
  0
VERTEX
  5
8E3
  8
DISTRICTS
 10
649.75381263600002
 20
4685.7745475600004
 30
3.0
  0
VERTEX
  5
8E4
  8
DISTRICTS
 10
649.83290130300009
 20
4685.7613365200004
 30
3.0
  0
VERTEX
  5
8E5
  8
DISTRICTS
 10
649.85403050100001
 20
4685.7580805199977
 30
3.0
  0
VERTEX
  5
8E6
  8
DISTRICTS
 10
649.95424836599989
 20
4685.7376338599988
 30
3.0
  0
VERTEX
  5
8E7
  8
DISTRICTS
 10
650.05446623099999
 20
4685.7116401100002
 30
3.0
  0
VERTEX
  5
8E8
  8
DISTRICTS
 10
650.15468409599976
 20
4685.6803432200004
 30
3.0
  0
VERTEX
  5
8E9
  8
DISTRICTS
 10
650.20967617199994
 20
4685.6610978500003
 30
3.0
  0
VERTEX
  5
8EA
  8
DISTRICTS
 10
650.25490196099986
 20
4685.6454736100013
 30
3.0
  0
VERTEX
  5
8EB
  8
DISTRICTS
 10
650.35511982599985
 20
4685.6078738999986
 30
3.0
  0
VERTEX
  5
8EC
  8
DISTRICTS
 10
650.45533769099995
 20
4685.5672257599981
 30
3.0
  0
VERTEX
  5
8ED
  8
DISTRICTS
 10
650.47101568100004
 20
4685.56085919
 30
3.0
  0
VERTEX
  5
8EE
  8
DISTRICTS
 10
650.55555555599994
 20
4685.5265900000013
 30
3.0
  0
VERTEX
  5
8EF
  8
DISTRICTS
 10
650.65577341999995
 20
4685.4858908799988
 30
3.0
  0
VERTEX
  5
8F0
  8
DISTRICTS
 10
650.720077231
 20
4685.4606205299979
 30
3.0
  0
VERTEX
  5
8F1
  8
DISTRICTS
 10
650.75599128500005
 20
4685.4467901099997
 30
3.0
  0
VERTEX
  5
8F2
  8
DISTRICTS
 10
650.85620915000004
 20
4685.4108860899987
 30
3.0
  0
VERTEX
  5
8F3
  8
DISTRICTS
 10
650.95642701500003
 20
4685.3775715000011
 30
3.0
  0
VERTEX
  5
8F4
  8
DISTRICTS
 10
651.01110423099999
 20
4685.3603818600004
 30
3.0
  0
VERTEX
  5
8F5
  8
DISTRICTS
 10
651.05664488000002
 20
4685.3473943500003
 30
3.0
  0
VERTEX
  5
8F6
  8
DISTRICTS
 10
651.1568627449999
 20
4685.3194754300002
 30
3.0
  0
VERTEX
  5
8F7
  8
DISTRICTS
 10
651.25708061
 20
4685.2895083699996
 30
3.0
  0
VERTEX
  5
8F8
  8
DISTRICTS
 10
651.34261035199995
 20
4685.2601431999992
 30
3.0
  0
VERTEX
  5
8F9
  8
DISTRICTS
 10
651.35729847499977
 20
4685.2555738199999
 30
3.0
  0
VERTEX
  5
8FA
  8
DISTRICTS
 10
651.45751633999987
 20
4685.2198327300002
 30
3.0
  0
VERTEX
  5
8FB
  8
DISTRICTS
 10
651.55773420499997
 20
4685.18031608
 30
3.0
  0
VERTEX
  5
8FC
  8
DISTRICTS
 10
651.60709345700002
 20
4685.1599045299981
 30
3.0
  0
VERTEX
  5
8FD
  8
DISTRICTS
 10
651.65795206999985
 20
4685.1401026800013
 30
3.0
  0
VERTEX
  5
8FE
  8
DISTRICTS
 10
651.75816993499996
 20
4685.0990931300003
 30
3.0
  0
VERTEX
  5
8FF
  8
DISTRICTS
 10
651.84677786500004
 20
4685.0596658699988
 30
3.0
  0
VERTEX
  5
900
  8
DISTRICTS
 10
651.85838779999995
 20
4685.05487756
 30
3.0
  0
VERTEX
  5
901
  8
DISTRICTS
 10
651.95860566399995
 20
4685.0095784199984
 30
3.0
  0
VERTEX
  5
902
  8
DISTRICTS
 10
652.05882352900005
 20
4684.9579666999989
 30
3.0
  0
VERTEX
  5
903
  8
DISTRICTS
 10
652.15904139400004
 20
4684.9035875400004
 30
3.0
  0
VERTEX
  5
904
  8
DISTRICTS
 10
652.22965000599993
 20
4684.8591885400001
 30
3.0
  0
VERTEX
  5
905
  8
DISTRICTS
 10
652.25925925900003
 20
4684.8411973299999
 30
3.0
  0
VERTEX
  5
906
  8
DISTRICTS
 10
652.35947712399991
 20
4684.77138139
 30
3.0
  0
VERTEX
  5
907
  8
DISTRICTS
 10
652.37546094899994
 20
4684.7589498799989
 30
3.0
  0
VERTEX
  5
908
  8
DISTRICTS
 10
652.45969498900001
 20
4684.6929428299991
 30
3.0
  0
VERTEX
  5
909
  8
DISTRICTS
 10
652.49851004000004
 20
4684.6587112200004
 30
3.0
  0
VERTEX
  5
90A
  8
DISTRICTS
 10
652.559912854
 20
4684.6025143499992
 30
3.0
  0
VERTEX
  5
90B
  8
DISTRICTS
 10
652.60359745999995
 20
4684.5584725500003
 30
3.0
  0
VERTEX
  5
90C
  8
DISTRICTS
 10
652.66013071899988
 20
4684.4973409900012
 30
3.0
  0
VERTEX
  5
90D
  8
DISTRICTS
 10
652.69384947900005
 20
4684.45823389
 30
3.0
  0
VERTEX
  5
90E
  8
DISTRICTS
 10
652.76034858399998
 20
4684.3726487900012
 30
3.0
  0
VERTEX
  5
90F
  8
DISTRICTS
 10
652.77127604299994
 20
4684.3579952299997
 30
3.0
  0
VERTEX
  5
910
  8
DISTRICTS
 10
652.83874576400001
 20
4684.2577565600004
 30
3.0
  0
VERTEX
  5
911
  8
DISTRICTS
 10
652.86056644899975
 20
4684.22002901
 30
3.0
  0
VERTEX
  5
912
  8
DISTRICTS
 10
652.89686087799976
 20
4684.1575179000001
 30
3.0
  0
VERTEX
  5
913
  8
DISTRICTS
 10
652.94589934400005
 20
4684.0572792399998
 30
3.0
  0
VERTEX
  5
914
  8
DISTRICTS
 10
652.96078431399985
 20
4684.0209184299993
 30
3.0
  0
VERTEX
  5
915
  8
DISTRICTS
 10
652.98822827499998
 20
4683.9570405699988
 30
3.0
  0
VERTEX
  5
916
  8
DISTRICTS
 10
653.02359913199984
 20
4683.8568019100003
 30
3.0
  0
VERTEX
  5
917
  8
DISTRICTS
 10
653.05147797999985
 20
4683.75656325
 30
3.0
  0
VERTEX
  5
918
  8
DISTRICTS
 10
653.06100217900007
 20
4683.7124817699978
 30
3.0
  0
VERTEX
  5
919
  8
DISTRICTS
 10
653.07439614099985
 20
4683.6563245799998
 30
3.0
  0
VERTEX
  5
91A
  8
DISTRICTS
 10
653.09222002399997
 20
4683.5560859200023
 30
3.0
  0
VERTEX
  5
91B
  8
DISTRICTS
 10
653.10439944400002
 20
4683.4558472600002
 30
3.0
  0
VERTEX
  5
91C
  8
DISTRICTS
 10
653.11143778500002
 20
4683.35560859
 30
3.0
  0
VERTEX
  5
91D
  8
DISTRICTS
 10
653.11371411900006
 20
4683.2553699299997
 30
3.0
  0
VERTEX
  5
91E
  8
DISTRICTS
 10
653.11150584400002
 20
4683.1551312600004
 30
3.0
  0
VERTEX
  5
91F
  8
DISTRICTS
 10
653.10502060600004
 20
4683.054892600001
 30
3.0
  0
VERTEX
  5
920
  8
DISTRICTS
 10
653.09443237400001
 20
4682.9546539399998
 30
3.0
  0
VERTEX
  5
921
  8
DISTRICTS
 10
653.07991679300005
 20
4682.8544152699988
 30
3.0
  0
VERTEX
  5
922
  8
DISTRICTS
 10
653.06100217900007
 20
4682.7508448899998
 30
3.0
  0
VERTEX
  5
923
  8
DISTRICTS
 10
653.04126912599975
 20
4682.6539379499991
 30
3.0
  0
VERTEX
  5
924
  8
DISTRICTS
 10
653.01763806099984
 20
4682.553699279998
 30
3.0
  0
VERTEX
  5
925
  8
DISTRICTS
 10
652.99110397599986
 20
4682.4534606200004
 30
3.0
  0
VERTEX
  5
926
  8
DISTRICTS
 10
652.96078431399985
 20
4682.348574659999
 30
3.0
  0
VERTEX
  5
927
  8
DISTRICTS
 10
652.93224031099999
 20
4682.25298329
 30
3.0
  0
VERTEX
  5
928
  8
DISTRICTS
 10
652.90084827800001
 20
4682.1527446299979
 30
3.0
  0
VERTEX
  5
929
  8
DISTRICTS
 10
652.86861048499998
 20
4682.0525059700003
 30
3.0
  0
VERTEX
  5
92A
  8
DISTRICTS
 10
652.86056644899975
 20
4682.0263596900004
 30
3.0
  0
VERTEX
  5
92B
  8
DISTRICTS
 10
652.83667915900003
 20
4681.9522673000001
 30
3.0
  0
VERTEX
  5
92C
  8
DISTRICTS
 10
652.80537762599999
 20
4681.8520286399998
 30
3.0
  0
VERTEX
  5
92D
  8
DISTRICTS
 10
652.77540629400005
 20
4681.7517899799977
 30
3.0
  0
VERTEX
  5
92E
  8
DISTRICTS
 10
652.76034858399998
 20
4681.6960804800001
 30
3.0
  0
VERTEX
  5
92F
  8
DISTRICTS
 10
652.74766394899996
 20
4681.6515513099994
 30
3.0
  0
VERTEX
  5
930
  8
DISTRICTS
 10
652.72290491900003
 20
4681.5513126499991
 30
3.0
  0
VERTEX
  5
931
  8
DISTRICTS
 10
652.70190855600003
 20
4681.4510739899988
 30
3.0
  0
VERTEX
  5
932
  8
DISTRICTS
 10
652.68549488400004
 20
4681.3508353200004
 30
3.0
  0
VERTEX
  5
933
  8
DISTRICTS
 10
652.6744352999998
 20
4681.2505966599992
 30
3.0
  0
VERTEX
  5
934
  8
DISTRICTS
 10
652.66945306399998
 20
4681.1503579999999
 30
3.0
  0
VERTEX
  5
935
  8
DISTRICTS
 10
652.67123084800005
 20
4681.0501193299997
 30
3.0
  0
VERTEX
  5
936
  8
DISTRICTS
 10
652.68042682800001
 20
4680.9498806700003
 30
3.0
  0
VERTEX
  5
937
  8
DISTRICTS
 10
652.69770159300003
 20
4680.8496420000001
 30
3.0
  0
VERTEX
  5
938
  8
DISTRICTS
 10
651.55293261499605
 20
4680.8791320976143
 30
3.0
  0
VERTEX
  5
939
  8
DISTRICTS
 10
649.68750332855825
 20
4681.4335932350814
 30
3.0
  0
VERTEX
  5
93A
  8
DISTRICTS
 10
648.86906542280428
 20
4681.7656314956293
 30
3.0
  0
VERTEX
  5
93B
  8
DISTRICTS
 10
648.13427439680299
 20
4682.2903631159561
 30
3.0
  0
SEQEND
  5
93C
  8
DISTRICTS
  0
POLYLINE
  5
2F
  8
DISTRICTS
 66
     1
 10
0.0
 20
0.0
 30
5.0
 70
     1
  0
VERTEX
  5
93D
  8
DISTRICTS
 10
648.86906542280428
 20
4681.7656314956293
 30
5.0
  0
VERTEX
  5
93E
  8
DISTRICTS
 10
649.56186861770789
 20
4680.1284687674006
 30
5.0
  0
VERTEX
  5
93F
  8
DISTRICTS
 10
649.72982070053502
 20
4678.9110913657723
 30
5.0
  0
VERTEX
  5
940
  8
DISTRICTS
 10
649.41491026082019
 20
4677.6517353859772
 30
5.0
  0
VERTEX
  5
941
  8
DISTRICTS
 10
648.13427439680299
 20
4675.4898410374208
 30
5.0
  0
VERTEX
  5
942
  8
DISTRICTS
 10
647.33650105532763
 20
4674.4613669341661
 30
5.0
  0
VERTEX
  5
943
  8
DISTRICTS
 10
647.13819343169291
 20
4674.2193263782192
 30
5.0
  0
VERTEX
  5
944
  8
DISTRICTS
 10
646.24394315853306
 20
4674.7176478042293
 30
5.0
  0
VERTEX
  5
945
  8
DISTRICTS
 10
644.95395861036866
 20
4674.6271432129097
 30
5.0
  0
VERTEX
  5
946
  8
DISTRICTS
 10
643.98445422564214
 20
4674.6989419912652
 30
5.0
  0
VERTEX
  5
947
  8
DISTRICTS
 10
643.73186820533965
 20
4674.7176478042293
 30
5.0
  0
VERTEX
  5
948
  8
DISTRICTS
 10
642.57767156422722
 20
4674.8760309907238
 30
5.0
  0
VERTEX
  5
949
  8
DISTRICTS
 10
642.57085587007145
 20
4677.5257998031657
 30
5.0
  0
VERTEX
  5
94A
  8
DISTRICTS
 10
643.15868872879423
 20
4679.4987908533458
 30
5.0
  0
VERTEX
  5
94B
  8
DISTRICTS
 10
644.01944400652485
 20
4680.968039420598
 30
5.0
  0
VERTEX
  5
94C
  8
DISTRICTS
 10
646.30779350516048
 20
4681.9545349456866
 30
5.0
  0
VERTEX
  5
94D
  8
DISTRICTS
 10
648.04872664022014
 20
4682.2746337717863
 30
5.0
  0
VERTEX
  5
94E
  8
DISTRICTS
 10
648.13427439680299
 20
4682.2903631159561
 30
5.0
  0
SEQEND
  5
94F
  8
DISTRICTS
  0
POLYLINE
  5
30
  8
DISTRICTS
 66
     1
 10
0.0
 20
0.0
 30
14.0
 70
     1
  0
VERTEX
  5
950
  8
DISTRICTS
 10
645.29343349744795
 20
4667.0052878574297
 30
14.0
  0
VERTEX
  5
951
  8
DISTRICTS
 10
644.34210415556845
 20
4667.2940186064889
 30
14.0
  0
VERTEX
  5
952
  8
DISTRICTS
 10
643.396732789
 20
4667.618138419999
 30
14.0
  0
VERTEX
  5
953
  8
DISTRICTS
 10
643.12082300282486
 20
4667.7487882051828
 30
14.0
  0
VERTEX
  5
954
  8
DISTRICTS
 10
642.32872732077794
 20
4668.3823209511647
 30
14.0
  0
VERTEX
  5
955
  8
DISTRICTS
 10
643.07186608368715
 20
4669.8014516976727
 30
14.0
  0
VERTEX
  5
956
  8
DISTRICTS
 10
643.43065077694325
 20
4670.67258819569
 30
14.0
  0
VERTEX
  5
957
  8
DISTRICTS
 10
643.45517477844066
 20
4671.0015309474493
 30
14.0
  0
VERTEX
  5
958
  8
DISTRICTS
 10
644.29765083537336
 20
4670.9164516317151
 30
14.0
  0
VERTEX
  5
959
  8
DISTRICTS
 10
646.15341782396195
 20
4670.5770591108949
 30
14.0
  0
VERTEX
  5
95A
  8
DISTRICTS
 10
647.51755526099976
 20
4670.6252983300001
 30
14.0
  0
VERTEX
  5
95B
  8
DISTRICTS
 10
647.46939432400006
 20
4670.5250596699998
 30
14.0
  0
VERTEX
  5
95C
  8
DISTRICTS
 10
647.44880174299976
 20
4670.4895727700023
 30
14.0
  0
VERTEX
  5
95D
  8
DISTRICTS
 10
647.40956948099995
 20
4670.4248209999996
 30
14.0
  0
VERTEX
  5
95E
  8
DISTRICTS
 10
647.348583878
 20
4670.3389468699988
 30
14.0
  0
VERTEX
  5
95F
  8
DISTRICTS
 10
647.33823495399974
 20
4670.3245823400002
 30
14.0
  0
VERTEX
  5
960
  8
DISTRICTS
 10
647.2483660129999
 20
4670.2289936500001
 30
14.0
  0
VERTEX
  5
961
  8
DISTRICTS
 10
647.14814814800002
 20
4670.1329589999987
 30
14.0
  0
VERTEX
  5
962
  8
DISTRICTS
 10
647.141568334
 20
4670.1241050099998
 30
14.0
  0
VERTEX
  5
963
  8
DISTRICTS
 10
647.08558971800005
 20
4670.0238663500004
 30
14.0
  0
VERTEX
  5
964
  8
DISTRICTS
 10
647.06210410400001
 20
4669.9236276800002
 30
14.0
  0
VERTEX
  5
965
  8
DISTRICTS
 10
647.04793028300003
 20
4669.8817856599999
 30
14.0
  0
VERTEX
  5
966
  8
DISTRICTS
 10
647.02065799299999
 20
4669.8233890199999
 30
14.0
  0
VERTEX
  5
967
  8
DISTRICTS
 10
646.961532154
 20
4669.7231503599978
 30
14.0
  0
VERTEX
  5
968
  8
DISTRICTS
 10
646.94771241800004
 20
4669.7034205500004
 30
14.0
  0
VERTEX
  5
969
  8
DISTRICTS
 10
646.88891381699978
 20
4669.6229116900013
 30
14.0
  0
VERTEX
  5
96A
  8
DISTRICTS
 10
646.84749455300005
 20
4669.5710577399977
 30
14.0
  0
VERTEX
  5
96B
  8
DISTRICTS
 10
646.80833164800003
 20
4669.5226730300001
 30
14.0
  0
VERTEX
  5
96C
  8
DISTRICTS
 10
646.74727668800006
 20
4669.4517076700004
 30
14.0
  0
VERTEX
  5
96D
  8
DISTRICTS
 10
646.72220595600004
 20
4669.4224343699998
 30
14.0
  0
VERTEX
  5
96E
  8
DISTRICTS
 10
646.64705882400006
 20
4669.3380613299996
 30
14.0
  0
VERTEX
  5
96F
  8
DISTRICTS
 10
646.63315090200001
 20
4669.3221956999996
 30
14.0
  0
VERTEX
  5
970
  8
DISTRICTS
 10
646.54684095899995
 20
4669.2245949500011
 30
14.0
  0
VERTEX
  5
971
  8
DISTRICTS
 10
646.45780665500001
 20
4669.1217183799999
 30
14.0
  0
VERTEX
  5
972
  8
DISTRICTS
 10
646.44662309399985
 20
4669.1081206899999
 30
14.0
  0
VERTEX
  5
973
  8
DISTRICTS
 10
646.3735013029999
 20
4669.0214797099989
 30
14.0
  0
VERTEX
  5
974
  8
DISTRICTS
 10
646.34640522899986
 20
4668.9874901599997
 30
14.0
  0
VERTEX
  5
975
  8
DISTRICTS
 10
646.29070135300003
 20
4668.9212410500004
 30
14.0
  0
VERTEX
  5
976
  8
DISTRICTS
 10
646.24618736399975
 20
4668.8655844699997
 30
14.0
  0
VERTEX
  5
977
  8
DISTRICTS
 10
646.20794111600003
 20
4668.8210023900001
 30
14.0
  0
VERTEX
  5
978
  8
DISTRICTS
 10
646.14596949899999
 20
4668.7453228900004
 30
14.0
  0
VERTEX
  5
979
  8
DISTRICTS
 10
646.12403325399998
 20
4668.7207637199981
 30
14.0
  0
VERTEX
  5
97A
  8
DISTRICTS
 10
646.04842454506172
 20
4668.5633272517407
 30
14.0
  0
VERTEX
  5
97B
  8
DISTRICTS
 10
645.98455372063506
 20
4668.435614499338
 30
14.0
  0
VERTEX
  5
97C
  8
DISTRICTS
 10
645.96174259001953
 20
4668.3945639446929
 30
14.0
  0
VERTEX
  5
97D
  8
DISTRICTS
 10
645.93436946081204
 20
4668.3443912131124
 30
14.0
  0
VERTEX
  5
97E
  8
DISTRICTS
 10
645.9115583301965
 20
4668.2805347610656
 30
14.0
  0
VERTEX
  5
97F
  8
DISTRICTS
 10
645.87049844677585
 20
4668.2075561320862
 30
14.0
  0
VERTEX
  5
980
  8
DISTRICTS
 10
645.85224969397098
 20
4668.1619444889729
 30
14.0
  0
VERTEX
  5
981
  8
DISTRICTS
 10
645.82487656476349
 20
4668.1026492770816
 30
14.0
  0
VERTEX
  5
982
  8
DISTRICTS
 10
645.80662762234886
 20
4668.0524763938129
 30
14.0
  0
VERTEX
  5
983
  8
DISTRICTS
 10
645.7883788695442
 20
4668.0114258391704
 30
14.0
  0
VERTEX
  5
984
  8
DISTRICTS
 10
645.77925449314148
 20
4667.9749365246789
 30
14.0
  0
VERTEX
  5
985
  8
DISTRICTS
 10
645.75188117432469
 20
4667.8882743269196
 30
14.0
  0
SEQEND
  5
986
  8
DISTRICTS
  0
POLYLINE
  5
31
  8
DISTRICTS
 66
     1
 10
0.0
 20
0.0
 30
16.0
 70
     1
  0
VERTEX
  5
987
  8
DISTRICTS
 10
643.396732789
 20
4667.618138419999
 30
16.0
  0
VERTEX
  5
988
  8
DISTRICTS
 10
643.35014305499976
 20
4667.5178997599987
 30
16.0
  0
VERTEX
  5
989
  8
DISTRICTS
 10
643.33986928099989
 20
4667.5055903100001
 30
16.0
  0
VERTEX
  5
98A
  8
DISTRICTS
 10
643.23965141600002
 20
4667.4165747300003
 30
16.0
  0
VERTEX
  5
98B
  8
DISTRICTS
 10
643.13943355100002
 20
4667.3696073299998
 30
16.0
  0
VERTEX
  5
98C
  8
DISTRICTS
 10
643.03921568600003
 20
4667.3375419000004
 30
16.0
  0
VERTEX
  5
98D
  8
DISTRICTS
 10
642.95711133099985
 20
4667.3174224300001
 30
16.0
  0
VERTEX
  5
98E
  8
DISTRICTS
 10
642.93899782099993
 20
4667.3142152700002
 30
16.0
  0
VERTEX
  5
98F
  8
DISTRICTS
 10
642.83877995599994
 20
4667.29592331
 30
16.0
  0
VERTEX
  5
990
  8
DISTRICTS
 10
642.73856209199994
 20
4667.2736214400002
 30
16.0
  0
VERTEX
  5
991
  8
DISTRICTS
 10
642.63834422699995
 20
4667.2494238600002
 30
16.0
  0
VERTEX
  5
992
  8
DISTRICTS
 10
642.53812636199984
 20
4667.2278689300001
 30
16.0
  0
VERTEX
  5
993
  8
DISTRICTS
 10
642.479924912
 20
4667.2171837699998
 30
16.0
  0
VERTEX
  5
994
  8
DISTRICTS
 10
642.43790849699985
 20
4667.2103536299992
 30
16.0
  0
VERTEX
  5
995
  8
DISTRICTS
 10
642.33769063199975
 20
4667.1959929699988
 30
16.0
  0
VERTEX
  5
996
  8
DISTRICTS
 10
642.23747276699999
 20
4667.1827404100013
 30
16.0
  0
VERTEX
  5
997
  8
DISTRICTS
 10
642.13725490199988
 20
4667.1697060899987
 30
16.0
  0
VERTEX
  5
998
  8
DISTRICTS
 10
642.037037037
 20
4667.1562129900003
 30
16.0
  0
VERTEX
  5
999
  8
DISTRICTS
 10
641.93681917200001
 20
4667.14171652
 30
16.0
  0
VERTEX
  5
99A
  8
DISTRICTS
 10
641.83660130699991
 20
4667.1256974999997
 30
16.0
  0
VERTEX
  5
99B
  8
DISTRICTS
 10
641.78853573399999
 20
4667.1169451100004
 30
16.0
  0
VERTEX
  5
99C
  8
DISTRICTS
 10
641.73638344199992
 20
4667.1085926699998
 30
16.0
  0
VERTEX
  5
99D
  8
DISTRICTS
 10
641.63616557699993
 20
4667.08993259
 30
16.0
  0
VERTEX
  5
99E
  8
DISTRICTS
 10
641.53594771199994
 20
4667.0678408699978
 30
16.0
  0
VERTEX
  5
99F
  8
DISTRICTS
 10
641.43572984699995
 20
4667.04167581
 30
16.0
  0
VERTEX
  5
9A0
  8
DISTRICTS
 10
641.35305891899975
 20
4667.0167064400002
 30
16.0
  0
VERTEX
  5
9A1
  8
DISTRICTS
 10
641.33551198300006
 20
4667.0118408400003
 30
16.0
  0
VERTEX
  5
9A2
  8
DISTRICTS
 10
641.23529411799996
 20
4666.9805985800003
 30
16.0
  0
VERTEX
  5
9A3
  8
DISTRICTS
 10
641.13507625299997
 20
4666.9450080400002
 30
16.0
  0
VERTEX
  5
9A4
  8
DISTRICTS
 10
641.06331708599976
 20
4666.9164677799999
 30
16.0
  0
VERTEX
  5
9A5
  8
DISTRICTS
 10
641.03485838799998
 20
4666.9058418100003
 30
16.0
  0
VERTEX
  5
9A6
  8
DISTRICTS
 10
640.93464052299987
 20
4666.8645832499978
 30
16.0
  0
VERTEX
  5
9A7
  8
DISTRICTS
 10
640.83121898499996
 20
4666.8162291199997
 30
16.0
  0
VERTEX
  5
9A8
  8
DISTRICTS
 10
640.734204793
 20
4666.7696373400004
 30
16.0
  0
VERTEX
  5
9A9
  8
DISTRICTS
 10
640.6339869279999
 20
4666.7152610399999
 30
16.0
  0
VERTEX
  5
9AA
  8
DISTRICTS
 10
640.53376906300002
 20
4666.658955169999
 30
16.0
  0
VERTEX
  5
9AB
  8
DISTRICTS
 10
640.46449203500003
 20
4666.6157517900001
 30
16.0
  0
VERTEX
  5
9AC
  8
DISTRICTS
 10
640.43355119800003
 20
4666.5968114899979
 30
16.0
  0
VERTEX
  5
9AD
  8
DISTRICTS
 10
640.33333333300004
 20
4666.5302703799998
 30
16.0
  0
VERTEX
  5
9AE
  8
DISTRICTS
 10
640.31248728900005
 20
4666.5155131299998
 30
16.0
  0
VERTEX
  5
9AF
  8
DISTRICTS
 10
640.23311546800005
 20
4666.45935697
 30
16.0
  0
VERTEX
  5
9B0
  8
DISTRICTS
 10
640.175271834
 20
4666.4152744599987
 30
16.0
  0
VERTEX
  5
9B1
  8
DISTRICTS
 10
640.13289760300006
 20
4666.3825631799991
 30
16.0
  0
VERTEX
  5
9B2
  8
DISTRICTS
 10
640.05055611800003
 20
4666.3150358000003
 30
16.0
  0
VERTEX
  5
9B3
  8
DISTRICTS
 10
640.03267973899995
 20
4666.2999579400002
 30
16.0
  0
VERTEX
  5
9B4
  8
DISTRICTS
 10
639.93246187399996
 20
4666.2114997799999
 30
16.0
  0
VERTEX
  5
9B5
  8
DISTRICTS
 10
639.82957181599988
 20
4666.1145584699998
 30
16.0
  0
VERTEX
  5
9B6
  8
DISTRICTS
 10
639.73040261099993
 20
4666.0143198100004
 30
16.0
  0
VERTEX
  5
9B7
  8
DISTRICTS
 10
639.63180827899976
 20
4665.9065148600002
 30
16.0
  0
VERTEX
  5
9B8
  8
DISTRICTS
 10
639.5527584859999
 20
4665.8138424799999
 30
16.0
  0
VERTEX
  5
9B9
  8
DISTRICTS
 10
639.53159041399999
 20
4665.7835602100013
 30
16.0
  0
VERTEX
  5
9BA
  8
DISTRICTS
 10
639.47730276200002
 20
4665.7136038199997
 30
16.0
  0
VERTEX
  5
9BB
  8
DISTRICTS
 10
639.43137254899989
 20
4665.6340921999999
 30
16.0
  0
VERTEX
  5
9BC
  8
DISTRICTS
 10
639.41704826599994
 20
4665.6133651600003
 30
16.0
  0
VERTEX
  5
9BD
  8
DISTRICTS
 10
639.368232111
 20
4665.5131264900001
 30
16.0
  0
VERTEX
  5
9BE
  8
DISTRICTS
 10
639.34014530800005
 20
4665.4128878299998
 30
16.0
  0
VERTEX
  5
9BF
  8
DISTRICTS
 10
639.33115468400001
 20
4665.3491892900001
 30
16.0
  0
VERTEX
  5
9C0
  8
DISTRICTS
 10
639.32502037400002
 20
4665.3126491599987
 30
16.0
  0
VERTEX
  5
9C1
  8
DISTRICTS
 10
639.32056744800002
 20
4665.2124105000003
 30
16.0
  0
VERTEX
  5
9C2
  8
DISTRICTS
 10
639.32483824199994
 20
4665.1121718399991
 30
16.0
  0
VERTEX
  5
9C3
  8
DISTRICTS
 10
639.33115468400001
 20
4665.0510995699988
 30
16.0
  0
VERTEX
  5
9C4
  8
DISTRICTS
 10
639.33425587800002
 20
4665.011933169998
 30
16.0
  0
VERTEX
  5
9C5
  8
DISTRICTS
 10
639.34643605199994
 20
4664.9116945100004
 30
16.0
  0
VERTEX
  5
9C6
  8
DISTRICTS
 10
639.36198091899985
 20
4664.8114558500001
 30
16.0
  0
VERTEX
  5
9C7
  8
DISTRICTS
 10
639.38069071500001
 20
4664.7112171799999
 30
16.0
  0
VERTEX
  5
9C8
  8
DISTRICTS
 10
639.40259359300001
 20
4664.6109785199978
 30
16.0
  0
VERTEX
  5
9C9
  8
DISTRICTS
 10
639.42785435199994
 20
4664.5107398600003
 30
16.0
  0
VERTEX
  5
9CA
  8
DISTRICTS
 10
639.43137254899989
 20
4664.4984433199998
 30
16.0
  0
VERTEX
  5
9CB
  8
DISTRICTS
 10
639.45398892900005
 20
4664.4105011900001
 30
16.0
  0
VERTEX
  5
9CC
  8
DISTRICTS
 10
639.48359312399998
 20
4664.3102625299989
 30
16.0
  0
VERTEX
  5
9CD
  8
DISTRICTS
 10
639.51736350399995
 20
4664.2100238700004
 30
16.0
  0
VERTEX
  5
9CE
  8
DISTRICTS
 10
639.53159041399999
 20
4664.1716787900004
 30
16.0
  0
VERTEX
  5
9CF
  8
DISTRICTS
 10
639.55338074400004
 20
4664.1097851999994
 30
16.0
  0
VERTEX
  5
9D0
  8
DISTRICTS
 10
639.59277592000001
 20
4664.0095465399991
 30
16.0
  0
VERTEX
  5
9D1
  8
DISTRICTS
 10
639.63180827899976
 20
4663.9203094799987
 30
16.0
  0
VERTEX
  5
9D2
  8
DISTRICTS
 10
639.63655761099994
 20
4663.9093078799997
 30
16.0
  0
VERTEX
  5
9D3
  8
DISTRICTS
 10
639.68222590300002
 20
4663.8090692100004
 30
16.0
  0
VERTEX
  5
9D4
  8
DISTRICTS
 10
639.73256678799976
 20
4663.7088305500001
 30
16.0
  0
VERTEX
  5
9D5
  8
DISTRICTS
 10
639.78465317799987
 20
4663.6085918899998
 30
16.0
  0
VERTEX
  5
9D6
  8
DISTRICTS
 10
639.83224400899985
 20
4663.5220329399999
 30
16.0
  0
VERTEX
  5
9D7
  8
DISTRICTS
 10
639.84034722699994
 20
4663.5083532199997
 30
16.0
  0
VERTEX
  5
9D8
  8
DISTRICTS
 10
639.89791489000004
 20
4663.4081145600012
 30
16.0
  0
VERTEX
  5
9D9
  8
DISTRICTS
 10
639.93246187399996
 20
4663.3470655299998
 30
16.0
  0
VERTEX
  5
9DA
  8
DISTRICTS
 10
639.95767394799975
 20
4663.307875890001
 30
16.0
  0
VERTEX
  5
9DB
  8
DISTRICTS
 10
640.01980211
 20
4663.2076372299998
 30
16.0
  0
VERTEX
  5
9DC
  8
DISTRICTS
 10
640.03267973899995
 20
4663.1840747099977
 30
16.0
  0
VERTEX
  5
9DD
  8
DISTRICTS
 10
640.08642283799975
 20
4663.1073985700023
 30
16.0
  0
VERTEX
  5
9DE
  8
DISTRICTS
 10
640.13289760300006
 20
4663.0375403199996
 30
16.0
  0
VERTEX
  5
9DF
  8
DISTRICTS
 10
640.16318655800001
 20
4663.0071599000003
 30
16.0
  0
VERTEX
  5
9E0
  8
DISTRICTS
 10
640.23311546800005
 20
4662.9296019900003
 30
16.0
  0
VERTEX
  5
9E1
  8
DISTRICTS
 10
640.27460659799976
 20
4662.90692124
 30
16.0
  0
VERTEX
  5
9E2
  8
DISTRICTS
 10
640.33333333300004
 20
4662.8696228700001
 30
16.0
  0
VERTEX
  5
9E3
  8
DISTRICTS
 10
640.43355119800003
 20
4662.8470292199991
 30
16.0
  0
VERTEX
  5
9E4
  8
DISTRICTS
 10
640.53376906300002
 20
4662.8408385800012
 30
16.0
  0
VERTEX
  5
9E5
  8
DISTRICTS
 10
640.6339869279999
 20
4662.8417505300013
 30
16.0
  0
VERTEX
  5
9E6
  8
DISTRICTS
 10
640.734204793
 20
4662.8469580700012
 30
16.0
  0
VERTEX
  5
9E7
  8
DISTRICTS
 10
640.83442265799977
 20
4662.8554523499997
 30
16.0
  0
VERTEX
  5
9E8
  8
DISTRICTS
 10
640.93464052299987
 20
4662.8668995099988
 30
16.0
  0
VERTEX
  5
9E9
  8
DISTRICTS
 10
641.03485838799998
 20
4662.8812691900002
 30
16.0
  0
VERTEX
  5
9EA
  8
DISTRICTS
 10
641.13507625299997
 20
4662.8986827899989
 30
16.0
  0
VERTEX
  5
9EB
  8
DISTRICTS
 10
641.17423315099995
 20
4662.90692124
 30
16.0
  0
VERTEX
  5
9EC
  8
DISTRICTS
 10
641.23529411799996
 20
4662.9177383699998
 30
16.0
  0
VERTEX
  5
9ED
  8
DISTRICTS
 10
641.33551198300006
 20
4662.9390603100001
 30
16.0
  0
VERTEX
  5
9EE
  8
DISTRICTS
 10
641.43572984699995
 20
4662.964045929999
 30
16.0
  0
VERTEX
  5
9EF
  8
DISTRICTS
 10
641.53594771199994
 20
4662.9929374499998
 30
16.0
  0
VERTEX
  5
9F0
  8
DISTRICTS
 10
641.57956459800016
 20
4663.0071599000003
 30
16.0
  0
VERTEX
  5
9F1
  8
DISTRICTS
 10
641.63616557699993
 20
4663.0240561800001
 30
16.0
  0
VERTEX
  5
9F2
  8
DISTRICTS
 10
641.73638344199992
 20
4663.0579749299995
 30
16.0
  0
VERTEX
  5
9F3
  8
DISTRICTS
 10
641.83660130699991
 20
4663.0963032700001
 30
16.0
  0
VERTEX
  5
9F4
  8
DISTRICTS
 10
641.86337427599994
 20
4663.1073985700023
 30
16.0
  0
VERTEX
  5
9F5
  8
DISTRICTS
 10
641.93681917200001
 20
4663.1365066300004
 30
16.0
  0
VERTEX
  5
9F6
  8
DISTRICTS
 10
642.037037037
 20
4663.18023034
 30
16.0
  0
VERTEX
  5
9F7
  8
DISTRICTS
 10
642.09545398
 20
4663.2076372299998
 30
16.0
  0
VERTEX
  5
9F8
  8
DISTRICTS
 10
642.13725490199988
 20
4663.2268069100001
 30
16.0
  0
VERTEX
  5
9F9
  8
DISTRICTS
 10
642.23747276699999
 20
4663.2755278000004
 30
16.0
  0
VERTEX
  5
9FA
  8
DISTRICTS
 10
642.30051024599993
 20
4663.307875890001
 30
16.0
  0
VERTEX
  5
9FB
  8
DISTRICTS
 10
642.33769063199975
 20
4663.32676911
 30
16.0
  0
VERTEX
  5
9FC
  8
DISTRICTS
 10
642.43790849699985
 20
4663.3793898000013
 30
16.0
  0
VERTEX
  5
9FD
  8
DISTRICTS
 10
642.491035979
 20
4663.4081145600012
 30
16.0
  0
VERTEX
  5
9FE
  8
DISTRICTS
 10
642.53812636199984
 20
4663.4334310800004
 30
16.0
  0
VERTEX
  5
9FF
  8
DISTRICTS
 10
642.63834422699995
 20
4663.4882991799986
 30
16.0
  0
VERTEX
  5
A00
  8
DISTRICTS
 10
642.67472637800006
 20
4663.5083532199997
 30
16.0
  0
VERTEX
  5
A01
  8
DISTRICTS
 10
642.73856209199994
 20
4663.5432752699999
 30
16.0
  0
VERTEX
  5
A02
  8
DISTRICTS
 10
642.83877995599994
 20
4663.5988194799984
 30
16.0
  0
VERTEX
  5
A03
  8
DISTRICTS
 10
642.85657859399998
 20
4663.6085918899998
 30
16.0
  0
VERTEX
  5
A04
  8
DISTRICTS
 10
642.93899782099993
 20
4663.6534121599998
 30
16.0
  0
VERTEX
  5
A05
  8
DISTRICTS
 10
643.03955137299977
 20
4663.7088305500001
 30
16.0
  0
VERTEX
  5
A06
  8
DISTRICTS
 10
643.13943355100002
 20
4663.7621251600003
 30
16.0
  0
VERTEX
  5
A07
  8
DISTRICTS
 10
643.22743284399996
 20
4663.8090692100004
 30
16.0
  0
VERTEX
  5
A08
  8
DISTRICTS
 10
643.23965141600002
 20
4663.81557066
 30
16.0
  0
VERTEX
  5
A09
  8
DISTRICTS
 10
643.33986928099989
 20
4663.8664939399978
 30
16.0
  0
VERTEX
  5
A0A
  8
DISTRICTS
 10
643.42796672600002
 20
4663.9093078799997
 30
16.0
  0
VERTEX
  5
A0B
  8
DISTRICTS
 10
643.440087146
 20
4663.9151787800001
 30
16.0
  0
VERTEX
  5
A0C
  8
DISTRICTS
 10
643.54030501099976
 20
4663.9590550100002
 30
16.0
  0
VERTEX
  5
A0D
  8
DISTRICTS
 10
643.64052287599986
 20
4663.9980619500002
 30
16.0
  0
VERTEX
  5
A0E
  8
DISTRICTS
 10
643.67495398000005
 20
4664.0095465399991
 30
16.0
  0
VERTEX
  5
A0F
  8
DISTRICTS
 10
643.74074074099985
 20
4664.0306424199998
 30
16.0
  0
VERTEX
  5
A10
  8
DISTRICTS
 10
643.54366718171298
 20
4665.0351245637839
 30
16.0
  0
VERTEX
  5
A11
  8
DISTRICTS
 10
643.33981088062387
 20
4665.833380271195
 30
16.0
  0
VERTEX
  5
A12
  8
DISTRICTS
 10
643.33981088062387
 20
4666.5806837254704
 30
16.0
  0
VERTEX
  5
A13
  8
DISTRICTS
 10
643.44173893636378
 20
4667.2430662016659
 30
16.0
  0
SEQEND
  5
A14
  8
DISTRICTS
  0
POLYLINE
  5
32
  8
DISTRICTS
 66
     1
 10
0.0
 20
0.0
 30
15.0
 70
     1
  0
VERTEX
  5
A15
  8
DISTRICTS
 10
643.396732789
 20
4667.618138419999
 30
15.0
  0
VERTEX
  5
A16
  8
DISTRICTS
 10
644.34210415556845
 20
4667.2940186064889
 30
15.0
  0
VERTEX
  5
A17
  8
DISTRICTS
 10
645.29343349744795
 20
4667.0052878574297
 30
15.0
  0
VERTEX
  5
A18
  8
DISTRICTS
 10
646.05789457912965
 20
4666.2579845548407
 30
15.0
  0
VERTEX
  5
A19
  8
DISTRICTS
 10
646.34669089506735
 20
4665.3238553128422
 30
15.0
  0
VERTEX
  5
A1A
  8
DISTRICTS
 10
646.38066697685019
 20
4664.8143303544894
 30
15.0
  0
VERTEX
  5
A1B
  8
DISTRICTS
 10
646.36663981345225
 20
4664.6339371368967
 30
15.0
  0
VERTEX
  5
A1C
  8
DISTRICTS
 10
646.34640522899986
 20
4664.6315592499996
 30
15.0
  0
VERTEX
  5
A1D
  8
DISTRICTS
 10
646.25412265499995
 20
4664.6109785199978
 30
15.0
  0
VERTEX
  5
A1E
  8
DISTRICTS
 10
646.14596949899999
 20
4664.57797381
 30
15.0
  0
VERTEX
  5
A1F
  8
DISTRICTS
 10
646.04575163399988
 20
4664.5416705300022
 30
15.0
  0
VERTEX
  5
A20
  8
DISTRICTS
 10
645.96391217099995
 20
4664.5107398600003
 30
15.0
  0
VERTEX
  5
A21
  8
DISTRICTS
 10
645.94553376900001
 20
4664.5038692300004
 30
15.0
  0
VERTEX
  5
A22
  8
DISTRICTS
 10
645.84531590400002
 20
4664.4653614899999
 30
15.0
  0
VERTEX
  5
A23
  8
DISTRICTS
 10
645.74509803899991
 20
4664.4297486300002
 30
15.0
  0
VERTEX
  5
A24
  8
DISTRICTS
 10
645.68593537100003
 20
4664.4105011900001
 30
15.0
  0
VERTEX
  5
A25
  8
DISTRICTS
 10
645.64488017400004
 20
4664.3965126700004
 30
15.0
  0
VERTEX
  5
A26
  8
DISTRICTS
 10
645.54466230900005
 20
4664.3648145099978
 30
15.0
  0
VERTEX
  5
A27
  8
DISTRICTS
 10
645.44444444400006
 20
4664.3362667499996
 30
15.0
  0
VERTEX
  5
A28
  8
DISTRICTS
 10
645.34422658000005
 20
4664.3103005700004
 30
15.0
  0
VERTEX
  5
A29
  8
DISTRICTS
 10
645.24400871499995
 20
4664.2838608499997
 30
15.0
  0
VERTEX
  5
A2A
  8
DISTRICTS
 10
645.14379084999985
 20
4664.25941014
 30
15.0
  0
VERTEX
  5
A2B
  8
DISTRICTS
 10
645.04357298499986
 20
4664.2368920999988
 30
15.0
  0
VERTEX
  5
A2C
  8
DISTRICTS
 10
644.94335511999998
 20
4664.2164230500002
 30
15.0
  0
VERTEX
  5
A2D
  8
DISTRICTS
 10
644.90863349699976
 20
4664.2100238700004
 30
15.0
  0
VERTEX
  5
A2E
  8
DISTRICTS
 10
644.84313725499987
 20
4664.1968440099999
 30
15.0
  0
VERTEX
  5
A2F
  8
DISTRICTS
 10
644.74291938999977
 20
4664.1789734699996
 30
15.0
  0
VERTEX
  5
A30
  8
DISTRICTS
 10
644.64270152500001
 20
4664.1634921300001
 30
15.0
  0
VERTEX
  5
A31
  8
DISTRICTS
 10
644.5424836599999
 20
4664.1502125400002
 30
15.0
  0
VERTEX
  5
A32
  8
DISTRICTS
 10
644.44226579500003
 20
4664.1387354999988
 30
15.0
  0
VERTEX
  5
A33
  8
DISTRICTS
 10
644.34204793000004
 20
4664.1284430599999
 30
15.0
  0
VERTEX
  5
A34
  8
DISTRICTS
 10
644.24183006500004
 20
4664.1184997700002
 30
15.0
  0
VERTEX
  5
A35
  8
DISTRICTS
 10
644.15916186799996
 20
4664.1097851999994
 30
15.0
  0
VERTEX
  5
A36
  8
DISTRICTS
 10
644.14161220000005
 20
4664.1077120799982
 30
15.0
  0
VERTEX
  5
A37
  8
DISTRICTS
 10
644.04139433599994
 20
4664.0943428500004
 30
15.0
  0
VERTEX
  5
A38
  8
DISTRICTS
 10
643.94117647099995
 20
4664.0778397100003
 30
15.0
  0
VERTEX
  5
A39
  8
DISTRICTS
 10
643.84095860599984
 20
4664.0569429799989
 30
15.0
  0
VERTEX
  5
A3A
  8
DISTRICTS
 10
643.74074074099985
 20
4664.0306424199998
 30
15.0
  0
VERTEX
  5
A3B
  8
DISTRICTS
 10
643.54366718171298
 20
4665.0351245637839
 30
15.0
  0
VERTEX
  5
A3C
  8
DISTRICTS
 10
643.33981088062387
 20
4665.833380271195
 30
15.0
  0
VERTEX
  5
A3D
  8
DISTRICTS
 10
643.33981088062387
 20
4666.5806837254704
 30
15.0
  0
VERTEX
  5
A3E
  8
DISTRICTS
 10
643.44173893636378
 20
4667.2430662016659
 30
15.0
  0
SEQEND
  5
A3F
  8
DISTRICTS
  0
POLYLINE
  5
33
  8
DISTRICTS
 66
     1
 10
0.0
 20
0.0
 30
12.0
 70
     1
  0
VERTEX
  5
A40
  8
DISTRICTS
 10
650.71761547571293
 20
4669.5256447236898
 30
12.0
  0
VERTEX
  5
A41
  8
DISTRICTS
 10
650.78056501713445
 20
4669.6378336272728
 30
12.0
  0
VERTEX
  5
A42
  8
DISTRICTS
 10
651.18827761931254
 20
4669.9435486629618
 30
12.0
  0
VERTEX
  5
A43
  8
DISTRICTS
 10
651.49755020800001
 20
4670.1241050099998
 30
12.0
  0
VERTEX
  5
A44
  8
DISTRICTS
 10
651.55773420499997
 20
4670.0522972999988
 30
12.0
  0
VERTEX
  5
A45
  8
DISTRICTS
 10
651.58429193300003
 20
4670.0238663500004
 30
12.0
  0
VERTEX
  5
A46
  8
DISTRICTS
 10
651.65795206999985
 20
4669.96461542
 30
12.0
  0
VERTEX
  5
A47
  8
DISTRICTS
 10
651.71247162700001
 20
4669.9236276800002
 30
12.0
  0
VERTEX
  5
A48
  8
DISTRICTS
 10
651.75816993499996
 20
4669.8967544400002
 30
12.0
  0
VERTEX
  5
A49
  8
DISTRICTS
 10
651.85838779999995
 20
4669.8377734899996
 30
12.0
  0
VERTEX
  5
A4A
  8
DISTRICTS
 10
651.88164735700002
 20
4669.8233890199999
 30
12.0
  0
VERTEX
  5
A4B
  8
DISTRICTS
 10
651.95860566399995
 20
4669.7843681799986
 30
12.0
  0
VERTEX
  5
A4C
  8
DISTRICTS
 10
652.05882352900005
 20
4669.7274892699998
 30
12.0
  0
VERTEX
  5
A4D
  8
DISTRICTS
 10
652.15904139400004
 20
4669.67164529
 30
12.0
  0
VERTEX
  5
A4E
  8
DISTRICTS
 10
652.23193211099999
 20
4669.6229116900013
 30
12.0
  0
VERTEX
  5
A4F
  8
DISTRICTS
 10
652.25925925900003
 20
4669.60691881
 30
12.0
  0
VERTEX
  5
A50
  8
DISTRICTS
 10
652.35947712399991
 20
4669.534737
 30
12.0
  0
VERTEX
  5
A51
  8
DISTRICTS
 10
652.37340166199976
 20
4669.5226730300001
 30
12.0
  0
VERTEX
  5
A52
  8
DISTRICTS
 10
652.45969498900001
 20
4669.4530672999999
 30
12.0
  0
VERTEX
  5
A53
  8
DISTRICTS
 10
652.49077438999996
 20
4669.4224343699998
 30
12.0
  0
VERTEX
  5
A54
  8
DISTRICTS
 10
652.559912854
 20
4669.3560635200001
 30
12.0
  0
VERTEX
  5
A55
  8
DISTRICTS
 10
652.58950161999985
 20
4669.3221956999996
 30
12.0
  0
VERTEX
  5
A56
  8
DISTRICTS
 10
652.66013071899988
 20
4669.2389105700004
 30
12.0
  0
VERTEX
  5
A57
  8
DISTRICTS
 10
652.67264859099998
 20
4669.2219570400002
 30
12.0
  0
VERTEX
  5
A58
  8
DISTRICTS
 10
652.74293125799977
 20
4669.1217183799999
 30
12.0
  0
VERTEX
  5
A59
  8
DISTRICTS
 10
652.76034858399998
 20
4669.0938384999999
 30
12.0
  0
VERTEX
  5
A5A
  8
DISTRICTS
 10
652.80234143599978
 20
4669.0214797099989
 30
12.0
  0
VERTEX
  5
A5B
  8
DISTRICTS
 10
652.85030128000005
 20
4668.9212410500004
 30
12.0
  0
VERTEX
  5
A5C
  8
DISTRICTS
 10
652.86056644899975
 20
4668.8952401099987
 30
12.0
  0
VERTEX
  5
A5D
  8
DISTRICTS
 10
652.89024565
 20
4668.8210023900001
 30
12.0
  0
VERTEX
  5
A5E
  8
DISTRICTS
 10
652.92085968100002
 20
4668.7207637199981
 30
12.0
  0
VERTEX
  5
A5F
  8
DISTRICTS
 10
652.94175665599994
 20
4668.6205250599978
 30
12.0
  0
VERTEX
  5
A60
  8
DISTRICTS
 10
652.95390596200002
 20
4668.5202863999984
 30
12.0
  0
VERTEX
  5
A61
  8
DISTRICTS
 10
652.95805639599985
 20
4668.4200477300001
 30
12.0
  0
VERTEX
  5
A62
  8
DISTRICTS
 10
652.95447687000001
 20
4668.319809069998
 30
12.0
  0
VERTEX
  5
A63
  8
DISTRICTS
 10
652.94280277999985
 20
4668.2195704100004
 30
12.0
  0
VERTEX
  5
A64
  8
DISTRICTS
 10
652.92201190200001
 20
4668.1193317400002
 30
12.0
  0
VERTEX
  5
A65
  8
DISTRICTS
 10
652.89049496799998
 20
4668.0190930799999
 30
12.0
  0
VERTEX
  5
A66
  8
DISTRICTS
 10
652.86056644899975
 20
4667.9491319899998
 30
12.0
  0
VERTEX
  5
A67
  8
DISTRICTS
 10
652.848069775
 20
4667.9188544199978
 30
12.0
  0
VERTEX
  5
A68
  8
DISTRICTS
 10
652.79503196600001
 20
4667.8186157500004
 30
12.0
  0
VERTEX
  5
A69
  8
DISTRICTS
 10
652.76034858399998
 20
4667.7661065900002
 30
12.0
  0
VERTEX
  5
A6A
  8
DISTRICTS
 10
652.72709195900006
 20
4667.7183770899992
 30
12.0
  0
VERTEX
  5
A6B
  8
DISTRICTS
 10
652.66013071899988
 20
4667.6380153500004
 30
12.0
  0
VERTEX
  5
A6C
  8
DISTRICTS
 10
652.64158771599978
 20
4667.618138419999
 30
12.0
  0
VERTEX
  5
A6D
  8
DISTRICTS
 10
652.559912854
 20
4667.53926847
 30
12.0
  0
VERTEX
  5
A6E
  8
DISTRICTS
 10
652.53367803900005
 20
4667.5178997599987
 30
12.0
  0
VERTEX
  5
A6F
  8
DISTRICTS
 10
652.45969498900001
 20
4667.459924830001
 30
12.0
  0
VERTEX
  5
A70
  8
DISTRICTS
 10
652.39260078199993
 20
4667.4176611000003
 30
12.0
  0
VERTEX
  5
A71
  8
DISTRICTS
 10
652.35947712399991
 20
4667.3964832700003
 30
12.0
  0
VERTEX
  5
A72
  8
DISTRICTS
 10
652.25925925900003
 20
4667.3439605100002
 30
12.0
  0
VERTEX
  5
A73
  8
DISTRICTS
 10
652.19357662699986
 20
4667.3174224300001
 30
12.0
  0
VERTEX
  5
A74
  8
DISTRICTS
 10
652.15904139400004
 20
4667.3022154600003
 30
12.0
  0
VERTEX
  5
A75
  8
DISTRICTS
 10
652.05882352900005
 20
4667.2671870800004
 30
12.0
  0
VERTEX
  5
A76
  8
DISTRICTS
 10
651.95860566399995
 20
4667.2410017800003
 30
12.0
  0
VERTEX
  5
A77
  8
DISTRICTS
 10
651.85838779999995
 20
4667.22188972
 30
12.0
  0
VERTEX
  5
A78
  8
DISTRICTS
 10
651.82279928800006
 20
4667.2171837699998
 30
12.0
  0
VERTEX
  5
A79
  8
DISTRICTS
 10
651.75816993499996
 20
4667.2070692099978
 30
12.0
  0
VERTEX
  5
A7A
  8
DISTRICTS
 10
651.65795206999985
 20
4667.1970609800001
 30
12.0
  0
VERTEX
  5
A7B
  8
DISTRICTS
 10
651.55773420499997
 20
4667.19167836
 30
12.0
  0
VERTEX
  5
A7C
  8
DISTRICTS
 10
651.45751633999987
 20
4667.1899964499999
 30
12.0
  0
VERTEX
  5
A7D
  8
DISTRICTS
 10
651.35729847499977
 20
4667.1910283999996
 30
12.0
  0
VERTEX
  5
A7E
  8
DISTRICTS
 10
651.25708061
 20
4667.1936083999999
 30
12.0
  0
VERTEX
  5
A7F
  8
DISTRICTS
 10
651.1568627449999
 20
4667.1962836100001
 30
12.0
  0
VERTEX
  5
A80
  8
DISTRICTS
 10
651.05664488000002
 20
4667.1972291700004
 30
12.0
  0
VERTEX
  5
A81
  8
DISTRICTS
 10
650.95642701500003
 20
4667.1942014300002
 30
12.0
  0
VERTEX
  5
A82
  8
DISTRICTS
 10
650.85620915000004
 20
4667.1845427500002
 30
12.0
  0
VERTEX
  5
A83
  8
DISTRICTS
 10
650.40682849673919
 20
4667.803543716529
 30
12.0
  0
VERTEX
  5
A84
  8
DISTRICTS
 10
650.38984045584755
 20
4668.9414828811969
 30
12.0
  0
SEQEND
  5
A85
  8
DISTRICTS
  0
POLYLINE
  5
34
  8
DISTRICTS
 66
     1
 10
0.0
 20
0.0
 30
13.0
 70
     1
  0
VERTEX
  5
A86
  8
DISTRICTS
 10
650.71761547571293
 20
4669.5256447236898
 30
13.0
  0
VERTEX
  5
A87
  8
DISTRICTS
 10
650.38984045584755
 20
4668.9414828811969
 30
13.0
  0
VERTEX
  5
A88
  8
DISTRICTS
 10
650.40682849673919
 20
4667.803543716529
 30
13.0
  0
VERTEX
  5
A89
  8
DISTRICTS
 10
650.85620915000004
 20
4667.1845427500002
 30
13.0
  0
VERTEX
  5
A8A
  8
DISTRICTS
 10
650.75599128500005
 20
4667.1652472100004
 30
13.0
  0
VERTEX
  5
A8B
  8
DISTRICTS
 10
650.65577341999995
 20
4667.1330914
 30
13.0
  0
VERTEX
  5
A8C
  8
DISTRICTS
 10
650.62067969199995
 20
4667.1169451100004
 30
13.0
  0
VERTEX
  5
A8D
  8
DISTRICTS
 10
650.55555555599994
 20
4667.0849856999994
 30
13.0
  0
VERTEX
  5
A8E
  8
DISTRICTS
 10
650.45533769099995
 20
4667.0191302099993
 30
13.0
  0
VERTEX
  5
A8F
  8
DISTRICTS
 10
650.35511982599985
 20
4666.93578015
 30
13.0
  0
VERTEX
  5
A90
  8
DISTRICTS
 10
650.33567074500002
 20
4666.9164677799999
 30
13.0
  0
VERTEX
  5
A91
  8
DISTRICTS
 10
650.25490196099986
 20
4666.83695997
 30
13.0
  0
VERTEX
  5
A92
  8
DISTRICTS
 10
650.23649929700002
 20
4666.8162291199997
 30
13.0
  0
VERTEX
  5
A93
  8
DISTRICTS
 10
650.15468409599976
 20
4666.7268218299987
 30
13.0
  0
VERTEX
  5
A94
  8
DISTRICTS
 10
650.14576055199996
 20
4666.7159904500004
 30
13.0
  0
VERTEX
  5
A95
  8
DISTRICTS
 10
650.05928142799996
 20
4666.6157517900001
 30
13.0
  0
VERTEX
  5
A96
  8
DISTRICTS
 10
649.97484585899997
 20
4666.5155131299998
 30
13.0
  0
VERTEX
  5
A97
  8
DISTRICTS
 10
649.95424836599989
 20
4666.4922408900002
 30
13.0
  0
VERTEX
  5
A98
  8
DISTRICTS
 10
649.88952928799995
 20
4666.4152744599987
 30
13.0
  0
VERTEX
  5
A99
  8
DISTRICTS
 10
649.85403050100001
 20
4666.3754102900002
 30
13.0
  0
VERTEX
  5
A9A
  8
DISTRICTS
 10
649.80210769899975
 20
4666.3150358000003
 30
13.0
  0
VERTEX
  5
A9B
  8
DISTRICTS
 10
649.75381263600002
 20
4666.2619836000003
 30
13.0
  0
VERTEX
  5
A9C
  8
DISTRICTS
 10
649.71171308400005
 20
4666.21479714
 30
13.0
  0
VERTEX
  5
A9D
  8
DISTRICTS
 10
649.65359477100003
 20
4666.1530000000002
 30
13.0
  0
VERTEX
  5
A9E
  8
DISTRICTS
 10
649.61770271199987
 20
4666.1145584699998
 30
13.0
  0
VERTEX
  5
A9F
  8
DISTRICTS
 10
649.55337690600004
 20
4666.0487475600003
 30
13.0
  0
VERTEX
  5
AA0
  8
DISTRICTS
 10
649.51961166599995
 20
4666.0143198100004
 30
13.0
  0
VERTEX
  5
AA1
  8
DISTRICTS
 10
649.45315904099994
 20
4665.9490384799992
 30
13.0
  0
VERTEX
  5
AA2
  8
DISTRICTS
 10
649.41717251900002
 20
4665.9140811500001
 30
13.0
  0
VERTEX
  5
AA3
  8
DISTRICTS
 10
649.35294117599994
 20
4665.8534105500003
 30
13.0
  0
VERTEX
  5
AA4
  8
DISTRICTS
 10
649.31038891499975
 20
4665.8138424799999
 30
13.0
  0
VERTEX
  5
AA5
  8
DISTRICTS
 10
649.25272331199994
 20
4665.761246449998
 30
13.0
  0
VERTEX
  5
AA6
  8
DISTRICTS
 10
649.19962938799995
 20
4665.7136038199997
 30
13.0
  0
VERTEX
  5
AA7
  8
DISTRICTS
 10
649.15250544699995
 20
4665.6718332299988
 30
13.0
  0
VERTEX
  5
AA8
  8
DISTRICTS
 10
649.08566726900006
 20
4665.6133651600003
 30
13.0
  0
VERTEX
  5
AA9
  8
DISTRICTS
 10
649.05228758199985
 20
4665.5843989699997
 30
13.0
  0
VERTEX
  5
AAA
  8
DISTRICTS
 10
648.96955808999985
 20
4665.5131264900001
 30
13.0
  0
VERTEX
  5
AAB
  8
DISTRICTS
 10
648.95206971699974
 20
4665.4981745799978
 30
13.0
  0
VERTEX
  5
AAC
  8
DISTRICTS
 10
648.85227586500002
 20
4665.4128878299998
 30
13.0
  0
VERTEX
  5
AAD
  8
DISTRICTS
 10
648.75163398699988
 20
4665.3267573499988
 30
13.0
  0
VERTEX
  5
AAE
  8
DISTRICTS
 10
648.73536556199986
 20
4665.3126491599987
 30
13.0
  0
VERTEX
  5
AAF
  8
DISTRICTS
 10
648.651416122
 20
4665.2416884800004
 30
13.0
  0
VERTEX
  5
AB0
  8
DISTRICTS
 10
648.61713423900005
 20
4665.2124105000003
 30
13.0
  0
VERTEX
  5
AB1
  8
DISTRICTS
 10
648.55119825700001
 20
4665.1581763900003
 30
13.0
  0
VERTEX
  5
AB2
  8
DISTRICTS
 10
648.49513165300004
 20
4665.1121718399991
 30
13.0
  0
VERTEX
  5
AB3
  8
DISTRICTS
 10
648.45098039199991
 20
4665.07755017
 30
13.0
  0
VERTEX
  5
AB4
  8
DISTRICTS
 10
648.365161199
 20
4665.011933169998
 30
13.0
  0
VERTEX
  5
AB5
  8
DISTRICTS
 10
648.35076252699992
 20
4665.0014102200003
 30
13.0
  0
VERTEX
  5
AB6
  8
DISTRICTS
 10
648.25054466199992
 20
4664.9303430500004
 30
13.0
  0
VERTEX
  5
AB7
  8
DISTRICTS
 10
648.22255679099976
 20
4664.9116945100004
 30
13.0
  0
VERTEX
  5
AB8
  8
DISTRICTS
 10
648.15032679699993
 20
4664.8652583599978
 30
13.0
  0
VERTEX
  5
AB9
  8
DISTRICTS
 10
648.05616789800001
 20
4664.8114558500001
 30
13.0
  0
VERTEX
  5
ABA
  8
DISTRICTS
 10
647.94989106800006
 20
4664.75574899
 30
13.0
  0
VERTEX
  5
ABB
  8
DISTRICTS
 10
647.84967320299995
 20
4664.7126093799989
 30
13.0
  0
VERTEX
  5
ABC
  8
DISTRICTS
 10
647.74945533799996
 20
4664.673677079998
 30
13.0
  0
VERTEX
  5
ABD
  8
DISTRICTS
 10
647.64923747300008
 20
4664.64292269
 30
13.0
  0
VERTEX
  5
ABE
  8
DISTRICTS
 10
647.54901960799987
 20
4664.6201082500002
 30
13.0
  0
VERTEX
  5
ABF
  8
DISTRICTS
 10
647.49066182299998
 20
4664.6109785199978
 30
13.0
  0
VERTEX
  5
AC0
  8
DISTRICTS
 10
647.44880174299976
 20
4664.6034653399993
 30
13.0
  0
VERTEX
  5
AC1
  8
DISTRICTS
 10
647.348583878
 20
4664.5928347999989
 30
13.0
  0
VERTEX
  5
AC2
  8
DISTRICTS
 10
647.2483660129999
 20
4664.5892933699979
 30
13.0
  0
VERTEX
  5
AC3
  8
DISTRICTS
 10
647.14814814800002
 20
4664.5921665799988
 30
13.0
  0
VERTEX
  5
AC4
  8
DISTRICTS
 10
647.04793028300003
 20
4664.6004090899996
 30
13.0
  0
VERTEX
  5
AC5
  8
DISTRICTS
 10
646.95875580599977
 20
4664.6109785199978
 30
13.0
  0
VERTEX
  5
AC6
  8
DISTRICTS
 10
646.94771241800004
 20
4664.612262579999
 30
13.0
  0
VERTEX
  5
AC7
  8
DISTRICTS
 10
646.84749455300005
 20
4664.6247709500003
 30
13.0
  0
VERTEX
  5
AC8
  8
DISTRICTS
 10
646.74727668800006
 20
4664.6363118899981
 30
13.0
  0
VERTEX
  5
AC9
  8
DISTRICTS
 10
646.64705882400006
 20
4664.6438087400002
 30
13.0
  0
VERTEX
  5
ACA
  8
DISTRICTS
 10
646.54684095899995
 20
4664.6461233399978
 30
13.0
  0
VERTEX
  5
ACB
  8
DISTRICTS
 10
646.44662309399985
 20
4664.6433364499999
 30
13.0
  0
VERTEX
  5
ACC
  8
DISTRICTS
 10
646.36663981345225
 20
4664.6339371368967
 30
13.0
  0
VERTEX
  5
ACD
  8
DISTRICTS
 10
646.38066697685019
 20
4664.8143303544894
 30
13.0
  0
VERTEX
  5
ACE
  8
DISTRICTS
 10
646.34669089506735
 20
4665.3238553128422
 30
13.0
  0
VERTEX
  5
ACF
  8
DISTRICTS
 10
646.05789457912965
 20
4666.2579845548407
 30
13.0
  0
VERTEX
  5
AD0
  8
DISTRICTS
 10
645.29343349744795
 20
4667.0052878574297
 30
13.0
  0
VERTEX
  5
AD1
  8
DISTRICTS
 10
645.75188117432469
 20
4667.8882743269196
 30
13.0
  0
VERTEX
  5
AD2
  8
DISTRICTS
 10
645.77925449314148
 20
4667.9749365246789
 30
13.0
  0
VERTEX
  5
AD3
  8
DISTRICTS
 10
645.7883788695442
 20
4668.0114258391704
 30
13.0
  0
VERTEX
  5
AD4
  8
DISTRICTS
 10
645.80662762234886
 20
4668.0524763938129
 30
13.0
  0
VERTEX
  5
AD5
  8
DISTRICTS
 10
645.82487656476349
 20
4668.1026492770816
 30
13.0
  0
VERTEX
  5
AD6
  8
DISTRICTS
 10
645.85224969397098
 20
4668.1619444889729
 30
13.0
  0
VERTEX
  5
AD7
  8
DISTRICTS
 10
645.87049844677585
 20
4668.2075561320862
 30
13.0
  0
VERTEX
  5
AD8
  8
DISTRICTS
 10
645.9115583301965
 20
4668.2805347610656
 30
13.0
  0
VERTEX
  5
AD9
  8
DISTRICTS
 10
645.93436946081204
 20
4668.3443912131124
 30
13.0
  0
VERTEX
  5
ADA
  8
DISTRICTS
 10
645.96174259001953
 20
4668.3945639446929
 30
13.0
  0
VERTEX
  5
ADB
  8
DISTRICTS
 10
645.98455372063506
 20
4668.435614499338
 30
13.0
  0
VERTEX
  5
ADC
  8
DISTRICTS
 10
646.04842454506172
 20
4668.5633272517407
 30
13.0
  0
VERTEX
  5
ADD
  8
DISTRICTS
 10
646.12403325399998
 20
4668.7207637199981
 30
13.0
  0
VERTEX
  5
ADE
  8
DISTRICTS
 10
646.14596949899999
 20
4668.7453228900004
 30
13.0
  0
VERTEX
  5
ADF
  8
DISTRICTS
 10
646.20794111600003
 20
4668.8210023900001
 30
13.0
  0
VERTEX
  5
AE0
  8
DISTRICTS
 10
646.24618736399975
 20
4668.8655844699997
 30
13.0
  0
VERTEX
  5
AE1
  8
DISTRICTS
 10
646.29070135300003
 20
4668.9212410500004
 30
13.0
  0
VERTEX
  5
AE2
  8
DISTRICTS
 10
646.34640522899986
 20
4668.9874901599997
 30
13.0
  0
VERTEX
  5
AE3
  8
DISTRICTS
 10
646.3735013029999
 20
4669.0214797099989
 30
13.0
  0
VERTEX
  5
AE4
  8
DISTRICTS
 10
646.44662309399985
 20
4669.1081206899999
 30
13.0
  0
VERTEX
  5
AE5
  8
DISTRICTS
 10
646.45780665500001
 20
4669.1217183799999
 30
13.0
  0
VERTEX
  5
AE6
  8
DISTRICTS
 10
646.54684095899995
 20
4669.2245949500011
 30
13.0
  0
VERTEX
  5
AE7
  8
DISTRICTS
 10
646.63315090200001
 20
4669.3221956999996
 30
13.0
  0
VERTEX
  5
AE8
  8
DISTRICTS
 10
646.64705882400006
 20
4669.3380613299996
 30
13.0
  0
VERTEX
  5
AE9
  8
DISTRICTS
 10
646.72220595600004
 20
4669.4224343699998
 30
13.0
  0
VERTEX
  5
AEA
  8
DISTRICTS
 10
646.74727668800006
 20
4669.4517076700004
 30
13.0
  0
VERTEX
  5
AEB
  8
DISTRICTS
 10
646.80833164800003
 20
4669.5226730300001
 30
13.0
  0
VERTEX
  5
AEC
  8
DISTRICTS
 10
646.84749455300005
 20
4669.5710577399977
 30
13.0
  0
VERTEX
  5
AED
  8
DISTRICTS
 10
646.88891381699978
 20
4669.6229116900013
 30
13.0
  0
VERTEX
  5
AEE
  8
DISTRICTS
 10
646.94771241800004
 20
4669.7034205500004
 30
13.0
  0
VERTEX
  5
AEF
  8
DISTRICTS
 10
646.961532154
 20
4669.7231503599978
 30
13.0
  0
VERTEX
  5
AF0
  8
DISTRICTS
 10
647.02065799299999
 20
4669.8233890199999
 30
13.0
  0
VERTEX
  5
AF1
  8
DISTRICTS
 10
647.04793028300003
 20
4669.8817856599999
 30
13.0
  0
VERTEX
  5
AF2
  8
DISTRICTS
 10
647.06210410400001
 20
4669.9236276800002
 30
13.0
  0
VERTEX
  5
AF3
  8
DISTRICTS
 10
647.08558971800005
 20
4670.0238663500004
 30
13.0
  0
VERTEX
  5
AF4
  8
DISTRICTS
 10
647.141568334
 20
4670.1241050099998
 30
13.0
  0
VERTEX
  5
AF5
  8
DISTRICTS
 10
647.14814814800002
 20
4670.1329589999987
 30
13.0
  0
VERTEX
  5
AF6
  8
DISTRICTS
 10
647.2483660129999
 20
4670.2289936500001
 30
13.0
  0
VERTEX
  5
AF7
  8
DISTRICTS
 10
647.33823495399974
 20
4670.3245823400002
 30
13.0
  0
VERTEX
  5
AF8
  8
DISTRICTS
 10
647.348583878
 20
4670.3389468699988
 30
13.0
  0
VERTEX
  5
AF9
  8
DISTRICTS
 10
647.40956948099995
 20
4670.4248209999996
 30
13.0
  0
VERTEX
  5
AFA
  8
DISTRICTS
 10
647.44880174299976
 20
4670.4895727700023
 30
13.0
  0
VERTEX
  5
AFB
  8
DISTRICTS
 10
647.46939432400006
 20
4670.5250596699998
 30
13.0
  0
VERTEX
  5
AFC
  8
DISTRICTS
 10
647.51755526099976
 20
4670.6252983300001
 30
13.0
  0
VERTEX
  5
AFD
  8
DISTRICTS
 10
647.9295699735319
 20
4670.3103357767568
 30
13.0
  0
VERTEX
  5
AFE
  8
DISTRICTS
 10
648.52147032991854
 20
4670.1385328058741
 30
13.0
  0
VERTEX
  5
AFF
  8
DISTRICTS
 10
648.96062223170361
 20
4670.2148896649678
 30
13.0
  0
VERTEX
  5
B00
  8
DISTRICTS
 10
649.59070970174071
 20
4670.043086694086
 30
13.0
  0
SEQEND
  5
B01
  8
DISTRICTS
  0
POLYLINE
  5
35
  8
DISTRICTS
 66
     1
 10
0.0
 20
0.0
 30
9.0
 70
     1
  0
VERTEX
  5
B02
  8
DISTRICTS
 10
649.65359477100003
 20
4673.1459618700001
 30
9.0
  0
VERTEX
  5
B03
  8
DISTRICTS
 10
647.62445266204975
 20
4673.9483581712693
 30
9.0
  0
VERTEX
  5
B04
  8
DISTRICTS
 10
647.13819343169291
 20
4674.2193263782192
 30
9.0
  0
VERTEX
  5
B05
  8
DISTRICTS
 10
646.24394315853306
 20
4674.7176478042293
 30
9.0
  0
VERTEX
  5
B06
  8
DISTRICTS
 10
644.95395861036866
 20
4674.6271432129097
 30
9.0
  0
VERTEX
  5
B07
  8
DISTRICTS
 10
643.98445422564214
 20
4674.6989419912652
 30
9.0
  0
VERTEX
  5
B08
  8
DISTRICTS
 10
643.75449958638455
 20
4673.5184609074431
 30
9.0
  0
VERTEX
  5
B09
  8
DISTRICTS
 10
643.64134306037806
 20
4672.5907880879886
 30
9.0
  0
VERTEX
  5
B0A
  8
DISTRICTS
 10
643.46029258084525
 20
4671.4594796346901
 30
9.0
  0
VERTEX
  5
B0B
  8
DISTRICTS
 10
643.45517477844066
 20
4671.0015309474493
 30
9.0
  0
VERTEX
  5
B0C
  8
DISTRICTS
 10
644.29765083537336
 20
4670.9164516317151
 30
9.0
  0
VERTEX
  5
B0D
  8
DISTRICTS
 10
646.15341782396195
 20
4670.5770591108949
 30
9.0
  0
VERTEX
  5
B0E
  8
DISTRICTS
 10
647.51755526099976
 20
4670.6252983300001
 30
9.0
  0
VERTEX
  5
B0F
  8
DISTRICTS
 10
647.54901960799987
 20
4670.6991906699977
 30
9.0
  0
VERTEX
  5
B10
  8
DISTRICTS
 10
647.55910849999975
 20
4670.7255369900004
 30
9.0
  0
VERTEX
  5
B11
  8
DISTRICTS
 10
647.59351184599996
 20
4670.8257756599996
 30
9.0
  0
VERTEX
  5
B12
  8
DISTRICTS
 10
647.62512955599993
 20
4670.926014319999
 30
9.0
  0
VERTEX
  5
B13
  8
DISTRICTS
 10
647.64923747300008
 20
4671.0129178099978
 30
9.0
  0
VERTEX
  5
B14
  8
DISTRICTS
 10
647.65234424199991
 20
4671.0262529800002
 30
9.0
  0
VERTEX
  5
B15
  8
DISTRICTS
 10
647.67000857900007
 20
4671.1264916500004
 30
9.0
  0
VERTEX
  5
B16
  8
DISTRICTS
 10
647.68374878400004
 20
4671.2267303099989
 30
9.0
  0
VERTEX
  5
B17
  8
DISTRICTS
 10
647.72093607399995
 20
4671.3269689699982
 30
9.0
  0
VERTEX
  5
B18
  8
DISTRICTS
 10
647.74945533799996
 20
4671.3710747699988
 30
9.0
  0
VERTEX
  5
B19
  8
DISTRICTS
 10
647.78896123599998
 20
4671.4272076399984
 30
9.0
  0
VERTEX
  5
B1A
  8
DISTRICTS
 10
647.84967320299995
 20
4671.506912339999
 30
9.0
  0
VERTEX
  5
B1B
  8
DISTRICTS
 10
647.86555289499995
 20
4671.5274462999978
 30
9.0
  0
VERTEX
  5
B1C
  8
DISTRICTS
 10
647.93434677000005
 20
4671.627684959999
 30
9.0
  0
VERTEX
  5
B1D
  8
DISTRICTS
 10
647.94989106800006
 20
4671.6497279300002
 30
9.0
  0
VERTEX
  5
B1E
  8
DISTRICTS
 10
647.99667350799996
 20
4671.7279236300001
 30
9.0
  0
VERTEX
  5
B1F
  8
DISTRICTS
 10
648.05010893199994
 20
4671.8092484700001
 30
9.0
  0
VERTEX
  5
B20
  8
DISTRICTS
 10
648.06062896399976
 20
4671.8281622900004
 30
9.0
  0
VERTEX
  5
B21
  8
DISTRICTS
 10
648.12350029200002
 20
4671.9284009499997
 30
9.0
  0
VERTEX
  5
B22
  8
DISTRICTS
 10
648.15032679699993
 20
4671.9654536899998
 30
9.0
  0
VERTEX
  5
B23
  8
DISTRICTS
 10
648.18996370499985
 20
4672.0286396199999
 30
9.0
  0
VERTEX
  5
B24
  8
DISTRICTS
 10
648.25054466199992
 20
4672.1102702600001
 30
9.0
  0
VERTEX
  5
B25
  8
DISTRICTS
 10
648.26277404999985
 20
4672.1288782800002
 30
9.0
  0
VERTEX
  5
B26
  8
DISTRICTS
 10
648.34071172599999
 20
4672.2291169500004
 30
9.0
  0
VERTEX
  5
B27
  8
DISTRICTS
 10
648.35076252699992
 20
4672.2402603500004
 30
9.0
  0
VERTEX
  5
B28
  8
DISTRICTS
 10
648.42571665599985
 20
4672.3293556099979
 30
9.0
  0
VERTEX
  5
B29
  8
DISTRICTS
 10
648.45098039199991
 20
4672.3550579999992
 30
9.0
  0
VERTEX
  5
B2A
  8
DISTRICTS
 10
648.52224003900005
 20
4672.4295942700001
 30
9.0
  0
VERTEX
  5
B2B
  8
DISTRICTS
 10
648.55119825700001
 20
4672.4560656000003
 30
9.0
  0
VERTEX
  5
B2C
  8
DISTRICTS
 10
648.63356480699974
 20
4672.5298329400002
 30
9.0
  0
VERTEX
  5
B2D
  8
DISTRICTS
 10
648.651416122
 20
4672.5442972099991
 30
9.0
  0
VERTEX
  5
B2E
  8
DISTRICTS
 10
648.75163398699988
 20
4672.6214883399989
 30
9.0
  0
VERTEX
  5
B2F
  8
DISTRICTS
 10
648.76373569299994
 20
4672.6300715999987
 30
9.0
  0
VERTEX
  5
B30
  8
DISTRICTS
 10
648.85185185199998
 20
4672.6905334700004
 30
9.0
  0
VERTEX
  5
B31
  8
DISTRICTS
 10
648.91783574699991
 20
4672.730310259999
 30
9.0
  0
VERTEX
  5
B32
  8
DISTRICTS
 10
648.95206971699974
 20
4672.7512875199991
 30
9.0
  0
VERTEX
  5
B33
  8
DISTRICTS
 10
649.05228758199985
 20
4672.8080844200003
 30
9.0
  0
VERTEX
  5
B34
  8
DISTRICTS
 10
649.09452174900002
 20
4672.8305489300001
 30
9.0
  0
VERTEX
  5
B35
  8
DISTRICTS
 10
649.15250544699995
 20
4672.8656582000003
 30
9.0
  0
VERTEX
  5
B36
  8
DISTRICTS
 10
649.19944191800005
 20
4672.9307875900004
 30
9.0
  0
VERTEX
  5
B37
  8
DISTRICTS
 10
649.25272331199994
 20
4672.9716745699989
 30
9.0
  0
VERTEX
  5
B38
  8
DISTRICTS
 10
649.35294117599994
 20
4672.9668909599977
 30
9.0
  0
VERTEX
  5
B39
  8
DISTRICTS
 10
649.45315904099994
 20
4673.0112825300002
 30
9.0
  0
VERTEX
  5
B3A
  8
DISTRICTS
 10
649.49002651499995
 20
4673.0310262499997
 30
9.0
  0
VERTEX
  5
B3B
  8
DISTRICTS
 10
649.55337690600004
 20
4673.06990812
 30
9.0
  0
VERTEX
  5
B3C
  8
DISTRICTS
 10
649.63618440599987
 20
4673.1312649199999
 30
9.0
  0
SEQEND
  5
B3D
  8
DISTRICTS
  0
POLYLINE
  5
36
  8
DISTRICTS
 66
     1
 10
0.0
 20
0.0
 30
11.0
 70
     1
  0
VERTEX
  5
B3E
  8
DISTRICTS
 10
649.65359477100003
 20
4673.1459618700001
 30
11.0
  0
VERTEX
  5
B3F
  8
DISTRICTS
 10
649.63618440599987
 20
4673.1312649199999
 30
11.0
  0
VERTEX
  5
B40
  8
DISTRICTS
 10
649.55337690600004
 20
4673.06990812
 30
11.0
  0
VERTEX
  5
B41
  8
DISTRICTS
 10
649.49002651499995
 20
4673.0310262499997
 30
11.0
  0
VERTEX
  5
B42
  8
DISTRICTS
 10
649.45315904099994
 20
4673.0112825300002
 30
11.0
  0
VERTEX
  5
B43
  8
DISTRICTS
 10
649.35294117599994
 20
4672.9668909599977
 30
11.0
  0
VERTEX
  5
B44
  8
DISTRICTS
 10
649.25272331199994
 20
4672.9716745699989
 30
11.0
  0
VERTEX
  5
B45
  8
DISTRICTS
 10
649.19944191800005
 20
4672.9307875900004
 30
11.0
  0
VERTEX
  5
B46
  8
DISTRICTS
 10
649.15250544699995
 20
4672.8656582000003
 30
11.0
  0
VERTEX
  5
B47
  8
DISTRICTS
 10
649.09452174900002
 20
4672.8305489300001
 30
11.0
  0
VERTEX
  5
B48
  8
DISTRICTS
 10
649.05228758199985
 20
4672.8080844200003
 30
11.0
  0
VERTEX
  5
B49
  8
DISTRICTS
 10
648.95206971699974
 20
4672.7512875199991
 30
11.0
  0
VERTEX
  5
B4A
  8
DISTRICTS
 10
648.91783574699991
 20
4672.730310259999
 30
11.0
  0
VERTEX
  5
B4B
  8
DISTRICTS
 10
648.85185185199998
 20
4672.6905334700004
 30
11.0
  0
VERTEX
  5
B4C
  8
DISTRICTS
 10
648.76373569299994
 20
4672.6300715999987
 30
11.0
  0
VERTEX
  5
B4D
  8
DISTRICTS
 10
648.75163398699988
 20
4672.6214883399989
 30
11.0
  0
VERTEX
  5
B4E
  8
DISTRICTS
 10
648.651416122
 20
4672.5442972099991
 30
11.0
  0
VERTEX
  5
B4F
  8
DISTRICTS
 10
648.63356480699974
 20
4672.5298329400002
 30
11.0
  0
VERTEX
  5
B50
  8
DISTRICTS
 10
648.55119825700001
 20
4672.4560656000003
 30
11.0
  0
VERTEX
  5
B51
  8
DISTRICTS
 10
648.52224003900005
 20
4672.4295942700001
 30
11.0
  0
VERTEX
  5
B52
  8
DISTRICTS
 10
648.45098039199991
 20
4672.3550579999992
 30
11.0
  0
VERTEX
  5
B53
  8
DISTRICTS
 10
648.42571665599985
 20
4672.3293556099979
 30
11.0
  0
VERTEX
  5
B54
  8
DISTRICTS
 10
648.35076252699992
 20
4672.2402603500004
 30
11.0
  0
VERTEX
  5
B55
  8
DISTRICTS
 10
648.34071172599999
 20
4672.2291169500004
 30
11.0
  0
VERTEX
  5
B56
  8
DISTRICTS
 10
648.26277404999985
 20
4672.1288782800002
 30
11.0
  0
VERTEX
  5
B57
  8
DISTRICTS
 10
648.25054466199992
 20
4672.1102702600001
 30
11.0
  0
VERTEX
  5
B58
  8
DISTRICTS
 10
648.18996370499985
 20
4672.0286396199999
 30
11.0
  0
VERTEX
  5
B59
  8
DISTRICTS
 10
648.15032679699993
 20
4671.9654536899998
 30
11.0
  0
VERTEX
  5
B5A
  8
DISTRICTS
 10
648.12350029200002
 20
4671.9284009499997
 30
11.0
  0
VERTEX
  5
B5B
  8
DISTRICTS
 10
648.06062896399976
 20
4671.8281622900004
 30
11.0
  0
VERTEX
  5
B5C
  8
DISTRICTS
 10
648.05010893199994
 20
4671.8092484700001
 30
11.0
  0
VERTEX
  5
B5D
  8
DISTRICTS
 10
647.99667350799996
 20
4671.7279236300001
 30
11.0
  0
VERTEX
  5
B5E
  8
DISTRICTS
 10
647.94989106800006
 20
4671.6497279300002
 30
11.0
  0
VERTEX
  5
B5F
  8
DISTRICTS
 10
647.93434677000005
 20
4671.627684959999
 30
11.0
  0
VERTEX
  5
B60
  8
DISTRICTS
 10
647.86555289499995
 20
4671.5274462999978
 30
11.0
  0
VERTEX
  5
B61
  8
DISTRICTS
 10
647.84967320299995
 20
4671.506912339999
 30
11.0
  0
VERTEX
  5
B62
  8
DISTRICTS
 10
647.78896123599998
 20
4671.4272076399984
 30
11.0
  0
VERTEX
  5
B63
  8
DISTRICTS
 10
647.74945533799996
 20
4671.3710747699988
 30
11.0
  0
VERTEX
  5
B64
  8
DISTRICTS
 10
647.72093607399995
 20
4671.3269689699982
 30
11.0
  0
VERTEX
  5
B65
  8
DISTRICTS
 10
647.68374878400004
 20
4671.2267303099989
 30
11.0
  0
VERTEX
  5
B66
  8
DISTRICTS
 10
647.67000857900007
 20
4671.1264916500004
 30
11.0
  0
VERTEX
  5
B67
  8
DISTRICTS
 10
647.65234424199991
 20
4671.0262529800002
 30
11.0
  0
VERTEX
  5
B68
  8
DISTRICTS
 10
647.64923747300008
 20
4671.0129178099978
 30
11.0
  0
VERTEX
  5
B69
  8
DISTRICTS
 10
647.62512955599993
 20
4670.926014319999
 30
11.0
  0
VERTEX
  5
B6A
  8
DISTRICTS
 10
647.59351184599996
 20
4670.8257756599996
 30
11.0
  0
VERTEX
  5
B6B
  8
DISTRICTS
 10
647.55910849999975
 20
4670.7255369900004
 30
11.0
  0
VERTEX
  5
B6C
  8
DISTRICTS
 10
647.54901960799987
 20
4670.6991906699977
 30
11.0
  0
VERTEX
  5
B6D
  8
DISTRICTS
 10
647.51755526099976
 20
4670.6252983300001
 30
11.0
  0
VERTEX
  5
B6E
  8
DISTRICTS
 10
647.9295699735319
 20
4670.3103357767568
 30
11.0
  0
VERTEX
  5
B6F
  8
DISTRICTS
 10
648.52147032991854
 20
4670.1385328058741
 30
11.0
  0
VERTEX
  5
B70
  8
DISTRICTS
 10
648.96062223170361
 20
4670.2148896649678
 30
11.0
  0
VERTEX
  5
B71
  8
DISTRICTS
 10
649.59070970174071
 20
4670.043086694086
 30
11.0
  0
VERTEX
  5
B72
  8
DISTRICTS
 10
650.71761547571293
 20
4669.5256447236898
 30
11.0
  0
VERTEX
  5
B73
  8
DISTRICTS
 10
650.78056501713445
 20
4669.6378336272728
 30
11.0
  0
VERTEX
  5
B74
  8
DISTRICTS
 10
651.18827761931254
 20
4669.9435486629618
 30
11.0
  0
VERTEX
  5
B75
  8
DISTRICTS
 10
651.49755020800001
 20
4670.1241050099998
 30
11.0
  0
VERTEX
  5
B76
  8
DISTRICTS
 10
651.45751633999987
 20
4670.1926867599987
 30
11.0
  0
VERTEX
  5
B77
  8
DISTRICTS
 10
651.44134418699991
 20
4670.2243436799999
 30
11.0
  0
VERTEX
  5
B78
  8
DISTRICTS
 10
651.40668751700002
 20
4670.3245823400002
 30
11.0
  0
VERTEX
  5
B79
  8
DISTRICTS
 10
651.385791971
 20
4670.4248209999996
 30
11.0
  0
VERTEX
  5
B7A
  8
DISTRICTS
 10
651.37424854899996
 20
4670.5250596699998
 30
11.0
  0
VERTEX
  5
B7B
  8
DISTRICTS
 10
651.36888411400002
 20
4670.6252983300001
 30
11.0
  0
VERTEX
  5
B7C
  8
DISTRICTS
 10
651.36733148799999
 20
4670.7255369900004
 30
11.0
  0
VERTEX
  5
B7D
  8
DISTRICTS
 10
651.36779794099994
 20
4670.8257756599996
 30
11.0
  0
VERTEX
  5
B7E
  8
DISTRICTS
 10
651.36892690499985
 20
4670.926014319999
 30
11.0
  0
VERTEX
  5
B7F
  8
DISTRICTS
 10
651.36971446500002
 20
4671.0262529800002
 30
11.0
  0
VERTEX
  5
B80
  8
DISTRICTS
 10
651.36947042300005
 20
4671.1264916500004
 30
11.0
  0
VERTEX
  5
B81
  8
DISTRICTS
 10
651.36780519499985
 20
4671.2267303099989
 30
11.0
  0
VERTEX
  5
B82
  8
DISTRICTS
 10
651.36460670600002
 20
4671.3269689699982
 30
11.0
  0
VERTEX
  5
B83
  8
DISTRICTS
 10
651.35999941499995
 20
4671.4272076399984
 30
11.0
  0
VERTEX
  5
B84
  8
DISTRICTS
 10
651.35729847499977
 20
4671.4747721200001
 30
11.0
  0
VERTEX
  5
B85
  8
DISTRICTS
 10
651.35461923299977
 20
4671.5274462999978
 30
11.0
  0
VERTEX
  5
B86
  8
DISTRICTS
 10
651.34899184199992
 20
4671.627684959999
 30
11.0
  0
VERTEX
  5
B87
  8
DISTRICTS
 10
651.34358067300002
 20
4671.7279236300001
 30
11.0
  0
VERTEX
  5
B88
  8
DISTRICTS
 10
651.33951747599986
 20
4671.8281622900004
 30
11.0
  0
VERTEX
  5
B89
  8
DISTRICTS
 10
651.33843355299996
 20
4671.9284009499997
 30
11.0
  0
VERTEX
  5
B8A
  8
DISTRICTS
 10
651.34257220400002
 20
4672.0286396199999
 30
11.0
  0
VERTEX
  5
B8B
  8
DISTRICTS
 10
651.35487132599985
 20
4672.1288782800002
 30
11.0
  0
VERTEX
  5
B8C
  8
DISTRICTS
 10
651.35729847499977
 20
4672.1393210799979
 30
11.0
  0
VERTEX
  5
B8D
  8
DISTRICTS
 10
651.37901373900002
 20
4672.2291169500004
 30
11.0
  0
VERTEX
  5
B8E
  8
DISTRICTS
 10
651.41761451900004
 20
4672.3293556099979
 30
11.0
  0
VERTEX
  5
B8F
  8
DISTRICTS
 10
650.71722983884308
 20
4672.5246860556563
 30
11.0
  0
VERTEX
  5
B90
  8
DISTRICTS
 10
650.18261024773687
 20
4672.77284588563
 30
11.0
  0
VERTEX
  5
B91
  8
DISTRICTS
 10
649.81983257325271
 20
4673.0019166145967
 30
11.0
  0
SEQEND
  5
B92
  8
DISTRICTS
  0
POLYLINE
  5
37
  8
DISTRICTS
 66
     1
 10
0.0
 20
0.0
 30
10.0
 70
     1
  0
VERTEX
  5
B93
  8
DISTRICTS
 10
651.41761451900004
 20
4672.3293556099979
 30
10.0
  0
VERTEX
  5
B94
  8
DISTRICTS
 10
651.45751633999987
 20
4672.4013345000003
 30
10.0
  0
VERTEX
  5
B95
  8
DISTRICTS
 10
651.47240911699976
 20
4672.4295942700001
 30
10.0
  0
VERTEX
  5
B96
  8
DISTRICTS
 10
651.54038643800004
 20
4672.5298329400002
 30
10.0
  0
VERTEX
  5
B97
  8
DISTRICTS
 10
651.55773420499997
 20
4672.5506002399998
 30
10.0
  0
VERTEX
  5
B98
  8
DISTRICTS
 10
651.61568284799978
 20
4672.6300715999987
 30
10.0
  0
VERTEX
  5
B99
  8
DISTRICTS
 10
651.65795206999985
 20
4672.6819685399996
 30
10.0
  0
VERTEX
  5
B9A
  8
DISTRICTS
 10
651.69188318999988
 20
4672.730310259999
 30
10.0
  0
VERTEX
  5
B9B
  8
DISTRICTS
 10
651.76326331599978
 20
4672.8305489300001
 30
10.0
  0
VERTEX
  5
B9C
  8
DISTRICTS
 10
651.82739611500017
 20
4672.9307875900004
 30
10.0
  0
VERTEX
  5
B9D
  8
DISTRICTS
 10
651.85838779999995
 20
4672.9848465499999
 30
10.0
  0
VERTEX
  5
B9E
  8
DISTRICTS
 10
651.88253368899996
 20
4673.0310262499997
 30
10.0
  0
VERTEX
  5
B9F
  8
DISTRICTS
 10
651.92871386499996
 20
4673.1312649199999
 30
10.0
  0
VERTEX
  5
BA0
  8
DISTRICTS
 10
651.95860566399995
 20
4673.2150272700001
 30
10.0
  0
VERTEX
  5
BA1
  8
DISTRICTS
 10
651.96444921400007
 20
4673.2315035800011
 30
10.0
  0
VERTEX
  5
BA2
  8
DISTRICTS
 10
651.9935941309999
 20
4673.3317422399996
 30
10.0
  0
VERTEX
  5
BA3
  8
DISTRICTS
 10
652.01301693399978
 20
4673.4319809099998
 30
10.0
  0
VERTEX
  5
BA4
  8
DISTRICTS
 10
652.02352132700003
 20
4673.5322195700001
 30
10.0
  0
VERTEX
  5
BA5
  8
DISTRICTS
 10
652.02587417699999
 20
4673.6324582300012
 30
10.0
  0
VERTEX
  5
BA6
  8
DISTRICTS
 10
652.02069081599996
 20
4673.7326968999987
 30
10.0
  0
VERTEX
  5
BA7
  8
DISTRICTS
 10
652.00866762099997
 20
4673.8329355599999
 30
10.0
  0
VERTEX
  5
BA8
  8
DISTRICTS
 10
651.99108966300003
 20
4673.9331742200002
 30
10.0
  0
VERTEX
  5
BA9
  8
DISTRICTS
 10
651.96940037000002
 20
4674.0334128900004
 30
10.0
  0
VERTEX
  5
BAA
  8
DISTRICTS
 10
651.95860566399995
 20
4674.0709257300014
 30
10.0
  0
VERTEX
  5
BAB
  8
DISTRICTS
 10
651.94670458300004
 20
4674.1336515499997
 30
10.0
  0
VERTEX
  5
BAC
  8
DISTRICTS
 10
651.91348101400001
 20
4674.23389021
 30
10.0
  0
VERTEX
  5
BAD
  8
DISTRICTS
 10
651.85838779999995
 20
4674.31183599
 30
10.0
  0
VERTEX
  5
BAE
  8
DISTRICTS
 10
651.84155303599994
 20
4674.3341288800002
 30
10.0
  0
VERTEX
  5
BAF
  8
DISTRICTS
 10
651.75816993499996
 20
4674.40515142
 30
10.0
  0
VERTEX
  5
BB0
  8
DISTRICTS
 10
651.68194862600001
 20
4674.4343675399987
 30
10.0
  0
VERTEX
  5
BB1
  8
DISTRICTS
 10
651.65795206999985
 20
4674.44640445
 30
10.0
  0
VERTEX
  5
BB2
  8
DISTRICTS
 10
651.55773420499997
 20
4674.4730155200004
 30
10.0
  0
VERTEX
  5
BB3
  8
DISTRICTS
 10
651.45751633999987
 20
4674.4836552500001
 30
10.0
  0
VERTEX
  5
BB4
  8
DISTRICTS
 10
651.35729847499977
 20
4674.4866580099988
 30
10.0
  0
VERTEX
  5
BB5
  8
DISTRICTS
 10
651.25708061
 20
4674.485192099999
 30
10.0
  0
VERTEX
  5
BB6
  8
DISTRICTS
 10
651.1568627449999
 20
4674.4788644099999
 30
10.0
  0
VERTEX
  5
BB7
  8
DISTRICTS
 10
651.05664488000002
 20
4674.4658963800002
 30
10.0
  0
VERTEX
  5
BB8
  8
DISTRICTS
 10
650.95642701500003
 20
4674.444337179998
 30
10.0
  0
VERTEX
  5
BB9
  8
DISTRICTS
 10
650.92308319999995
 20
4674.4343675399987
 30
10.0
  0
VERTEX
  5
BBA
  8
DISTRICTS
 10
650.85620915000004
 20
4674.4157435099987
 30
10.0
  0
VERTEX
  5
BBB
  8
DISTRICTS
 10
650.75599128500005
 20
4674.3771001300001
 30
10.0
  0
VERTEX
  5
BBC
  8
DISTRICTS
 10
650.67168179199996
 20
4674.3341288800002
 30
10.0
  0
VERTEX
  5
BBD
  8
DISTRICTS
 10
650.65577341999995
 20
4674.3257770199989
 30
10.0
  0
VERTEX
  5
BBE
  8
DISTRICTS
 10
650.55555555599994
 20
4674.2639527499978
 30
10.0
  0
VERTEX
  5
BBF
  8
DISTRICTS
 10
650.51333737100003
 20
4674.23389021
 30
10.0
  0
VERTEX
  5
BC0
  8
DISTRICTS
 10
650.45533769099995
 20
4674.187622219998
 30
10.0
  0
VERTEX
  5
BC1
  8
DISTRICTS
 10
650.39280184799986
 20
4674.1336515499997
 30
10.0
  0
VERTEX
  5
BC2
  8
DISTRICTS
 10
650.35511982599985
 20
4674.0956526399996
 30
10.0
  0
VERTEX
  5
BC3
  8
DISTRICTS
 10
650.29355315500004
 20
4674.0334128900004
 30
10.0
  0
VERTEX
  5
BC4
  8
DISTRICTS
 10
650.25490196099986
 20
4673.9869710499979
 30
10.0
  0
VERTEX
  5
BC5
  8
DISTRICTS
 10
650.20773879000001
 20
4673.9331742200002
 30
10.0
  0
VERTEX
  5
BC6
  8
DISTRICTS
 10
650.15468409599976
 20
4673.8618454799998
 30
10.0
  0
VERTEX
  5
BC7
  8
DISTRICTS
 10
650.13133801900005
 20
4673.8329355599999
 30
10.0
  0
VERTEX
  5
BC8
  8
DISTRICTS
 10
650.06098621599995
 20
4673.7326968999987
 30
10.0
  0
VERTEX
  5
BC9
  8
DISTRICTS
 10
650.05446623099999
 20
4673.7221657099999
 30
10.0
  0
VERTEX
  5
BCA
  8
DISTRICTS
 10
649.99252230900004
 20
4673.6324582300012
 30
10.0
  0
VERTEX
  5
BCB
  8
DISTRICTS
 10
649.95424836599989
 20
4673.5672861099993
 30
10.0
  0
VERTEX
  5
BCC
  8
DISTRICTS
 10
649.93042875000003
 20
4673.5322195700001
 30
10.0
  0
VERTEX
  5
BCD
  8
DISTRICTS
 10
649.87043154200001
 20
4673.4319809099998
 30
10.0
  0
VERTEX
  5
BCE
  8
DISTRICTS
 10
649.85403050100001
 20
4673.4011793099999
 30
10.0
  0
VERTEX
  5
BCF
  8
DISTRICTS
 10
649.80710339300003
 20
4673.3317422399996
 30
10.0
  0
VERTEX
  5
BD0
  8
DISTRICTS
 10
649.75381263600002
 20
4673.2532970399998
 30
10.0
  0
VERTEX
  5
BD1
  8
DISTRICTS
 10
649.73493224399976
 20
4673.2315035800011
 30
10.0
  0
VERTEX
  5
BD2
  8
DISTRICTS
 10
649.65359477100003
 20
4673.1459618700001
 30
10.0
  0
VERTEX
  5
BD3
  8
DISTRICTS
 10
649.81983257325271
 20
4673.0019166145967
 30
10.0
  0
VERTEX
  5
BD4
  8
DISTRICTS
 10
650.18261024773687
 20
4672.77284588563
 30
10.0
  0
VERTEX
  5
BD5
  8
DISTRICTS
 10
650.71722983884308
 20
4672.5246860556563
 30
10.0
  0
SEQEND
  5
BD6
  8
DISTRICTS
  0
ENDSEC
  0
EOF
