  0
SECTION
  2
HEADER
  9
$ACADVER
  1
AC1009
  9
$INSBASE
 10
0.0
 20
0.0
 30
0.0
  9
$EXTMIN
 10
629.52036854026767
 20
4661.3312748105391
 30
5.0
  9
$EXTMAX
 10
667.30932267212688
 20
4696.4093698386041
 30
5.0
  9
$LIMMIN
 10
0.0
 20
0.0
  9
$LIMMAX
 10
12.0
 20
9.0
  9
$ORTHOMODE
 70
     0
  9
$REGENMODE
 70
     1
  9
$FILLMODE
 70
     1
  9
$QTEXTMODE
 70
     0
  9
$MIRRTEXT
 70
     1
  9
$DRAGMODE
 70
     2
  9
$LTSCALE
 40
1.0
  9
$OSMODE
 70
   613
  9
$ATTMODE
 70
     1
  9
$TEXTSIZE
 40
0.5
  9
$TRACEWID
 40
0.05
  9
$TEXTSTYLE
  7
STANDARD
  9
$CLAYER
  8
CONTOURS
  9
$CELTYPE
  6
BYLAYER
  9
$CECOLOR
 62
   256
  9
$DIMSCALE
 40
1.0
  9
$DIMASZ
 40
0.18
  9
$DIMEXO
 40
0.0625
  9
$DIMDLI
 40
0.38
  9
$DIMRND
 40
0.0
  9
$DIMDLE
 40
0.0
  9
$DIMEXE
 40
0.18
  9
$DIMTP
 40
0.0
  9
$DIMTM
 40
0.0
  9
$DIMTXT
 40
0.18
  9
$DIMCEN
 40
0.09
  9
$DIMTSZ
 40
0.0
  9
$DIMTOL
 70
     0
  9
$DIMLIM
 70
     0
  9
$DIMTIH
 70
     1
  9
$DIMTOH
 70
     1
  9
$DIMSE1
 70
     0
  9
$DIMSE2
 70
     0
  9
$DIMTAD
 70
     0
  9
$DIMZIN
 70
     0
  9
$DIMBLK
  1

  9
$DIMASO
 70
     1
  9
$DIMSHO
 70
     1
  9
$DIMPOST
  1

  9
$DIMAPOST
  1

  9
$DIMALT
 70
     0
  9
$DIMALTD
 70
     2
  9
$DIMALTF
 40
25.399999999999999
  9
$DIMLFAC
 40
1.0
  9
$DIMTOFL
 70
     0
  9
$DIMTVP
 40
0.0
  9
$DIMTIX
 70
     0
  9
$DIMSOXD
 70
     0
  9
$DIMSAH
 70
     0
  9
$DIMBLK1
  1

  9
$DIMBLK2
  1

  9
$DIMSTYLE
  2
STANDARD
  9
$DIMCLRD
 70
     0
  9
$DIMCLRE
 70
     0
  9
$DIMCLRT
 70
     0
  9
$DIMTFAC
 40
1.0
  9
$DIMGAP
 40
0.09
  9
$LUNITS
 70
     2
  9
$LUPREC
 70
     4
  9
$SKETCHINC
 40
0.1
  9
$FILLETRAD
 40
0.5
  9
$AUNITS
 70
     0
  9
$AUPREC
 70
     0
  9
$MENU
  1
.
  9
$ELEVATION
 40
0.0
  9
$PELEVATION
 40
0.0
  9
$THICKNESS
 40
0.0
  9
$LIMCHECK
 70
     0
  9
$BLIPMODE
 70
     0
  9
$CHAMFERA
 40
0.5
  9
$CHAMFERB
 40
0.5
  9
$SKPOLY
 70
     0
  9
$TDCREATE
 40
2454381.8473497801
  9
$TDUPDATE
 40
2455808.6488693641
  9
$TDINDWG
 40
0.1108323148
  9
$TDUSRTIMER
 40
0.1108321296
  9
$USRTIMER
 70
     1
  9
$ANGBASE
 50
0.0
  9
$ANGDIR
 70
     1
  9
$PDMODE
 70
    66
  9
$PDSIZE
 40
0.0
  9
$PLINEWID
 40
0.0
  9
$COORDS
 70
     1
  9
$SPLFRAME
 70
     0
  9
$SPLINETYPE
 70
     6
  9
$SPLINESEGS
 70
     8
  9
$ATTDIA
 70
     0
  9
$ATTREQ
 70
     1
  9
$HANDLING
 70
     1
  9
$HANDSEED
  5
6DA
  9
$SURFTAB1
 70
     6
  9
$SURFTAB2
 70
     6
  9
$SURFTYPE
 70
     6
  9
$SURFU
 70
     6
  9
$SURFV
 70
     6
  9
$UCSNAME
  2

  9
$UCSORG
 10
0.0
 20
0.0
 30
0.0
  9
$UCSXDIR
 10
1.0
 20
0.0
 30
0.0
  9
$UCSYDIR
 10
0.0
 20
1.0
 30
0.0
  9
$PUCSNAME
  2

  9
$PUCSORG
 10
0.0
 20
0.0
 30
0.0
  9
$PUCSXDIR
 10
1.0
 20
0.0
 30
0.0
  9
$PUCSYDIR
 10
0.0
 20
1.0
 30
0.0
  9
$USERI1
 70
     0
  9
$USERI2
 70
     0
  9
$USERI3
 70
     0
  9
$USERI4
 70
     0
  9
$USERI5
 70
     0
  9
$USERR1
 40
0.0
  9
$USERR2
 40
0.0
  9
$USERR3
 40
0.0
  9
$USERR4
 40
0.0
  9
$USERR5
 40
0.0
  9
$WORLDVIEW
 70
     1
  9
$SHADEDGE
 70
     3
  9
$SHADEDIF
 70
    70
  9
$TILEMODE
 70
     1
  9
$MAXACTVP
 70
    64
  9
$PLIMCHECK
 70
     0
  9
$PEXTMIN
 10
0.0
 20
0.0
 30
0.0
  9
$PEXTMAX
 10
0.0
 20
0.0
 30
0.0
  9
$PLIMMIN
 10
0.0
 20
0.0
  9
$PLIMMAX
 10
12.0
 20
9.0
  9
$UNITMODE
 70
     0
  9
$VISRETAIN
 70
     1
  9
$PLINEGEN
 70
     0
  9
$PSLTSCALE
 70
     1
  0
ENDSEC
  0
SECTION
  2
TABLES
  0
TABLE
  2
VPORT
 70
     1
  0
VPORT
  2
*ACTIVE
 70
     0
 10
0.0
 20
0.0
 11
1.0
 21
1.0
 12
648.08623228303099
 22
4693.5592664736432
 13
0.0
 23
0.0
 14
0.5
 24
0.5
 15
0.5
 25
0.5
 16
0.0
 26
0.0
 36
1.0
 17
0.0
 27
0.0
 37
0.0
 40
72.189295168084854
 41
1.336206896551724
 42
50.0
 43
0.0
 44
0.0
 50
0.0
 51
0.0
 71
     0
 72
   100
 73
     1
 74
     2
 75
     0
 76
     0
 77
     0
 78
     0
  0
ENDTAB
  0
TABLE
  2
LTYPE
 70
     1
  0
LTYPE
  2
CONTINUOUS
 70
     0
  3
Solid line
 72
    65
 73
     0
 40
0.0
  0
ENDTAB
  0
TABLE
  2
LAYER
 70
     3
  0
LAYER
  2
0
 70
     0
 62
    -7
  6
CONTINUOUS
  0
LAYER
  2
CONTOURS
 70
     0
 62
    -5
  6
CONTINUOUS
  0
LAYER
  2
CLUSTERS
 70
     0
 62
     6
  6
CONTINUOUS
  0
ENDTAB
  0
TABLE
  2
STYLE
 70
     3
  0
STYLE
  2
STANDARD
 70
     0
 40
0.0
 41
1.0
 50
0.0
 71
     0
 42
0.5
  3
txt
  4

  0
STYLE
  2
ANNOTATIVE
 70
     0
 40
0.0
 41
1.0
 50
0.0
 71
     0
 42
0.2
  3
txt
  4

  0
STYLE
  2
LEGEND
 70
     0
 40
0.0
 41
1.0
 50
0.0
 71
     0
 42
0.5
  3
txt
  4

  0
ENDTAB
  0
TABLE
  2
VIEW
 70
     0
  0
ENDTAB
  0
TABLE
  2
UCS
 70
     0
  0
ENDTAB
  0
TABLE
  2
APPID
 70
     7
  0
APPID
  2
ACAD
 70
     0
  0
APPID
  2
ACADANNOTATIVE
 70
     0
  0
APPID
  2
ADE
 70
     0
  0
APPID
  2
ACMAPDMDISPLAYSTYLEREGAPP
 70
     0
  0
APPID
  2
MAPGWS
 70
     0
  0
APPID
  2
DCO15
 70
     0
  0
APPID
  2
ACAD_MLEADERVER
 70
     0
  0
ENDTAB
  0
TABLE
  2
DIMSTYLE
 70
     2
  0
DIMSTYLE
  2
STANDARD
 70
     0
  3

  4

  5

  6

  7

 40
1.0
 41
0.18
 42
0.0625
 43
0.38
 44
0.18
 45
0.0
 46
0.0
 47
0.0
 48
0.0
140
0.18
141
0.09
142
0.0
143
25.399999999999999
144
1.0
145
0.0
146
1.0
147
0.09
 71
     0
 72
     0
 73
     1
 74
     1
 75
     0
 76
     0
 77
     0
 78
     0
170
     0
171
     2
172
     0
173
     0
174
     0
175
     0
176
     0
177
     0
178
     0
  0
DIMSTYLE
  2
ANNOTATIVE
 70
     0
  3

  4

  5

  6

  7

 40
1.0
 41
0.18
 42
0.0625
 43
0.38
 44
0.18
 45
0.0
 46
0.0
 47
0.0
 48
0.0
140
0.18
141
0.09
142
0.0
143
25.399999999999999
144
1.0
145
0.0
146
1.0
147
0.09
 71
     0
 72
     0
 73
     1
 74
     1
 75
     0
 76
     0
 77
     0
 78
     0
170
     0
171
     2
172
     0
173
     0
174
     0
175
     0
176
     0
177
     0
178
     0
  0
ENDTAB
  0
ENDSEC
  0
SECTION
  2
BLOCKS
  0
BLOCK
  8
0
  2
$MODEL_SPACE
 70
     0
 10
0.0
 20
0.0
 30
0.0
  3
$MODEL_SPACE
  1

  0
ENDBLK
  5
39C
  8
0
  0
BLOCK
 67
     1
  8
0
  2
$PAPER_SPACE
 70
     0
 10
0.0
 20
0.0
 30
0.0
  3
$PAPER_SPACE
  1

  0
ENDBLK
  5
398
 67
     1
  8
0
  0
ENDSEC
  0
SECTION
  2
ENTITIES
  0
POLYLINE
  5
28
  8
CLUSTERS
 66
     1
 10
0.0
 20
0.0
 30
5.0
 70
   129
  0
VERTEX
  5
3D7
  8
CLUSTERS
 10
655.49105396300001
 20
4695.5847255400004
 30
5.0
  0
VERTEX
  5
3D8
  8
CLUSTERS
 10
655.46623093699998
 20
4695.6049167899992
 30
5.0
  0
VERTEX
  5
3D9
  8
CLUSTERS
 10
655.39199845199994
 20
4695.6849641999979
 30
5.0
  0
VERTEX
  5
3DA
  8
CLUSTERS
 10
655.37247966099994
 20
4695.78520286
 30
5.0
  0
VERTEX
  5
3DB
  8
CLUSTERS
 10
655.38558255400005
 20
4695.8854415300002
 30
5.0
  0
VERTEX
  5
3DC
  8
CLUSTERS
 10
655.46623093699998
 20
4695.9782412599989
 30
5.0
  0
VERTEX
  5
3DD
  8
CLUSTERS
 10
655.46839300800002
 20
4695.9856801899978
 30
5.0
  0
VERTEX
  5
3DE
  8
CLUSTERS
 10
655.56644880199985
 20
4696.0788732999999
 30
5.0
  0
VERTEX
  5
3DF
  8
CLUSTERS
 10
655.66666666699984
 20
4696.0678395699997
 30
5.0
  0
VERTEX
  5
3E0
  8
CLUSTERS
 10
655.75927250799998
 20
4695.9856801899978
 30
5.0
  0
VERTEX
  5
3E1
  8
CLUSTERS
 10
655.76688453199995
 20
4695.9835692200004
 30
5.0
  0
VERTEX
  5
3E2
  8
CLUSTERS
 10
655.77603892100001
 20
4695.9856801899978
 30
5.0
  0
VERTEX
  5
3E3
  8
CLUSTERS
 10
655.86710239699994
 20
4696.0650650300004
 30
5.0
  0
VERTEX
  5
3E4
  8
CLUSTERS
 10
655.896689391
 20
4696.0859188499999
 30
5.0
  0
VERTEX
  5
3E5
  8
CLUSTERS
 10
655.96732026099994
 20
4696.1544670200001
 30
5.0
  0
VERTEX
  5
3E6
  8
CLUSTERS
 10
656.01558080199993
 20
4696.1861575200001
 30
5.0
  0
VERTEX
  5
3E7
  8
CLUSTERS
 10
656.04489716300009
 20
4696.2863961800003
 30
5.0
  0
VERTEX
  5
3E8
  8
CLUSTERS
 10
656.06753812599993
 20
4696.3098843300004
 30
5.0
  0
VERTEX
  5
3E9
  8
CLUSTERS
 10
656.16775599100004
 20
4696.3840289399977
 30
5.0
  0
VERTEX
  5
3EA
  8
CLUSTERS
 10
656.26797385599991
 20
4696.3799104600012
 30
5.0
  0
VERTEX
  5
3EB
  8
CLUSTERS
 10
656.36170030999995
 20
4696.2863961800003
 30
5.0
  0
VERTEX
  5
3EC
  8
CLUSTERS
 10
656.36272833299995
 20
4696.1861575200001
 30
5.0
  0
VERTEX
  5
3ED
  8
CLUSTERS
 10
656.31812991300001
 20
4696.0859188499999
 30
5.0
  0
VERTEX
  5
3EE
  8
CLUSTERS
 10
656.26797385599991
 20
4696.0339623399977
 30
5.0
  0
VERTEX
  5
3EF
  8
CLUSTERS
 10
656.25942318599994
 20
4695.9856801899978
 30
5.0
  0
VERTEX
  5
3F0
  8
CLUSTERS
 10
656.22534891099986
 20
4695.8854415300002
 30
5.0
  0
VERTEX
  5
3F1
  8
CLUSTERS
 10
656.16775599100004
 20
4695.8257776600003
 30
5.0
  0
VERTEX
  5
3F2
  8
CLUSTERS
 10
656.06753812599993
 20
4695.8329336000006
 30
5.0
  0
VERTEX
  5
3F3
  8
CLUSTERS
 10
655.96732026099994
 20
4695.8492228100004
 30
5.0
  0
VERTEX
  5
3F4
  8
CLUSTERS
 10
655.89099407499975
 20
4695.78520286
 30
5.0
  0
VERTEX
  5
3F5
  8
CLUSTERS
 10
655.86710239699994
 20
4695.7470854800004
 30
5.0
  0
VERTEX
  5
3F6
  8
CLUSTERS
 10
655.85970992099999
 20
4695.6849641999979
 30
5.0
  0
VERTEX
  5
3F7
  8
CLUSTERS
 10
655.76868726700002
 20
4695.5847255400004
 30
5.0
  0
VERTEX
  5
3F8
  8
CLUSTERS
 10
655.76688453199995
 20
4695.5829800700012
 30
5.0
  0
VERTEX
  5
3F9
  8
CLUSTERS
 10
655.66666666699984
 20
4695.4921192100001
 30
5.0
  0
VERTEX
  5
3FA
  8
CLUSTERS
 10
655.56644880199985
 20
4695.5181549299987
 30
5.0
  0
VERTEX
  5
3FB
  8
CLUSTERS
 10
655.49105396300001
 20
4695.5847255400004
 30
5.0
  0
SEQEND
  5
3FC
  8
CLUSTERS
  0
POLYLINE
  5
2A
  8
CLUSTERS
 66
     1
 10
0.0
 20
0.0
 30
5.0
 70
   129
  0
VERTEX
  5
3FD
  8
CLUSTERS
 10
648.38229786300008
 20
4693.5799522699999
 30
5.0
  0
VERTEX
  5
3FE
  8
CLUSTERS
 10
648.35076252699992
 20
4693.6066286400001
 30
5.0
  0
VERTEX
  5
3FF
  8
CLUSTERS
 10
648.27620287399975
 20
4693.6801909300002
 30
5.0
  0
VERTEX
  5
400
  8
CLUSTERS
 10
648.25054466199992
 20
4693.7626128299989
 30
5.0
  0
VERTEX
  5
401
  8
CLUSTERS
 10
648.23496911199993
 20
4693.7804295899987
 30
5.0
  0
VERTEX
  5
402
  8
CLUSTERS
 10
648.25054466199992
 20
4693.7967517400002
 30
5.0
  0
VERTEX
  5
403
  8
CLUSTERS
 10
648.35076252699992
 20
4693.8779113800001
 30
5.0
  0
VERTEX
  5
404
  8
CLUSTERS
 10
648.44860651900001
 20
4693.7804295899987
 30
5.0
  0
VERTEX
  5
405
  8
CLUSTERS
 10
648.42481867000004
 20
4693.6801909300002
 30
5.0
  0
VERTEX
  5
406
  8
CLUSTERS
 10
648.45098039199991
 20
4693.6492120399989
 30
5.0
  0
VERTEX
  5
407
  8
CLUSTERS
 10
648.55119825700001
 20
4693.6682874300004
 30
5.0
  0
VERTEX
  5
408
  8
CLUSTERS
 10
648.651416122
 20
4693.6432257399993
 30
5.0
  0
VERTEX
  5
409
  8
CLUSTERS
 10
648.71470239999985
 20
4693.5799522699999
 30
5.0
  0
VERTEX
  5
40A
  8
CLUSTERS
 10
648.651416122
 20
4693.5143814899993
 30
5.0
  0
VERTEX
  5
40B
  8
CLUSTERS
 10
648.55119825700001
 20
4693.4889505600004
 30
5.0
  0
VERTEX
  5
40C
  8
CLUSTERS
 10
648.45098039199991
 20
4693.5114092000003
 30
5.0
  0
VERTEX
  5
40D
  8
CLUSTERS
 10
648.38229786300008
 20
4693.5799522699999
 30
5.0
  0
SEQEND
  5
40E
  8
CLUSTERS
  0
POLYLINE
  5
2B
  8
CLUSTERS
 66
     1
 10
0.0
 20
0.0
 30
5.0
 70
   129
  0
VERTEX
  5
40F
  8
CLUSTERS
 10
630.940195324
 20
4693.5799522699999
 30
5.0
  0
VERTEX
  5
410
  8
CLUSTERS
 10
630.91285403099994
 20
4693.58326614
 30
5.0
  0
VERTEX
  5
411
  8
CLUSTERS
 10
630.85887320500001
 20
4693.6801909300002
 30
5.0
  0
VERTEX
  5
412
  8
CLUSTERS
 10
630.91285403099994
 20
4693.73446212
 30
5.0
  0
VERTEX
  5
413
  8
CLUSTERS
 10
631.01307189500005
 20
4693.73511951
 30
5.0
  0
VERTEX
  5
414
  8
CLUSTERS
 10
631.11328976000004
 20
4693.76165812
 30
5.0
  0
VERTEX
  5
415
  8
CLUSTERS
 10
631.21350762500003
 20
4693.7654189699988
 30
5.0
  0
VERTEX
  5
416
  8
CLUSTERS
 10
631.3137254899998
 20
4693.6859590000004
 30
5.0
  0
VERTEX
  5
417
  8
CLUSTERS
 10
631.31932124599984
 20
4693.6801909300002
 30
5.0
  0
VERTEX
  5
418
  8
CLUSTERS
 10
631.3137254899998
 20
4693.6522734800001
 30
5.0
  0
VERTEX
  5
419
  8
CLUSTERS
 10
631.30927280499986
 20
4693.5799522699999
 30
5.0
  0
VERTEX
  5
41A
  8
CLUSTERS
 10
631.21350762500003
 20
4693.4915035999993
 30
5.0
  0
VERTEX
  5
41B
  8
CLUSTERS
 10
631.11328976000004
 20
4693.4920239200001
 30
5.0
  0
VERTEX
  5
41C
  8
CLUSTERS
 10
631.01307189500005
 20
4693.5688897399978
 30
5.0
  0
VERTEX
  5
41D
  8
CLUSTERS
 10
630.940195324
 20
4693.5799522699999
 30
5.0
  0
SEQEND
  5
41E
  8
CLUSTERS
  0
POLYLINE
  5
2C
  8
CLUSTERS
 66
     1
 10
0.0
 20
0.0
 30
5.0
 70
   129
  0
VERTEX
  5
41F
  8
CLUSTERS
 10
657.090113363
 20
4693.1789976099999
 30
5.0
  0
VERTEX
  5
420
  8
CLUSTERS
 10
657.06971677599995
 20
4693.2081932700003
 30
5.0
  0
VERTEX
  5
421
  8
CLUSTERS
 10
657.03209993400003
 20
4693.2792362800001
 30
5.0
  0
VERTEX
  5
422
  8
CLUSTERS
 10
657.06971677599995
 20
4693.32411245
 30
5.0
  0
VERTEX
  5
423
  8
CLUSTERS
 10
657.07965855400005
 20
4693.3794749400013
 30
5.0
  0
VERTEX
  5
424
  8
CLUSTERS
 10
657.16993464099994
 20
4693.4666807900003
 30
5.0
  0
VERTEX
  5
425
  8
CLUSTERS
 10
657.27015250500017
 20
4693.4214006299999
 30
5.0
  0
VERTEX
  5
426
  8
CLUSTERS
 10
657.31201623499999
 20
4693.3794749400013
 30
5.0
  0
VERTEX
  5
427
  8
CLUSTERS
 10
657.33060156500005
 20
4693.2792362800001
 30
5.0
  0
VERTEX
  5
428
  8
CLUSTERS
 10
657.27015250500017
 20
4693.2130643199998
 30
5.0
  0
VERTEX
  5
429
  8
CLUSTERS
 10
657.22471748400005
 20
4693.1789976099999
 30
5.0
  0
VERTEX
  5
42A
  8
CLUSTERS
 10
657.16993464099994
 20
4693.1296927399999
 30
5.0
  0
VERTEX
  5
42B
  8
CLUSTERS
 10
657.090113363
 20
4693.1789976099999
 30
5.0
  0
SEQEND
  5
42C
  8
CLUSTERS
  0
POLYLINE
  5
2D
  8
CLUSTERS
 66
     1
 10
0.0
 20
0.0
 30
5.0
 70
   129
  0
VERTEX
  5
42D
  8
CLUSTERS
 10
629.80889315100001
 20
4692.7780429599989
 30
5.0
  0
VERTEX
  5
42E
  8
CLUSTERS
 10
629.79031876300007
 20
4692.8782816199991
 30
5.0
  0
VERTEX
  5
42F
  8
CLUSTERS
 10
629.71023965099994
 20
4692.8855307800004
 30
5.0
  0
VERTEX
  5
430
  8
CLUSTERS
 10
629.61002178599995
 20
4692.90460291
 30
5.0
  0
VERTEX
  5
431
  8
CLUSTERS
 10
629.55347885100002
 20
4692.9785202900002
 30
5.0
  0
VERTEX
  5
432
  8
CLUSTERS
 10
629.61002178599995
 20
4693.0354599099992
 30
5.0
  0
VERTEX
  5
433
  8
CLUSTERS
 10
629.71023965099994
 20
4693.0496314299999
 30
5.0
  0
VERTEX
  5
434
  8
CLUSTERS
 10
629.80141275099993
 20
4692.9785202900002
 30
5.0
  0
VERTEX
  5
435
  8
CLUSTERS
 10
629.81045751599993
 20
4692.8948222400004
 30
5.0
  0
VERTEX
  5
436
  8
CLUSTERS
 10
629.81855519700002
 20
4692.8782816199991
 30
5.0
  0
VERTEX
  5
437
  8
CLUSTERS
 10
629.81855597399999
 20
4692.7780429599989
 30
5.0
  0
VERTEX
  5
438
  8
CLUSTERS
 10
629.81045751599993
 20
4692.7764352900003
 30
5.0
  0
VERTEX
  5
439
  8
CLUSTERS
 10
629.80889315100001
 20
4692.7780429599989
 30
5.0
  0
SEQEND
  5
43A
  8
CLUSTERS
  0
POLYLINE
  5
2E
  8
CLUSTERS
 66
     1
 10
0.0
 20
0.0
 30
5.0
 70
   129
  0
VERTEX
  5
43B
  8
CLUSTERS
 10
636.81745377599975
 20
4692.477326969999
 30
5.0
  0
VERTEX
  5
43C
  8
CLUSTERS
 10
636.7254901959999
 20
4692.5027946600012
 30
5.0
  0
VERTEX
  5
43D
  8
CLUSTERS
 10
636.65027656300003
 20
4692.5775656300002
 30
5.0
  0
VERTEX
  5
43E
  8
CLUSTERS
 10
636.62652396500005
 20
4692.6778043000004
 30
5.0
  0
VERTEX
  5
43F
  8
CLUSTERS
 10
636.7254901959999
 20
4692.7770825600001
 30
5.0
  0
VERTEX
  5
440
  8
CLUSTERS
 10
636.80981275699992
 20
4692.7780429599989
 30
5.0
  0
VERTEX
  5
441
  8
CLUSTERS
 10
636.825708061
 20
4692.7866519099998
 30
5.0
  0
VERTEX
  5
442
  8
CLUSTERS
 10
636.84231263100003
 20
4692.7780429599989
 30
5.0
  0
VERTEX
  5
443
  8
CLUSTERS
 10
636.92592592599976
 20
4692.7729836300023
 30
5.0
  0
VERTEX
  5
444
  8
CLUSTERS
 10
637.01927761399975
 20
4692.6778043000004
 30
5.0
  0
VERTEX
  5
445
  8
CLUSTERS
 10
637.02614379099987
 20
4692.6259643999983
 30
5.0
  0
VERTEX
  5
446
  8
CLUSTERS
 10
637.08639997199998
 20
4692.5775656300002
 30
5.0
  0
VERTEX
  5
447
  8
CLUSTERS
 10
637.02614379099987
 20
4692.5348745700003
 30
5.0
  0
VERTEX
  5
448
  8
CLUSTERS
 10
636.92592592599976
 20
4692.4780692300001
 30
5.0
  0
VERTEX
  5
449
  8
CLUSTERS
 10
636.86898698200002
 20
4692.477326969999
 30
5.0
  0
VERTEX
  5
44A
  8
CLUSTERS
 10
636.825708061
 20
4692.4706171300004
 30
5.0
  0
VERTEX
  5
44B
  8
CLUSTERS
 10
636.81745377599975
 20
4692.477326969999
 30
5.0
  0
SEQEND
  5
44C
  8
CLUSTERS
  0
POLYLINE
  5
2F
  8
CLUSTERS
 66
     1
 10
0.0
 20
0.0
 30
5.0
 70
   129
  0
VERTEX
  5
44D
  8
CLUSTERS
 10
648.85102331999985
 20
4691.5751789999986
 30
5.0
  0
VERTEX
  5
44E
  8
CLUSTERS
 10
648.85185185199998
 20
4691.5777261499998
 30
5.0
  0
VERTEX
  5
44F
  8
CLUSTERS
 10
648.95206971699974
 20
4691.6746922900002
 30
5.0
  0
VERTEX
  5
450
  8
CLUSTERS
 10
648.95366317399998
 20
4691.6754176599989
 30
5.0
  0
VERTEX
  5
451
  8
CLUSTERS
 10
648.95206971699974
 20
4691.6758948999977
 30
5.0
  0
VERTEX
  5
452
  8
CLUSTERS
 10
648.85185185199998
 20
4691.6823109699999
 30
5.0
  0
VERTEX
  5
453
  8
CLUSTERS
 10
648.77013731599993
 20
4691.7756563199991
 30
5.0
  0
VERTEX
  5
454
  8
CLUSTERS
 10
648.835850822
 20
4691.8758949900002
 30
5.0
  0
VERTEX
  5
455
  8
CLUSTERS
 10
648.85185185199998
 20
4691.8918478300002
 30
5.0
  0
VERTEX
  5
456
  8
CLUSTERS
 10
648.95206971699974
 20
4691.9207566499999
 30
5.0
  0
VERTEX
  5
457
  8
CLUSTERS
 10
648.99849842599986
 20
4691.9761336499978
 30
5.0
  0
VERTEX
  5
458
  8
CLUSTERS
 10
649.05228758199985
 20
4692.0295729899999
 30
5.0
  0
VERTEX
  5
459
  8
CLUSTERS
 10
649.10592985699975
 20
4691.9761336499978
 30
5.0
  0
VERTEX
  5
45A
  8
CLUSTERS
 10
649.09913275799977
 20
4691.8758949900002
 30
5.0
  0
VERTEX
  5
45B
  8
CLUSTERS
 10
649.15250544699995
 20
4691.8654385099981
 30
5.0
  0
VERTEX
  5
45C
  8
CLUSTERS
 10
649.24221331599995
 20
4691.7756563199991
 30
5.0
  0
VERTEX
  5
45D
  8
CLUSTERS
 10
649.15250544699995
 20
4691.6845392699979
 30
5.0
  0
VERTEX
  5
45E
  8
CLUSTERS
 10
649.12437366699999
 20
4691.6754176599989
 30
5.0
  0
VERTEX
  5
45F
  8
CLUSTERS
 10
649.05228758199985
 20
4691.6058903899993
 30
5.0
  0
VERTEX
  5
460
  8
CLUSTERS
 10
649.03563453599975
 20
4691.5751789999986
 30
5.0
  0
VERTEX
  5
461
  8
CLUSTERS
 10
648.95206971699974
 20
4691.4915527599978
 30
5.0
  0
VERTEX
  5
462
  8
CLUSTERS
 10
648.85185185199998
 20
4691.574338129999
 30
5.0
  0
VERTEX
  5
463
  8
CLUSTERS
 10
648.85102331999985
 20
4691.5751789999986
 30
5.0
  0
SEQEND
  5
464
  8
CLUSTERS
  0
POLYLINE
  5
30
  8
CLUSTERS
 66
     1
 10
0.0
 20
0.0
 30
5.0
 70
   129
  0
VERTEX
  5
465
  8
CLUSTERS
 10
640.24994213599985
 20
4691.4749403300002
 30
5.0
  0
VERTEX
  5
466
  8
CLUSTERS
 10
640.23604519399987
 20
4691.5751789999986
 30
5.0
  0
VERTEX
  5
467
  8
CLUSTERS
 10
640.33333333300004
 20
4691.67244983
 30
5.0
  0
VERTEX
  5
468
  8
CLUSTERS
 10
640.43355119800003
 20
4691.6719715999989
 30
5.0
  0
VERTEX
  5
469
  8
CLUSTERS
 10
640.53140687300004
 20
4691.5751789999986
 30
5.0
  0
VERTEX
  5
46A
  8
CLUSTERS
 10
640.53376906300002
 20
4691.5700842599999
 30
5.0
  0
VERTEX
  5
46B
  8
CLUSTERS
 10
640.62696039399998
 20
4691.4749403300002
 30
5.0
  0
VERTEX
  5
46C
  8
CLUSTERS
 10
640.53376906300002
 20
4691.3805966999998
 30
5.0
  0
VERTEX
  5
46D
  8
CLUSTERS
 10
640.43355119800003
 20
4691.3825929900013
 30
5.0
  0
VERTEX
  5
46E
  8
CLUSTERS
 10
640.33333333300004
 20
4691.39050873
 30
5.0
  0
VERTEX
  5
46F
  8
CLUSTERS
 10
640.24994213599985
 20
4691.4749403300002
 30
5.0
  0
SEQEND
  5
470
  8
CLUSTERS
  0
POLYLINE
  5
31
  8
CLUSTERS
 66
     1
 10
0.0
 20
0.0
 30
5.0
 70
   129
  0
VERTEX
  5
471
  8
CLUSTERS
 10
666.06955054699995
 20
4691.3747016699999
 30
5.0
  0
VERTEX
  5
472
  8
CLUSTERS
 10
665.99042240799997
 20
4691.4749403300002
 30
5.0
  0
VERTEX
  5
473
  8
CLUSTERS
 10
666.08932461899985
 20
4691.5551717199996
 30
5.0
  0
VERTEX
  5
474
  8
CLUSTERS
 10
666.18954248399996
 20
4691.5562801699998
 30
5.0
  0
VERTEX
  5
475
  8
CLUSTERS
 10
666.28976034900006
 20
4691.5570476399989
 30
5.0
  0
VERTEX
  5
476
  8
CLUSTERS
 10
666.37135880800008
 20
4691.4749403300002
 30
5.0
  0
VERTEX
  5
477
  8
CLUSTERS
 10
666.32139177500017
 20
4691.3747016699999
 30
5.0
  0
VERTEX
  5
478
  8
CLUSTERS
 10
666.28976034900006
 20
4691.3409574200004
 30
5.0
  0
VERTEX
  5
479
  8
CLUSTERS
 10
666.18954248399996
 20
4691.33368754
 30
5.0
  0
VERTEX
  5
47A
  8
CLUSTERS
 10
666.08932461899985
 20
4691.3575359799988
 30
5.0
  0
VERTEX
  5
47B
  8
CLUSTERS
 10
666.06955054699995
 20
4691.3747016699999
 30
5.0
  0
SEQEND
  5
47C
  8
CLUSTERS
  0
POLYLINE
  5
32
  8
CLUSTERS
 66
     1
 10
0.0
 20
0.0
 30
5.0
 70
   129
  0
VERTEX
  5
47D
  8
CLUSTERS
 10
639.14250457499998
 20
4691.3747016699999
 30
5.0
  0
VERTEX
  5
47E
  8
CLUSTERS
 10
639.13289956999995
 20
4691.4749403300002
 30
5.0
  0
VERTEX
  5
47F
  8
CLUSTERS
 10
639.23093681900002
 20
4691.5730226599999
 30
5.0
  0
VERTEX
  5
480
  8
CLUSTERS
 10
639.33115468400001
 20
4691.5728700299987
 30
5.0
  0
VERTEX
  5
481
  8
CLUSTERS
 10
639.33361895400003
 20
4691.5751789999986
 30
5.0
  0
VERTEX
  5
482
  8
CLUSTERS
 10
639.43137254899989
 20
4691.6723122900003
 30
5.0
  0
VERTEX
  5
483
  8
CLUSTERS
 10
639.53159041399999
 20
4691.6515019799999
 30
5.0
  0
VERTEX
  5
484
  8
CLUSTERS
 10
639.63180827899976
 20
4691.6542781999979
 30
5.0
  0
VERTEX
  5
485
  8
CLUSTERS
 10
639.73202614399986
 20
4691.6040593099997
 30
5.0
  0
VERTEX
  5
486
  8
CLUSTERS
 10
639.76106169499985
 20
4691.5751789999986
 30
5.0
  0
VERTEX
  5
487
  8
CLUSTERS
 10
639.73202614399986
 20
4691.5330657699978
 30
5.0
  0
VERTEX
  5
488
  8
CLUSTERS
 10
639.63180827899976
 20
4691.4810856200002
 30
5.0
  0
VERTEX
  5
489
  8
CLUSTERS
 10
639.61765532000004
 20
4691.4749403300002
 30
5.0
  0
VERTEX
  5
48A
  8
CLUSTERS
 10
639.53159041399999
 20
4691.4112688699997
 30
5.0
  0
VERTEX
  5
48B
  8
CLUSTERS
 10
639.43137254899989
 20
4691.3769866900002
 30
5.0
  0
VERTEX
  5
48C
  8
CLUSTERS
 10
639.41926679100004
 20
4691.3747016699999
 30
5.0
  0
VERTEX
  5
48D
  8
CLUSTERS
 10
639.33115468400001
 20
4691.29926849
 30
5.0
  0
VERTEX
  5
48E
  8
CLUSTERS
 10
639.23093681900002
 20
4691.2853041999997
 30
5.0
  0
VERTEX
  5
48F
  8
CLUSTERS
 10
639.14250457499998
 20
4691.3747016699999
 30
5.0
  0
SEQEND
  5
490
  8
CLUSTERS
  0
POLYLINE
  5
33
  8
CLUSTERS
 66
     1
 10
0.0
 20
0.0
 30
5.0
 70
   129
  0
VERTEX
  5
491
  8
CLUSTERS
 10
634.96758785300005
 20
4691.2744630099996
 30
5.0
  0
VERTEX
  5
492
  8
CLUSTERS
 10
634.92169261200002
 20
4691.3747016699999
 30
5.0
  0
VERTEX
  5
493
  8
CLUSTERS
 10
634.92156862699994
 20
4691.3752222100002
 30
5.0
  0
VERTEX
  5
494
  8
CLUSTERS
 10
634.82972728300001
 20
4691.4749403300002
 30
5.0
  0
VERTEX
  5
495
  8
CLUSTERS
 10
634.82878217500001
 20
4691.5751789999986
 30
5.0
  0
VERTEX
  5
496
  8
CLUSTERS
 10
634.82135076300005
 20
4691.6548738800002
 30
5.0
  0
VERTEX
  5
497
  8
CLUSTERS
 10
634.80254824899976
 20
4691.6754176599989
 30
5.0
  0
VERTEX
  5
498
  8
CLUSTERS
 10
634.72504055399975
 20
4691.7756563199991
 30
5.0
  0
VERTEX
  5
499
  8
CLUSTERS
 10
634.75249873799987
 20
4691.8758949900002
 30
5.0
  0
VERTEX
  5
49A
  8
CLUSTERS
 10
634.82135076300005
 20
4691.9673819
 30
5.0
  0
VERTEX
  5
49B
  8
CLUSTERS
 10
634.82336941599999
 20
4691.9761336499978
 30
5.0
  0
VERTEX
  5
49C
  8
CLUSTERS
 10
634.92156862699994
 20
4692.0673027499988
 30
5.0
  0
VERTEX
  5
49D
  8
CLUSTERS
 10
635.02178649199993
 20
4692.0752036100002
 30
5.0
  0
VERTEX
  5
49E
  8
CLUSTERS
 10
635.12200435699992
 20
4692.0622897200001
 30
5.0
  0
VERTEX
  5
49F
  8
CLUSTERS
 10
635.12736965699969
 20
4692.076372319998
 30
5.0
  0
VERTEX
  5
4A0
  8
CLUSTERS
 10
635.22222222199991
 20
4692.1682606999993
 30
5.0
  0
VERTEX
  5
4A1
  8
CLUSTERS
 10
635.32244008700002
 20
4692.1656262300003
 30
5.0
  0
VERTEX
  5
4A2
  8
CLUSTERS
 10
635.42265795200001
 20
4692.1287330900004
 30
5.0
  0
VERTEX
  5
4A3
  8
CLUSTERS
 10
635.47731904599993
 20
4692.076372319998
 30
5.0
  0
VERTEX
  5
4A4
  8
CLUSTERS
 10
635.51746849699975
 20
4691.9761336499978
 30
5.0
  0
VERTEX
  5
4A5
  8
CLUSTERS
 10
635.46004888300001
 20
4691.8758949900002
 30
5.0
  0
VERTEX
  5
4A6
  8
CLUSTERS
 10
635.42265795200001
 20
4691.8304237799994
 30
5.0
  0
VERTEX
  5
4A7
  8
CLUSTERS
 10
635.40664335099984
 20
4691.7756563199991
 30
5.0
  0
VERTEX
  5
4A8
  8
CLUSTERS
 10
635.342747358
 20
4691.6754176599989
 30
5.0
  0
VERTEX
  5
4A9
  8
CLUSTERS
 10
635.42265795200001
 20
4691.661029769999
 30
5.0
  0
VERTEX
  5
4AA
  8
CLUSTERS
 10
635.50986978699984
 20
4691.5751789999986
 30
5.0
  0
VERTEX
  5
4AB
  8
CLUSTERS
 10
635.48104408400002
 20
4691.4749403300002
 30
5.0
  0
VERTEX
  5
4AC
  8
CLUSTERS
 10
635.42265795200001
 20
4691.4161019499988
 30
5.0
  0
VERTEX
  5
4AD
  8
CLUSTERS
 10
635.32244008700002
 20
4691.3839970999989
 30
5.0
  0
VERTEX
  5
4AE
  8
CLUSTERS
 10
635.29575264300001
 20
4691.3747016699999
 30
5.0
  0
VERTEX
  5
4AF
  8
CLUSTERS
 10
635.22222222199991
 20
4691.2965206999988
 30
5.0
  0
VERTEX
  5
4B0
  8
CLUSTERS
 10
635.19321692000017
 20
4691.2744630099996
 30
5.0
  0
VERTEX
  5
4B1
  8
CLUSTERS
 10
635.12200435699992
 20
4691.2205988300002
 30
5.0
  0
VERTEX
  5
4B2
  8
CLUSTERS
 10
635.02178649199993
 20
4691.2238483299989
 30
5.0
  0
VERTEX
  5
4B3
  8
CLUSTERS
 10
634.96758785300005
 20
4691.2744630099996
 30
5.0
  0
SEQEND
  5
4B4
  8
CLUSTERS
  0
POLYLINE
  5
34
  8
CLUSTERS
 66
     1
 10
0.0
 20
0.0
 30
5.0
 70
   129
  0
VERTEX
  5
4B5
  8
CLUSTERS
 10
638.65367261899996
 20
4690.8735083499996
 30
5.0
  0
VERTEX
  5
4B6
  8
CLUSTERS
 10
638.63283570500005
 20
4690.9737470199998
 30
5.0
  0
VERTEX
  5
4B7
  8
CLUSTERS
 10
638.72984749499994
 20
4691.0712089099989
 30
5.0
  0
VERTEX
  5
4B8
  8
CLUSTERS
 10
638.74547587300003
 20
4691.0739856800001
 30
5.0
  0
VERTEX
  5
4B9
  8
CLUSTERS
 10
638.73229580700001
 20
4691.1742243400004
 30
5.0
  0
VERTEX
  5
4BA
  8
CLUSTERS
 10
638.73053552199985
 20
4691.2744630099996
 30
5.0
  0
VERTEX
  5
4BB
  8
CLUSTERS
 10
638.73185410199994
 20
4691.3747016699999
 30
5.0
  0
VERTEX
  5
4BC
  8
CLUSTERS
 10
638.83006535899995
 20
4691.4727204800001
 30
5.0
  0
VERTEX
  5
4BD
  8
CLUSTERS
 10
638.93003796000005
 20
4691.3747016699999
 30
5.0
  0
VERTEX
  5
4BE
  8
CLUSTERS
 10
638.93028322400005
 20
4691.3650909600001
 30
5.0
  0
VERTEX
  5
4BF
  8
CLUSTERS
 10
638.97939853399976
 20
4691.2744630099996
 30
5.0
  0
VERTEX
  5
4C0
  8
CLUSTERS
 10
639.03050108900004
 20
4691.2332872699999
 30
5.0
  0
VERTEX
  5
4C1
  8
CLUSTERS
 10
639.08794422199992
 20
4691.1742243400004
 30
5.0
  0
VERTEX
  5
4C2
  8
CLUSTERS
 10
639.03050108900004
 20
4691.0756582800004
 30
5.0
  0
VERTEX
  5
4C3
  8
CLUSTERS
 10
639.02994937499977
 20
4691.0739856800001
 30
5.0
  0
VERTEX
  5
4C4
  8
CLUSTERS
 10
639.02372712600004
 20
4690.9737470199998
 30
5.0
  0
VERTEX
  5
4C5
  8
CLUSTERS
 10
638.93028322400005
 20
4690.8786340200004
 30
5.0
  0
VERTEX
  5
4C6
  8
CLUSTERS
 10
638.90259230800007
 20
4690.8735083499996
 30
5.0
  0
VERTEX
  5
4C7
  8
CLUSTERS
 10
638.83006535899995
 20
4690.8122710799998
 30
5.0
  0
VERTEX
  5
4C8
  8
CLUSTERS
 10
638.72984749499994
 20
4690.7967681999999
 30
5.0
  0
VERTEX
  5
4C9
  8
CLUSTERS
 10
638.65367261899996
 20
4690.8735083499996
 30
5.0
  0
SEQEND
  5
4CA
  8
CLUSTERS
  0
POLYLINE
  5
35
  8
CLUSTERS
 66
     1
 10
0.0
 20
0.0
 30
5.0
 70
   129
  0
VERTEX
  5
4CB
  8
CLUSTERS
 10
667.06981423900004
 20
4690.7732696900011
 30
5.0
  0
VERTEX
  5
4CC
  8
CLUSTERS
 10
666.99128540300001
 20
4690.7971310499997
 30
5.0
  0
VERTEX
  5
4CD
  8
CLUSTERS
 10
666.92539294000005
 20
4690.8735083499996
 30
5.0
  0
VERTEX
  5
4CE
  8
CLUSTERS
 10
666.92477335699994
 20
4690.9737470199998
 30
5.0
  0
VERTEX
  5
4CF
  8
CLUSTERS
 10
666.99128540300001
 20
4691.0291219800001
 30
5.0
  0
VERTEX
  5
4D0
  8
CLUSTERS
 10
667.09150326799988
 20
4691.0591400399999
 30
5.0
  0
VERTEX
  5
4D1
  8
CLUSTERS
 10
667.19172113299999
 20
4691.0358013899986
 30
5.0
  0
VERTEX
  5
4D2
  8
CLUSTERS
 10
667.25471384100001
 20
4690.9737470199998
 30
5.0
  0
VERTEX
  5
4D3
  8
CLUSTERS
 10
667.28161171800002
 20
4690.8735083499996
 30
5.0
  0
VERTEX
  5
4D4
  8
CLUSTERS
 10
667.19172113299999
 20
4690.7758290000002
 30
5.0
  0
VERTEX
  5
4D5
  8
CLUSTERS
 10
667.13399847599999
 20
4690.7732696900011
 30
5.0
  0
VERTEX
  5
4D6
  8
CLUSTERS
 10
667.09150326799988
 20
4690.759838349999
 30
5.0
  0
VERTEX
  5
4D7
  8
CLUSTERS
 10
667.06981423900004
 20
4690.7732696900011
 30
5.0
  0
SEQEND
  5
4D8
  8
CLUSTERS
  0
POLYLINE
  5
36
  8
CLUSTERS
 66
     1
 10
0.0
 20
0.0
 30
5.0
 70
   129
  0
VERTEX
  5
4D9
  8
CLUSTERS
 10
657.910608529
 20
4690.5727923599998
 30
5.0
  0
VERTEX
  5
4DA
  8
CLUSTERS
 10
657.871459695
 20
4690.6670344499998
 30
5.0
  0
VERTEX
  5
4DB
  8
CLUSTERS
 10
657.86675602399976
 20
4690.6730310299999
 30
5.0
  0
VERTEX
  5
4DC
  8
CLUSTERS
 10
657.8485754269999
 20
4690.7732696900011
 30
5.0
  0
VERTEX
  5
4DD
  8
CLUSTERS
 10
657.871459695
 20
4690.7977520399991
 30
5.0
  0
VERTEX
  5
4DE
  8
CLUSTERS
 10
657.97167755999976
 20
4690.8722190799999
 30
5.0
  0
VERTEX
  5
4DF
  8
CLUSTERS
 10
658.07189542499987
 20
4690.8713003399998
 30
5.0
  0
VERTEX
  5
4E0
  8
CLUSTERS
 10
658.16995075900002
 20
4690.7732696900011
 30
5.0
  0
VERTEX
  5
4E1
  8
CLUSTERS
 10
658.17169272499984
 20
4690.6730310299999
 30
5.0
  0
VERTEX
  5
4E2
  8
CLUSTERS
 10
658.07200310799999
 20
4690.5727923599998
 30
5.0
  0
VERTEX
  5
4E3
  8
CLUSTERS
 10
658.07189542499987
 20
4690.5727710399997
 30
5.0
  0
VERTEX
  5
4E4
  8
CLUSTERS
 10
657.97167755999976
 20
4690.5173565100004
 30
5.0
  0
VERTEX
  5
4E5
  8
CLUSTERS
 10
657.910608529
 20
4690.5727923599998
 30
5.0
  0
SEQEND
  5
4E6
  8
CLUSTERS
  0
POLYLINE
  5
37
  8
CLUSTERS
 66
     1
 10
0.0
 20
0.0
 30
5.0
 70
   129
  0
VERTEX
  5
4E7
  8
CLUSTERS
 10
643.47902640099994
 20
4690.3723150400001
 30
5.0
  0
VERTEX
  5
4E8
  8
CLUSTERS
 10
643.49668041699999
 20
4690.4725537000013
 30
5.0
  0
VERTEX
  5
4E9
  8
CLUSTERS
 10
643.54030501099976
 20
4690.5161620299978
 30
5.0
  0
VERTEX
  5
4EA
  8
CLUSTERS
 10
643.64052287599986
 20
4690.5337354499979
 30
5.0
  0
VERTEX
  5
4EB
  8
CLUSTERS
 10
643.70255491399985
 20
4690.4725537000013
 30
5.0
  0
VERTEX
  5
4EC
  8
CLUSTERS
 10
643.74074074099985
 20
4690.4675806200003
 30
5.0
  0
VERTEX
  5
4ED
  8
CLUSTERS
 10
643.83619808199978
 20
4690.3723150400001
 30
5.0
  0
VERTEX
  5
4EE
  8
CLUSTERS
 10
643.74074074099985
 20
4690.2723417899997
 30
5.0
  0
VERTEX
  5
4EF
  8
CLUSTERS
 10
643.64127400300004
 20
4690.3723150400001
 30
5.0
  0
VERTEX
  5
4F0
  8
CLUSTERS
 10
643.64052287599986
 20
4690.380511379999
 30
5.0
  0
VERTEX
  5
4F1
  8
CLUSTERS
 10
643.63235323699985
 20
4690.3723150400001
 30
5.0
  0
VERTEX
  5
4F2
  8
CLUSTERS
 10
643.54030501099976
 20
4690.3105810000006
 30
5.0
  0
VERTEX
  5
4F3
  8
CLUSTERS
 10
643.47902640099994
 20
4690.3723150400001
 30
5.0
  0
SEQEND
  5
4F4
  8
CLUSTERS
  0
POLYLINE
  5
38
  8
CLUSTERS
 66
     1
 10
0.0
 20
0.0
 30
5.0
 70
   129
  0
VERTEX
  5
4F5
  8
CLUSTERS
 10
658.19154632699986
 20
4690.1718377099987
 30
5.0
  0
VERTEX
  5
4F6
  8
CLUSTERS
 10
658.17633802800003
 20
4690.2720763699999
 30
5.0
  0
VERTEX
  5
4F7
  8
CLUSTERS
 10
658.17885832599995
 20
4690.3723150400001
 30
5.0
  0
VERTEX
  5
4F8
  8
CLUSTERS
 10
658.21943521100002
 20
4690.4725537000013
 30
5.0
  0
VERTEX
  5
4F9
  8
CLUSTERS
 10
658.17393893400003
 20
4690.5727923599998
 30
5.0
  0
VERTEX
  5
4FA
  8
CLUSTERS
 10
658.17421001100001
 20
4690.6730310299999
 30
5.0
  0
VERTEX
  5
4FB
  8
CLUSTERS
 10
658.27233115499985
 20
4690.76135952
 30
5.0
  0
VERTEX
  5
4FC
  8
CLUSTERS
 10
658.36282866099975
 20
4690.6730310299999
 30
5.0
  0
VERTEX
  5
4FD
  8
CLUSTERS
 10
658.37254901999995
 20
4690.6208011600002
 30
5.0
  0
VERTEX
  5
4FE
  8
CLUSTERS
 10
658.41457144699984
 20
4690.5727923599998
 30
5.0
  0
VERTEX
  5
4FF
  8
CLUSTERS
 10
658.47072040399985
 20
4690.4725537000013
 30
5.0
  0
VERTEX
  5
500
  8
CLUSTERS
 10
658.47276688500017
 20
4690.4610223600002
 30
5.0
  0
VERTEX
  5
501
  8
CLUSTERS
 10
658.5512812999998
 20
4690.3723150400001
 30
5.0
  0
VERTEX
  5
502
  8
CLUSTERS
 10
658.54749532999995
 20
4690.2720763699999
 30
5.0
  0
VERTEX
  5
503
  8
CLUSTERS
 10
658.55471060699995
 20
4690.1718377099987
 30
5.0
  0
VERTEX
  5
504
  8
CLUSTERS
 10
658.47276688500017
 20
4690.0882443500004
 30
5.0
  0
VERTEX
  5
505
  8
CLUSTERS
 10
658.37254901999995
 20
4690.0798075800003
 30
5.0
  0
VERTEX
  5
506
  8
CLUSTERS
 10
658.27233115499985
 20
4690.0917294600004
 30
5.0
  0
VERTEX
  5
507
  8
CLUSTERS
 10
658.19154632699986
 20
4690.1718377099987
 30
5.0
  0
SEQEND
  5
508
  8
CLUSTERS
  0
POLYLINE
  5
39
  8
CLUSTERS
 66
     1
 10
0.0
 20
0.0
 30
5.0
 70
   129
  0
VERTEX
  5
509
  8
CLUSTERS
 10
631.14546029400003
 20
4686.9642004799998
 30
5.0
  0
VERTEX
  5
50A
  8
CLUSTERS
 10
631.17198621099999
 20
4687.0644391400001
 30
5.0
  0
VERTEX
  5
50B
  8
CLUSTERS
 10
631.21350762500003
 20
4687.1230963500002
 30
5.0
  0
VERTEX
  5
50C
  8
CLUSTERS
 10
631.28240743399988
 20
4687.0644391400001
 30
5.0
  0
VERTEX
  5
50D
  8
CLUSTERS
 10
631.3137254899998
 20
4687.0615234999977
 30
5.0
  0
VERTEX
  5
50E
  8
CLUSTERS
 10
631.41394335500001
 20
4686.9949344200004
 30
5.0
  0
VERTEX
  5
50F
  8
CLUSTERS
 10
631.44239878099995
 20
4686.9642004799998
 30
5.0
  0
VERTEX
  5
510
  8
CLUSTERS
 10
631.41394335500001
 20
4686.9301745199991
 30
5.0
  0
VERTEX
  5
511
  8
CLUSTERS
 10
631.3137254899998
 20
4686.8643861500004
 30
5.0
  0
VERTEX
  5
512
  8
CLUSTERS
 10
631.21350762500003
 20
4686.8737185199998
 30
5.0
  0
VERTEX
  5
513
  8
CLUSTERS
 10
631.14546029400003
 20
4686.9642004799998
 30
5.0
  0
SEQEND
  5
514
  8
CLUSTERS
  0
POLYLINE
  5
3A
  8
CLUSTERS
 66
     1
 10
0.0
 20
0.0
 30
5.0
 70
   129
  0
VERTEX
  5
515
  8
CLUSTERS
 10
663.27814783199995
 20
4686.66348449
 30
5.0
  0
VERTEX
  5
516
  8
CLUSTERS
 10
663.28322440099998
 20
4686.6688745299989
 30
5.0
  0
VERTEX
  5
517
  8
CLUSTERS
 10
663.38344226599975
 20
4686.7582686699998
 30
5.0
  0
VERTEX
  5
518
  8
CLUSTERS
 10
663.48366013099985
 20
4686.7592563500002
 30
5.0
  0
VERTEX
  5
519
  8
CLUSTERS
 10
663.55072385599976
 20
4686.7637231500003
 30
5.0
  0
VERTEX
  5
51A
  8
CLUSTERS
 10
663.58387799599996
 20
4686.7938777400004
 30
5.0
  0
VERTEX
  5
51B
  8
CLUSTERS
 10
663.68409586099995
 20
4686.8582591499999
 30
5.0
  0
VERTEX
  5
51C
  8
CLUSTERS
 10
663.77832401599994
 20
4686.7637231500003
 30
5.0
  0
VERTEX
  5
51D
  8
CLUSTERS
 10
663.77441350200002
 20
4686.66348449
 30
5.0
  0
VERTEX
  5
51E
  8
CLUSTERS
 10
663.68409586099995
 20
4686.57168095
 30
5.0
  0
VERTEX
  5
51F
  8
CLUSTERS
 10
663.58387799599996
 20
4686.6575125500003
 30
5.0
  0
VERTEX
  5
520
  8
CLUSTERS
 10
663.48366013099985
 20
4686.5664164699992
 30
5.0
  0
VERTEX
  5
521
  8
CLUSTERS
 10
663.38344226599975
 20
4686.5667718199993
 30
5.0
  0
VERTEX
  5
522
  8
CLUSTERS
 10
663.28322440099998
 20
4686.6575857399994
 30
5.0
  0
VERTEX
  5
523
  8
CLUSTERS
 10
663.27814783199995
 20
4686.66348449
 30
5.0
  0
SEQEND
  5
524
  8
CLUSTERS
  0
POLYLINE
  5
3B
  8
CLUSTERS
 66
     1
 10
0.0
 20
0.0
 30
5.0
 70
   129
  0
VERTEX
  5
525
  8
CLUSTERS
 10
636.84538206499997
 20
4684.5584725500003
 30
5.0
  0
VERTEX
  5
526
  8
CLUSTERS
 10
636.83125997100001
 20
4684.6587112200004
 30
5.0
  0
VERTEX
  5
527
  8
CLUSTERS
 10
636.88034967600004
 20
4684.7589498799989
 30
5.0
  0
VERTEX
  5
528
  8
CLUSTERS
 10
636.92592592599976
 20
4684.8048253500001
 30
5.0
  0
VERTEX
  5
529
  8
CLUSTERS
 10
636.94151900199995
 20
4684.8591885400001
 30
5.0
  0
VERTEX
  5
52A
  8
CLUSTERS
 10
636.94611970999995
 20
4684.9594272100003
 30
5.0
  0
VERTEX
  5
52B
  8
CLUSTERS
 10
637.02614379099987
 20
4685.0505981699998
 30
5.0
  0
VERTEX
  5
52C
  8
CLUSTERS
 10
637.03327524600002
 20
4685.0596658699988
 30
5.0
  0
VERTEX
  5
52D
  8
CLUSTERS
 10
637.12636165599997
 20
4685.1436176400002
 30
5.0
  0
VERTEX
  5
52E
  8
CLUSTERS
 10
637.21118506199991
 20
4685.0596658699988
 30
5.0
  0
VERTEX
  5
52F
  8
CLUSTERS
 10
637.21596901199996
 20
4684.9594272100003
 30
5.0
  0
VERTEX
  5
530
  8
CLUSTERS
 10
637.19710359999976
 20
4684.8591885400001
 30
5.0
  0
VERTEX
  5
531
  8
CLUSTERS
 10
637.12636165599997
 20
4684.7870346899999
 30
5.0
  0
VERTEX
  5
532
  8
CLUSTERS
 10
637.03875711800004
 20
4684.7589498799989
 30
5.0
  0
VERTEX
  5
533
  8
CLUSTERS
 10
637.12636165599997
 20
4684.7533761699979
 30
5.0
  0
VERTEX
  5
534
  8
CLUSTERS
 10
637.22657952099985
 20
4684.74359086
 30
5.0
  0
VERTEX
  5
535
  8
CLUSTERS
 10
637.31175556900007
 20
4684.6587112200004
 30
5.0
  0
VERTEX
  5
536
  8
CLUSTERS
 10
637.26964959500003
 20
4684.5584725500003
 30
5.0
  0
VERTEX
  5
537
  8
CLUSTERS
 10
637.22657952099985
 20
4684.5154529199999
 30
5.0
  0
VERTEX
  5
538
  8
CLUSTERS
 10
637.12636165599997
 20
4684.4681492899999
 30
5.0
  0
VERTEX
  5
539
  8
CLUSTERS
 10
637.02614379099987
 20
4684.466722459998
 30
5.0
  0
VERTEX
  5
53A
  8
CLUSTERS
 10
636.92592592599976
 20
4684.4776564100002
 30
5.0
  0
VERTEX
  5
53B
  8
CLUSTERS
 10
636.84538206499997
 20
4684.5584725500003
 30
5.0
  0
SEQEND
  5
53C
  8
CLUSTERS
  0
POLYLINE
  5
3C
  8
CLUSTERS
 66
     1
 10
0.0
 20
0.0
 30
5.0
 70
   129
  0
VERTEX
  5
53D
  8
CLUSTERS
 10
648.85377350500016
 20
4684.1575179000001
 30
5.0
  0
VERTEX
  5
53E
  8
CLUSTERS
 10
648.85185185199998
 20
4684.1694175700004
 30
5.0
  0
VERTEX
  5
53F
  8
CLUSTERS
 10
648.7591373969999
 20
4684.2577565600004
 30
5.0
  0
VERTEX
  5
540
  8
CLUSTERS
 10
648.75163398699988
 20
4684.2677656300002
 30
5.0
  0
VERTEX
  5
541
  8
CLUSTERS
 10
648.66707126800009
 20
4684.3579952299997
 30
5.0
  0
VERTEX
  5
542
  8
CLUSTERS
 10
648.75163398699988
 20
4684.44257707
 30
5.0
  0
VERTEX
  5
543
  8
CLUSTERS
 10
648.85185185199998
 20
4684.4527899699988
 30
5.0
  0
VERTEX
  5
544
  8
CLUSTERS
 10
648.94874630899994
 20
4684.3579952299997
 30
5.0
  0
VERTEX
  5
545
  8
CLUSTERS
 10
648.95206971699974
 20
4684.3542577500002
 30
5.0
  0
VERTEX
  5
546
  8
CLUSTERS
 10
649.00180058399985
 20
4684.3579952299997
 30
5.0
  0
VERTEX
  5
547
  8
CLUSTERS
 10
649.05228758199985
 20
4684.3958246100001
 30
5.0
  0
VERTEX
  5
548
  8
CLUSTERS
 10
649.09013828699995
 20
4684.3579952299997
 30
5.0
  0
VERTEX
  5
549
  8
CLUSTERS
 10
649.15188961800004
 20
4684.2577565600004
 30
5.0
  0
VERTEX
  5
54A
  8
CLUSTERS
 10
649.15125845599994
 20
4684.1575179000001
 30
5.0
  0
VERTEX
  5
54B
  8
CLUSTERS
 10
649.05228758199985
 20
4684.0585266799999
 30
5.0
  0
VERTEX
  5
54C
  8
CLUSTERS
 10
648.95206971699974
 20
4684.0592006899997
 30
5.0
  0
VERTEX
  5
54D
  8
CLUSTERS
 10
648.85377350500016
 20
4684.1575179000001
 30
5.0
  0
SEQEND
  5
54E
  8
CLUSTERS
  0
POLYLINE
  5
3D
  8
CLUSTERS
 66
     1
 10
0.0
 20
0.0
 30
5.0
 70
   129
  0
VERTEX
  5
54F
  8
CLUSTERS
 10
633.04194479399985
 20
4681.0501193299997
 30
5.0
  0
VERTEX
  5
550
  8
CLUSTERS
 10
633.02241825399994
 20
4681.1503579999999
 30
5.0
  0
VERTEX
  5
551
  8
CLUSTERS
 10
633.11764705899986
 20
4681.2462508199997
 30
5.0
  0
VERTEX
  5
552
  8
CLUSTERS
 10
633.21786492399985
 20
4681.24694929
 30
5.0
  0
VERTEX
  5
553
  8
CLUSTERS
 10
633.31808278899985
 20
4681.2501973400003
 30
5.0
  0
VERTEX
  5
554
  8
CLUSTERS
 10
633.41830065399995
 20
4681.2502654399996
 30
5.0
  0
VERTEX
  5
555
  8
CLUSTERS
 10
633.51851851900005
 20
4681.2232765299987
 30
5.0
  0
VERTEX
  5
556
  8
CLUSTERS
 10
633.58573084299996
 20
4681.1503579999999
 30
5.0
  0
VERTEX
  5
557
  8
CLUSTERS
 10
633.58350985100003
 20
4681.0501193299997
 30
5.0
  0
VERTEX
  5
558
  8
CLUSTERS
 10
633.51851851900005
 20
4680.9799620599988
 30
5.0
  0
VERTEX
  5
559
  8
CLUSTERS
 10
633.41830065399995
 20
4680.9505369899998
 30
5.0
  0
VERTEX
  5
55A
  8
CLUSTERS
 10
633.31808278899985
 20
4680.95160958
 30
5.0
  0
VERTEX
  5
55B
  8
CLUSTERS
 10
633.21888625300005
 20
4681.0501193299997
 30
5.0
  0
VERTEX
  5
55C
  8
CLUSTERS
 10
633.21786492399985
 20
4681.052071269999
 30
5.0
  0
VERTEX
  5
55D
  8
CLUSTERS
 10
633.20729051499995
 20
4681.0501193299997
 30
5.0
  0
VERTEX
  5
55E
  8
CLUSTERS
 10
633.11764705899986
 20
4680.97433877
 30
5.0
  0
VERTEX
  5
55F
  8
CLUSTERS
 10
633.04194479399985
 20
4681.0501193299997
 30
5.0
  0
SEQEND
  5
560
  8
CLUSTERS
  0
POLYLINE
  5
3E
  8
CLUSTERS
 66
     1
 10
0.0
 20
0.0
 30
5.0
 70
   129
  0
VERTEX
  5
561
  8
CLUSTERS
 10
653.07288933400002
 20
4677.842482099999
 30
5.0
  0
VERTEX
  5
562
  8
CLUSTERS
 10
653.06100217900007
 20
4677.8559737299993
 30
5.0
  0
VERTEX
  5
563
  8
CLUSTERS
 10
652.97430378399974
 20
4677.9427207599992
 30
5.0
  0
VERTEX
  5
564
  8
CLUSTERS
 10
653.01640101600003
 20
4678.0429594300003
 30
5.0
  0
VERTEX
  5
565
  8
CLUSTERS
 10
653.06100217900007
 20
4678.0875541100013
 30
5.0
  0
VERTEX
  5
566
  8
CLUSTERS
 10
653.16122004399995
 20
4678.0597131000004
 30
5.0
  0
VERTEX
  5
567
  8
CLUSTERS
 10
653.17797595599995
 20
4678.0429594300003
 30
5.0
  0
VERTEX
  5
568
  8
CLUSTERS
 10
653.26143160300001
 20
4677.9427207599992
 30
5.0
  0
VERTEX
  5
569
  8
CLUSTERS
 10
653.25392532299975
 20
4677.842482099999
 30
5.0
  0
VERTEX
  5
56A
  8
CLUSTERS
 10
653.16122004399995
 20
4677.7541747200003
 30
5.0
  0
VERTEX
  5
56B
  8
CLUSTERS
 10
653.07288933400002
 20
4677.842482099999
 30
5.0
  0
SEQEND
  5
56C
  8
CLUSTERS
  0
POLYLINE
  5
3F
  8
CLUSTERS
 66
     1
 10
0.0
 20
0.0
 30
5.0
 70
   129
  0
VERTEX
  5
56D
  8
CLUSTERS
 10
652.47694715499995
 20
4677.3412887799996
 30
5.0
  0
VERTEX
  5
56E
  8
CLUSTERS
 10
652.559912854
 20
4677.4243784500013
 30
5.0
  0
VERTEX
  5
56F
  8
CLUSTERS
 10
652.56620318499995
 20
4677.4415274499997
 30
5.0
  0
VERTEX
  5
570
  8
CLUSTERS
 10
652.58164275800004
 20
4677.54176611
 30
5.0
  0
VERTEX
  5
571
  8
CLUSTERS
 10
652.66013071899988
 20
4677.6202426500004
 30
5.0
  0
VERTEX
  5
572
  8
CLUSTERS
 10
652.73860803100001
 20
4677.54176611
 30
5.0
  0
VERTEX
  5
573
  8
CLUSTERS
 10
652.76034858399998
 20
4677.4962791099979
 30
5.0
  0
VERTEX
  5
574
  8
CLUSTERS
 10
652.81503395599975
 20
4677.4415274499997
 30
5.0
  0
VERTEX
  5
575
  8
CLUSTERS
 10
652.76034858399998
 20
4677.3867663099991
 30
5.0
  0
VERTEX
  5
576
  8
CLUSTERS
 10
652.74871519899989
 20
4677.3412887799996
 30
5.0
  0
VERTEX
  5
577
  8
CLUSTERS
 10
652.66013071899988
 20
4677.2505843999998
 30
5.0
  0
VERTEX
  5
578
  8
CLUSTERS
 10
652.559912854
 20
4677.2450511299994
 30
5.0
  0
VERTEX
  5
579
  8
CLUSTERS
 10
652.47694715499995
 20
4677.3412887799996
 30
5.0
  0
SEQEND
  5
57A
  8
CLUSTERS
  0
POLYLINE
  5
40
  8
CLUSTERS
 66
     1
 10
0.0
 20
0.0
 30
5.0
 70
   129
  0
VERTEX
  5
57B
  8
CLUSTERS
 10
652.16898923899998
 20
4675.9379474899997
 30
5.0
  0
VERTEX
  5
57C
  8
CLUSTERS
 10
652.16112534299975
 20
4676.0381861599999
 30
5.0
  0
VERTEX
  5
57D
  8
CLUSTERS
 10
652.18162223800005
 20
4676.1384248200002
 30
5.0
  0
VERTEX
  5
57E
  8
CLUSTERS
 10
652.20882883599995
 20
4676.2386634799977
 30
5.0
  0
VERTEX
  5
57F
  8
CLUSTERS
 10
652.25925925900003
 20
4676.2893717200022
 30
5.0
  0
VERTEX
  5
580
  8
CLUSTERS
 10
652.26553000499985
 20
4676.3389021499988
 30
5.0
  0
VERTEX
  5
581
  8
CLUSTERS
 10
652.35947712399991
 20
4676.4328614400001
 30
5.0
  0
VERTEX
  5
582
  8
CLUSTERS
 10
652.45969498900001
 20
4676.42956392
 30
5.0
  0
VERTEX
  5
583
  8
CLUSTERS
 10
652.55029524600002
 20
4676.3389021499988
 30
5.0
  0
VERTEX
  5
584
  8
CLUSTERS
 10
652.52657425400002
 20
4676.2386634799977
 30
5.0
  0
VERTEX
  5
585
  8
CLUSTERS
 10
652.45969498900001
 20
4676.1716842899978
 30
5.0
  0
VERTEX
  5
586
  8
CLUSTERS
 10
652.44690114800005
 20
4676.1384248200002
 30
5.0
  0
VERTEX
  5
587
  8
CLUSTERS
 10
652.43702743400002
 20
4676.0381861599999
 30
5.0
  0
VERTEX
  5
588
  8
CLUSTERS
 10
652.44882030199994
 20
4675.9379474899997
 30
5.0
  0
VERTEX
  5
589
  8
CLUSTERS
 10
652.35947712399991
 20
4675.8445270499979
 30
5.0
  0
VERTEX
  5
58A
  8
CLUSTERS
 10
652.25925925900003
 20
4675.8477011300001
 30
5.0
  0
VERTEX
  5
58B
  8
CLUSTERS
 10
652.16898923899998
 20
4675.9379474899997
 30
5.0
  0
SEQEND
  5
58C
  8
CLUSTERS
  0
POLYLINE
  5
41
  8
CLUSTERS
 66
     1
 10
0.0
 20
0.0
 30
5.0
 70
   129
  0
VERTEX
  5
58D
  8
CLUSTERS
 10
655.96842481600004
 20
4674.7350835300003
 30
5.0
  0
VERTEX
  5
58E
  8
CLUSTERS
 10
655.97298610799999
 20
4674.8353221999978
 30
5.0
  0
VERTEX
  5
58F
  8
CLUSTERS
 10
655.98418707999986
 20
4674.9355608599981
 30
5.0
  0
VERTEX
  5
590
  8
CLUSTERS
 10
656.06753812599993
 20
4675.0185217600001
 30
5.0
  0
VERTEX
  5
591
  8
CLUSTERS
 10
656.16775599100004
 20
4674.9951758400002
 30
5.0
  0
VERTEX
  5
592
  8
CLUSTERS
 10
656.22747797900001
 20
4674.9355608599981
 30
5.0
  0
VERTEX
  5
593
  8
CLUSTERS
 10
656.24884380900005
 20
4674.8353221999978
 30
5.0
  0
VERTEX
  5
594
  8
CLUSTERS
 10
656.26748935199976
 20
4674.7350835300003
 30
5.0
  0
VERTEX
  5
595
  8
CLUSTERS
 10
656.16775599100004
 20
4674.6353080299996
 30
5.0
  0
VERTEX
  5
596
  8
CLUSTERS
 10
656.06753812599993
 20
4674.6362199100004
 30
5.0
  0
VERTEX
  5
597
  8
CLUSTERS
 10
655.96842481600004
 20
4674.7350835300003
 30
5.0
  0
SEQEND
  5
598
  8
CLUSTERS
  0
POLYLINE
  5
42
  8
CLUSTERS
 66
     1
 10
0.0
 20
0.0
 30
5.0
 70
   129
  0
VERTEX
  5
599
  8
CLUSTERS
 10
632.32078312800002
 20
4674.4343675399987
 30
5.0
  0
VERTEX
  5
59A
  8
CLUSTERS
 10
632.31891275299995
 20
4674.5346062099989
 30
5.0
  0
VERTEX
  5
59B
  8
CLUSTERS
 10
632.41612200400004
 20
4674.6340868799998
 30
5.0
  0
VERTEX
  5
59C
  8
CLUSTERS
 10
632.48369235199993
 20
4674.6348448700001
 30
5.0
  0
VERTEX
  5
59D
  8
CLUSTERS
 10
632.51633986900003
 20
4674.6440422300002
 30
5.0
  0
VERTEX
  5
59E
  8
CLUSTERS
 10
632.53768609500003
 20
4674.6348448700001
 30
5.0
  0
VERTEX
  5
59F
  8
CLUSTERS
 10
632.61655773400003
 20
4674.6303311199999
 30
5.0
  0
VERTEX
  5
5A0
  8
CLUSTERS
 10
632.61879759500005
 20
4674.6348448700001
 30
5.0
  0
VERTEX
  5
5A1
  8
CLUSTERS
 10
632.63836455099988
 20
4674.7350835300003
 30
5.0
  0
VERTEX
  5
5A2
  8
CLUSTERS
 10
632.71677559900002
 20
4674.8136689100002
 30
5.0
  0
VERTEX
  5
5A3
  8
CLUSTERS
 10
632.81699346399989
 20
4674.8174987399998
 30
5.0
  0
VERTEX
  5
5A4
  8
CLUSTERS
 10
632.90659290899976
 20
4674.7350835300003
 30
5.0
  0
VERTEX
  5
5A5
  8
CLUSTERS
 10
632.917211329
 20
4674.6886507700001
 30
5.0
  0
VERTEX
  5
5A6
  8
CLUSTERS
 10
632.95258951699975
 20
4674.6348448700001
 30
5.0
  0
VERTEX
  5
5A7
  8
CLUSTERS
 10
632.917211329
 20
4674.5974134199987
 30
5.0
  0
VERTEX
  5
5A8
  8
CLUSTERS
 10
632.81699346399989
 20
4674.5381206599986
 30
5.0
  0
VERTEX
  5
5A9
  8
CLUSTERS
 10
632.71677559900002
 20
4674.5359272699998
 30
5.0
  0
VERTEX
  5
5AA
  8
CLUSTERS
 10
632.71408893999978
 20
4674.5346062099989
 30
5.0
  0
VERTEX
  5
5AB
  8
CLUSTERS
 10
632.71138794599995
 20
4674.4343675399987
 30
5.0
  0
VERTEX
  5
5AC
  8
CLUSTERS
 10
632.61655773400003
 20
4674.3437756800004
 30
5.0
  0
VERTEX
  5
5AD
  8
CLUSTERS
 10
632.51633986900003
 20
4674.3363154999979
 30
5.0
  0
VERTEX
  5
5AE
  8
CLUSTERS
 10
632.41612200400004
 20
4674.3386497700012
 30
5.0
  0
VERTEX
  5
5AF
  8
CLUSTERS
 10
632.32078312800002
 20
4674.4343675399987
 30
5.0
  0
SEQEND
  5
5B0
  8
CLUSTERS
  0
POLYLINE
  5
43
  8
CLUSTERS
 66
     1
 10
0.0
 20
0.0
 30
5.0
 70
   129
  0
VERTEX
  5
5B1
  8
CLUSTERS
 10
649.96528722899996
 20
4671.7279236300001
 30
5.0
  0
VERTEX
  5
5B2
  8
CLUSTERS
 10
650.00844243899985
 20
4671.8281622900004
 30
5.0
  0
VERTEX
  5
5B3
  8
CLUSTERS
 10
650.05446623099999
 20
4671.8741774
 30
5.0
  0
VERTEX
  5
5B4
  8
CLUSTERS
 10
650.10190767400002
 20
4671.8281622900004
 30
5.0
  0
VERTEX
  5
5B5
  8
CLUSTERS
 10
650.15468409599976
 20
4671.8175448999991
 30
5.0
  0
VERTEX
  5
5B6
  8
CLUSTERS
 10
650.24377514100001
 20
4671.7279236300001
 30
5.0
  0
VERTEX
  5
5B7
  8
CLUSTERS
 10
650.15468409599976
 20
4671.6388032599998
 30
5.0
  0
VERTEX
  5
5B8
  8
CLUSTERS
 10
650.05446623099999
 20
4671.6388348299997
 30
5.0
  0
VERTEX
  5
5B9
  8
CLUSTERS
 10
649.96528722899996
 20
4671.7279236300001
 30
5.0
  0
SEQEND
  5
5BA
  8
CLUSTERS
  0
POLYLINE
  5
44
  8
CLUSTERS
 66
     1
 10
0.0
 20
0.0
 30
5.0
 70
   129
  0
VERTEX
  5
5BB
  8
CLUSTERS
 10
649.57062229300004
 20
4670.5250596699998
 30
5.0
  0
VERTEX
  5
5BC
  8
CLUSTERS
 10
649.564282499
 20
4670.6252983300001
 30
5.0
  0
VERTEX
  5
5BD
  8
CLUSTERS
 10
649.55337690600004
 20
4670.6370031200004
 30
5.0
  0
VERTEX
  5
5BE
  8
CLUSTERS
 10
649.46501283999987
 20
4670.7255369900004
 30
5.0
  0
VERTEX
  5
5BF
  8
CLUSTERS
 10
649.45632435200002
 20
4670.8257756599996
 30
5.0
  0
VERTEX
  5
5C0
  8
CLUSTERS
 10
649.55337690600004
 20
4670.9235564700002
 30
5.0
  0
VERTEX
  5
5C1
  8
CLUSTERS
 10
649.65359477100003
 20
4670.9239693400013
 30
5.0
  0
VERTEX
  5
5C2
  8
CLUSTERS
 10
649.74889045999987
 20
4670.8257756599996
 30
5.0
  0
VERTEX
  5
5C3
  8
CLUSTERS
 10
649.73059061800006
 20
4670.7255369900004
 30
5.0
  0
VERTEX
  5
5C4
  8
CLUSTERS
 10
649.75381263600002
 20
4670.6954182500012
 30
5.0
  0
VERTEX
  5
5C5
  8
CLUSTERS
 10
649.82256035299997
 20
4670.6252983300001
 30
5.0
  0
VERTEX
  5
5C6
  8
CLUSTERS
 10
649.75381263600002
 20
4670.5516197799998
 30
5.0
  0
VERTEX
  5
5C7
  8
CLUSTERS
 10
649.7394833999997
 20
4670.5250596699998
 30
5.0
  0
VERTEX
  5
5C8
  8
CLUSTERS
 10
649.65359477100003
 20
4670.4423568100001
 30
5.0
  0
VERTEX
  5
5C9
  8
CLUSTERS
 10
649.57062229300004
 20
4670.5250596699998
 30
5.0
  0
SEQEND
  5
5CA
  8
CLUSTERS
  0
POLYLINE
  5
45
  8
CLUSTERS
 66
     1
 10
0.0
 20
0.0
 30
5.0
 70
   129
  0
VERTEX
  5
5CB
  8
CLUSTERS
 10
643.84820885099975
 20
4668.319809069998
 30
5.0
  0
VERTEX
  5
5CC
  8
CLUSTERS
 10
643.84095860599984
 20
4668.3215634300013
 30
5.0
  0
VERTEX
  5
5CD
  8
CLUSTERS
 10
643.74074074099985
 20
4668.3200729099999
 30
5.0
  0
VERTEX
  5
5CE
  8
CLUSTERS
 10
643.64052287599986
 20
4668.32317306
 30
5.0
  0
VERTEX
  5
5CF
  8
CLUSTERS
 10
643.54387299099994
 20
4668.4200477300001
 30
5.0
  0
VERTEX
  5
5D0
  8
CLUSTERS
 10
643.54455116700001
 20
4668.5202863999984
 30
5.0
  0
VERTEX
  5
5D1
  8
CLUSTERS
 10
643.64050180599997
 20
4668.6205250599978
 30
5.0
  0
VERTEX
  5
5D2
  8
CLUSTERS
 10
643.64052287599986
 20
4668.6205456300004
 30
5.0
  0
VERTEX
  5
5D3
  8
CLUSTERS
 10
643.74074074099985
 20
4668.7110738799993
 30
5.0
  0
VERTEX
  5
5D4
  8
CLUSTERS
 10
643.84095860599984
 20
4668.7063256700003
 30
5.0
  0
VERTEX
  5
5D5
  8
CLUSTERS
 10
643.93372005699985
 20
4668.6205250599978
 30
5.0
  0
VERTEX
  5
5D6
  8
CLUSTERS
 10
643.94117647099995
 20
4668.6136674899981
 30
5.0
  0
VERTEX
  5
5D7
  8
CLUSTERS
 10
643.94467034000002
 20
4668.6205250599978
 30
5.0
  0
VERTEX
  5
5D8
  8
CLUSTERS
 10
644.04139433599994
 20
4668.7147584499999
 30
5.0
  0
VERTEX
  5
5D9
  8
CLUSTERS
 10
644.13426325800003
 20
4668.6205250599978
 30
5.0
  0
VERTEX
  5
5DA
  8
CLUSTERS
 10
644.13850471699993
 20
4668.5202863999984
 30
5.0
  0
VERTEX
  5
5DB
  8
CLUSTERS
 10
644.13749291699992
 20
4668.4200477300001
 30
5.0
  0
VERTEX
  5
5DC
  8
CLUSTERS
 10
644.04139433599994
 20
4668.3221501300004
 30
5.0
  0
VERTEX
  5
5DD
  8
CLUSTERS
 10
644.03590645999986
 20
4668.319809069998
 30
5.0
  0
VERTEX
  5
5DE
  8
CLUSTERS
 10
643.94117647099995
 20
4668.2301926999999
 30
5.0
  0
VERTEX
  5
5DF
  8
CLUSTERS
 10
643.84820885099975
 20
4668.319809069998
 30
5.0
  0
SEQEND
  5
5E0
  8
CLUSTERS
  0
POLYLINE
  5
46
  8
CLUSTERS
 66
     1
 10
0.0
 20
0.0
 30
5.0
 70
   129
  0
VERTEX
  5
5E1
  8
CLUSTERS
 10
652.41236756800004
 20
4667.1169451100004
 30
5.0
  0
VERTEX
  5
5E2
  8
CLUSTERS
 10
652.45969498900001
 20
4667.169841699998
 30
5.0
  0
VERTEX
  5
5E3
  8
CLUSTERS
 10
652.48068047299978
 20
4667.2171837699998
 30
5.0
  0
VERTEX
  5
5E4
  8
CLUSTERS
 10
652.47219456599976
 20
4667.3174224300001
 30
5.0
  0
VERTEX
  5
5E5
  8
CLUSTERS
 10
652.559912854
 20
4667.4087563100002
 30
5.0
  0
VERTEX
  5
5E6
  8
CLUSTERS
 10
652.64675180799975
 20
4667.3174224300001
 30
5.0
  0
VERTEX
  5
5E7
  8
CLUSTERS
 10
652.63577879800016
 20
4667.2171837699998
 30
5.0
  0
VERTEX
  5
5E8
  8
CLUSTERS
 10
652.64083921400004
 20
4667.1169451100004
 30
5.0
  0
VERTEX
  5
5E9
  8
CLUSTERS
 10
652.559912854
 20
4667.0363549800013
 30
5.0
  0
VERTEX
  5
5EA
  8
CLUSTERS
 10
652.45969498900001
 20
4667.0700178200013
 30
5.0
  0
VERTEX
  5
5EB
  8
CLUSTERS
 10
652.41236756800004
 20
4667.1169451100004
 30
5.0
  0
SEQEND
  5
5EC
  8
CLUSTERS
  0
POLYLINE
  5
47
  8
CLUSTERS
 66
     1
 10
0.0
 20
0.0
 30
5.0
 70
   129
  0
VERTEX
  5
5ED
  8
CLUSTERS
 10
643.86075146899998
 20
4667.1169451100004
 30
5.0
  0
VERTEX
  5
5EE
  8
CLUSTERS
 10
643.84095860599984
 20
4667.1196835700002
 30
5.0
  0
VERTEX
  5
5EF
  8
CLUSTERS
 10
643.74323814199977
 20
4667.2171837699998
 30
5.0
  0
VERTEX
  5
5F0
  8
CLUSTERS
 10
643.74183358199991
 20
4667.3174224300001
 30
5.0
  0
VERTEX
  5
5F1
  8
CLUSTERS
 10
643.75165116599999
 20
4667.4176611000003
 30
5.0
  0
VERTEX
  5
5F2
  8
CLUSTERS
 10
643.84095860599984
 20
4667.5090017499997
 30
5.0
  0
VERTEX
  5
5F3
  8
CLUSTERS
 10
643.90151967700001
 20
4667.5178997599987
 30
5.0
  0
VERTEX
  5
5F4
  8
CLUSTERS
 10
643.94117647099995
 20
4667.5463604899987
 30
5.0
  0
VERTEX
  5
5F5
  8
CLUSTERS
 10
644.04139433599994
 20
4667.53952226
 30
5.0
  0
VERTEX
  5
5F6
  8
CLUSTERS
 10
644.05187195400003
 20
4667.618138419999
 30
5.0
  0
VERTEX
  5
5F7
  8
CLUSTERS
 10
644.14161220000005
 20
4667.7125605900001
 30
5.0
  0
VERTEX
  5
5F8
  8
CLUSTERS
 10
644.17704709999975
 20
4667.7183770899992
 30
5.0
  0
VERTEX
  5
5F9
  8
CLUSTERS
 10
644.24183006500004
 20
4667.7647095599987
 30
5.0
  0
VERTEX
  5
5FA
  8
CLUSTERS
 10
644.34204793000004
 20
4667.7446613100001
 30
5.0
  0
VERTEX
  5
5FB
  8
CLUSTERS
 10
644.37998386799995
 20
4667.7183770899992
 30
5.0
  0
VERTEX
  5
5FC
  8
CLUSTERS
 10
644.44226579500003
 20
4667.7087441499998
 30
5.0
  0
VERTEX
  5
5FD
  8
CLUSTERS
 10
644.52806306800005
 20
4667.618138419999
 30
5.0
  0
VERTEX
  5
5FE
  8
CLUSTERS
 10
644.52524362500003
 20
4667.5178997599987
 30
5.0
  0
VERTEX
  5
5FF
  8
CLUSTERS
 10
644.44226579500003
 20
4667.4243092099996
 30
5.0
  0
VERTEX
  5
600
  8
CLUSTERS
 10
644.41326234799976
 20
4667.4176611000003
 30
5.0
  0
VERTEX
  5
601
  8
CLUSTERS
 10
644.44226579500003
 20
4667.41335514
 30
5.0
  0
VERTEX
  5
602
  8
CLUSTERS
 10
644.5424836599999
 20
4667.4112735999988
 30
5.0
  0
VERTEX
  5
603
  8
CLUSTERS
 10
644.63130317800005
 20
4667.3174224300001
 30
5.0
  0
VERTEX
  5
604
  8
CLUSTERS
 10
644.5424836599999
 20
4667.2271296500003
 30
5.0
  0
VERTEX
  5
605
  8
CLUSTERS
 10
644.53574192300005
 20
4667.2171837699998
 30
5.0
  0
VERTEX
  5
606
  8
CLUSTERS
 10
644.44226579500003
 20
4667.11798636
 30
5.0
  0
VERTEX
  5
607
  8
CLUSTERS
 10
644.34204793000004
 20
4667.1169491700002
 30
5.0
  0
VERTEX
  5
608
  8
CLUSTERS
 10
644.24320414099998
 20
4667.2171837699998
 30
5.0
  0
VERTEX
  5
609
  8
CLUSTERS
 10
644.2421606449999
 20
4667.3174224300001
 30
5.0
  0
VERTEX
  5
60A
  8
CLUSTERS
 10
644.28090667000004
 20
4667.4176611000003
 30
5.0
  0
VERTEX
  5
60B
  8
CLUSTERS
 10
644.24183006500004
 20
4667.4220349799998
 30
5.0
  0
VERTEX
  5
60C
  8
CLUSTERS
 10
644.21743568999977
 20
4667.4176611000003
 30
5.0
  0
VERTEX
  5
60D
  8
CLUSTERS
 10
644.24148471900003
 20
4667.3174224300001
 30
5.0
  0
VERTEX
  5
60E
  8
CLUSTERS
 10
644.23328555300009
 20
4667.2171837699998
 30
5.0
  0
VERTEX
  5
60F
  8
CLUSTERS
 10
644.14161220000005
 20
4667.13142926
 30
5.0
  0
VERTEX
  5
610
  8
CLUSTERS
 10
644.04139433599994
 20
4667.121620599999
 30
5.0
  0
VERTEX
  5
611
  8
CLUSTERS
 10
644.02241439199997
 20
4667.1169451100004
 30
5.0
  0
VERTEX
  5
612
  8
CLUSTERS
 10
643.94117647099995
 20
4667.0407700399992
 30
5.0
  0
VERTEX
  5
613
  8
CLUSTERS
 10
643.86075146899998
 20
4667.1169451100004
 30
5.0
  0
SEQEND
  5
614
  8
CLUSTERS
  0
POLYLINE
  5
48
  8
CLUSTERS
 66
     1
 10
0.0
 20
0.0
 30
5.0
 70
   129
  0
VERTEX
  5
615
  8
CLUSTERS
 10
647.88180181099995
 20
4666.6157517900001
 30
5.0
  0
VERTEX
  5
616
  8
CLUSTERS
 10
647.90114441499998
 20
4666.7159904500013
 30
5.0
  0
VERTEX
  5
617
  8
CLUSTERS
 10
647.94989106800006
 20
4666.7692916100004
 30
5.0
  0
VERTEX
  5
618
  8
CLUSTERS
 10
647.99430957899995
 20
4666.8162291199997
 30
5.0
  0
VERTEX
  5
619
  8
CLUSTERS
 10
647.95773788899999
 20
4666.9164677799999
 30
5.0
  0
VERTEX
  5
61A
  8
CLUSTERS
 10
647.97145465899985
 20
4667.0167064400002
 30
5.0
  0
VERTEX
  5
61B
  8
CLUSTERS
 10
648.01365108499999
 20
4667.1169451100004
 30
5.0
  0
VERTEX
  5
61C
  8
CLUSTERS
 10
647.94989106800006
 20
4667.1261068100002
 30
5.0
  0
VERTEX
  5
61D
  8
CLUSTERS
 10
647.84967320299995
 20
4667.1425663399987
 30
5.0
  0
VERTEX
  5
61E
  8
CLUSTERS
 10
647.74945533799996
 20
4667.1387811000022
 30
5.0
  0
VERTEX
  5
61F
  8
CLUSTERS
 10
647.73158599400006
 20
4667.1169451100004
 30
5.0
  0
VERTEX
  5
620
  8
CLUSTERS
 10
647.64923747300008
 20
4667.035733579999
 30
5.0
  0
VERTEX
  5
621
  8
CLUSTERS
 10
647.54925326800003
 20
4667.1169451100004
 30
5.0
  0
VERTEX
  5
622
  8
CLUSTERS
 10
647.54901960799987
 20
4667.1172466799999
 30
5.0
  0
VERTEX
  5
623
  8
CLUSTERS
 10
647.47157655399997
 20
4667.2171837699998
 30
5.0
  0
VERTEX
  5
624
  8
CLUSTERS
 10
647.54901960799987
 20
4667.2995576200001
 30
5.0
  0
VERTEX
  5
625
  8
CLUSTERS
 10
647.64923747300008
 20
4667.3165965999997
 30
5.0
  0
VERTEX
  5
626
  8
CLUSTERS
 10
647.65289971000004
 20
4667.3174224300001
 30
5.0
  0
VERTEX
  5
627
  8
CLUSTERS
 10
647.74945533799996
 20
4667.3979762700001
 30
5.0
  0
VERTEX
  5
628
  8
CLUSTERS
 10
647.84967320299995
 20
4667.4114734200002
 30
5.0
  0
VERTEX
  5
629
  8
CLUSTERS
 10
647.94989106800006
 20
4667.4114570499996
 30
5.0
  0
VERTEX
  5
62A
  8
CLUSTERS
 10
648.05010893199994
 20
4667.3360847900003
 30
5.0
  0
VERTEX
  5
62B
  8
CLUSTERS
 10
648.06738802899974
 20
4667.3174224300001
 30
5.0
  0
VERTEX
  5
62C
  8
CLUSTERS
 10
648.05010893199994
 20
4667.2949387799999
 30
5.0
  0
VERTEX
  5
62D
  8
CLUSTERS
 10
648.02432786400004
 20
4667.2171837699998
 30
5.0
  0
VERTEX
  5
62E
  8
CLUSTERS
 10
648.05010893199994
 20
4667.1312211100003
 30
5.0
  0
VERTEX
  5
62F
  8
CLUSTERS
 10
648.06148613000016
 20
4667.1169451100004
 30
5.0
  0
VERTEX
  5
630
  8
CLUSTERS
 10
648.14935311500005
 20
4667.0167064400002
 30
5.0
  0
VERTEX
  5
631
  8
CLUSTERS
 10
648.15032679699993
 20
4667.0151809500003
 30
5.0
  0
VERTEX
  5
632
  8
CLUSTERS
 10
648.21366913600002
 20
4666.9164677799999
 30
5.0
  0
VERTEX
  5
633
  8
CLUSTERS
 10
648.15032679699993
 20
4666.8509825299989
 30
5.0
  0
VERTEX
  5
634
  8
CLUSTERS
 10
648.10315706099993
 20
4666.8162291199997
 30
5.0
  0
VERTEX
  5
635
  8
CLUSTERS
 10
648.14369147399975
 20
4666.7159904500013
 30
5.0
  0
VERTEX
  5
636
  8
CLUSTERS
 10
648.14769881799975
 20
4666.6157517900001
 30
5.0
  0
VERTEX
  5
637
  8
CLUSTERS
 10
648.05010893199994
 20
4666.5187966399999
 30
5.0
  0
VERTEX
  5
638
  8
CLUSTERS
 10
647.94989106800006
 20
4666.5468277600003
 30
5.0
  0
VERTEX
  5
639
  8
CLUSTERS
 10
647.88180181099995
 20
4666.6157517900001
 30
5.0
  0
SEQEND
  5
63A
  8
CLUSTERS
  0
POLYLINE
  5
49
  8
CLUSTERS
 66
     1
 10
0.0
 20
0.0
 30
5.0
 70
   129
  0
VERTEX
  5
63B
  8
CLUSTERS
 10
647.81062300599979
 20
4666.1145584699998
 30
5.0
  0
VERTEX
  5
63C
  8
CLUSTERS
 10
647.84967320299995
 20
4666.2105947999989
 30
5.0
  0
VERTEX
  5
63D
  8
CLUSTERS
 10
647.85250658999985
 20
4666.21479714
 30
5.0
  0
VERTEX
  5
63E
  8
CLUSTERS
 10
647.84967320299995
 20
4666.2149380399987
 30
5.0
  0
VERTEX
  5
63F
  8
CLUSTERS
 10
647.74945533799996
 20
4666.2739700000002
 30
5.0
  0
VERTEX
  5
640
  8
CLUSTERS
 10
647.70924770800002
 20
4666.3150358000003
 30
5.0
  0
VERTEX
  5
641
  8
CLUSTERS
 10
647.74945533799996
 20
4666.3627150599987
 30
5.0
  0
VERTEX
  5
642
  8
CLUSTERS
 10
647.76738081600001
 20
4666.4152744599987
 30
5.0
  0
VERTEX
  5
643
  8
CLUSTERS
 10
647.84967320299995
 20
4666.4970145099987
 30
5.0
  0
VERTEX
  5
644
  8
CLUSTERS
 10
647.930021302
 20
4666.4152744599987
 30
5.0
  0
VERTEX
  5
645
  8
CLUSTERS
 10
647.94681891800008
 20
4666.3150358000003
 30
5.0
  0
VERTEX
  5
646
  8
CLUSTERS
 10
647.94989106800006
 20
4666.2754137800002
 30
5.0
  0
VERTEX
  5
647
  8
CLUSTERS
 10
647.99962015300002
 20
4666.21479714
 30
5.0
  0
VERTEX
  5
648
  8
CLUSTERS
 10
648.02251192899996
 20
4666.1145584699998
 30
5.0
  0
VERTEX
  5
649
  8
CLUSTERS
 10
647.94989106800006
 20
4666.0425123900004
 30
5.0
  0
VERTEX
  5
64A
  8
CLUSTERS
 10
647.84967320299995
 20
4666.0758497300003
 30
5.0
  0
VERTEX
  5
64B
  8
CLUSTERS
 10
647.81062300599979
 20
4666.1145584699998
 30
5.0
  0
SEQEND
  5
64C
  8
CLUSTERS
  0
POLYLINE
  5
4A
  8
CLUSTERS
 66
     1
 10
0.0
 20
0.0
 30
5.0
 70
   129
  0
VERTEX
  5
64D
  8
CLUSTERS
 10
637.83428099900004
 20
4665.5131264900001
 30
5.0
  0
VERTEX
  5
64E
  8
CLUSTERS
 10
637.85107830499999
 20
4665.6133651600003
 30
5.0
  0
VERTEX
  5
64F
  8
CLUSTERS
 10
637.92810457499979
 20
4665.6947811500004
 30
5.0
  0
VERTEX
  5
650
  8
CLUSTERS
 10
638.02832244000001
 20
4665.6775676400002
 30
5.0
  0
VERTEX
  5
651
  8
CLUSTERS
 10
638.10972994799999
 20
4665.7136038199997
 30
5.0
  0
VERTEX
  5
652
  8
CLUSTERS
 10
638.128540305
 20
4665.7269663000015
 30
5.0
  0
VERTEX
  5
653
  8
CLUSTERS
 10
638.14469652399998
 20
4665.7136038199997
 30
5.0
  0
VERTEX
  5
654
  8
CLUSTERS
 10
638.22447050699975
 20
4665.6133651600003
 30
5.0
  0
VERTEX
  5
655
  8
CLUSTERS
 10
638.223887322
 20
4665.5131264900001
 30
5.0
  0
VERTEX
  5
656
  8
CLUSTERS
 10
638.128540305
 20
4665.4224244300003
 30
5.0
  0
VERTEX
  5
657
  8
CLUSTERS
 10
638.02832244000001
 20
4665.4488769700001
 30
5.0
  0
VERTEX
  5
658
  8
CLUSTERS
 10
637.92810457499979
 20
4665.4145161699998
 30
5.0
  0
VERTEX
  5
659
  8
CLUSTERS
 10
637.83428099900004
 20
4665.5131264900001
 30
5.0
  0
SEQEND
  5
65A
  8
CLUSTERS
  0
POLYLINE
  5
4B
  8
CLUSTERS
 66
     1
 10
0.0
 20
0.0
 30
5.0
 70
   129
  0
VERTEX
  5
65B
  8
CLUSTERS
 10
645.34633758899997
 20
4665.3126491599987
 30
5.0
  0
VERTEX
  5
65C
  8
CLUSTERS
 10
645.34422658000005
 20
4665.4004523200001
 30
5.0
  0
VERTEX
  5
65D
  8
CLUSTERS
 10
645.33665412900007
 20
4665.4128878299998
 30
5.0
  0
VERTEX
  5
65E
  8
CLUSTERS
 10
645.34422658000005
 20
4665.4289730199998
 30
5.0
  0
VERTEX
  5
65F
  8
CLUSTERS
 10
645.34930118699992
 20
4665.5131264900001
 30
5.0
  0
VERTEX
  5
660
  8
CLUSTERS
 10
645.44444444400006
 20
4665.6035227499988
 30
5.0
  0
VERTEX
  5
661
  8
CLUSTERS
 10
645.54466230900005
 20
4665.5823666999977
 30
5.0
  0
VERTEX
  5
662
  8
CLUSTERS
 10
645.63010634199975
 20
4665.5131264900001
 30
5.0
  0
VERTEX
  5
663
  8
CLUSTERS
 10
645.64488017400004
 20
4665.5051991600003
 30
5.0
  0
VERTEX
  5
664
  8
CLUSTERS
 10
645.72523556399995
 20
4665.4128878299998
 30
5.0
  0
VERTEX
  5
665
  8
CLUSTERS
 10
645.69118254699993
 20
4665.3126491599987
 30
5.0
  0
VERTEX
  5
666
  8
CLUSTERS
 10
645.64488017400004
 20
4665.2669576300004
 30
5.0
  0
VERTEX
  5
667
  8
CLUSTERS
 10
645.54466230900005
 20
4665.2817592099991
 30
5.0
  0
VERTEX
  5
668
  8
CLUSTERS
 10
645.44444444400006
 20
4665.2156271000003
 30
5.0
  0
VERTEX
  5
669
  8
CLUSTERS
 10
645.34633758899997
 20
4665.3126491599987
 30
5.0
  0
SEQEND
  5
66A
  8
CLUSTERS
  0
POLYLINE
  5
4C
  8
CLUSTERS
 66
     1
 10
0.0
 20
0.0
 30
5.0
 70
   129
  0
VERTEX
  5
66B
  8
CLUSTERS
 10
646.98138034699991
 20
4664.9116945100004
 30
5.0
  0
VERTEX
  5
66C
  8
CLUSTERS
 10
646.95236068999998
 20
4665.011933169998
 30
5.0
  0
VERTEX
  5
66D
  8
CLUSTERS
 10
646.94771241800004
 20
4665.0137700200003
 30
5.0
  0
VERTEX
  5
66E
  8
CLUSTERS
 10
646.84911440899975
 20
4665.1121718399991
 30
5.0
  0
VERTEX
  5
66F
  8
CLUSTERS
 10
646.84871570899998
 20
4665.2124105000003
 30
5.0
  0
VERTEX
  5
670
  8
CLUSTERS
 10
646.86321125599989
 20
4665.3126491599987
 30
5.0
  0
VERTEX
  5
671
  8
CLUSTERS
 10
646.94771241800004
 20
4665.39667465
 30
5.0
  0
VERTEX
  5
672
  8
CLUSTERS
 10
647.04793028300003
 20
4665.4029277199979
 30
5.0
  0
VERTEX
  5
673
  8
CLUSTERS
 10
647.14814814800002
 20
4665.3437661400003
 30
5.0
  0
VERTEX
  5
674
  8
CLUSTERS
 10
647.2483660129999
 20
4665.3852416299997
 30
5.0
  0
VERTEX
  5
675
  8
CLUSTERS
 10
647.348583878
 20
4665.4084781999991
 30
5.0
  0
VERTEX
  5
676
  8
CLUSTERS
 10
647.35305139299999
 20
4665.4128878299998
 30
5.0
  0
VERTEX
  5
677
  8
CLUSTERS
 10
647.35209701799999
 20
4665.5131264900001
 30
5.0
  0
VERTEX
  5
678
  8
CLUSTERS
 10
647.35658170099987
 20
4665.6133651600003
 30
5.0
  0
VERTEX
  5
679
  8
CLUSTERS
 10
647.44880174299976
 20
4665.7129693200004
 30
5.0
  0
VERTEX
  5
67A
  8
CLUSTERS
 10
647.45399480900005
 20
4665.7136038199997
 30
5.0
  0
VERTEX
  5
67B
  8
CLUSTERS
 10
647.54901960799987
 20
4665.7638748600002
 30
5.0
  0
VERTEX
  5
67C
  8
CLUSTERS
 10
647.60313225799996
 20
4665.7136038199997
 30
5.0
  0
VERTEX
  5
67D
  8
CLUSTERS
 10
647.64641551199975
 20
4665.6133651600003
 30
5.0
  0
VERTEX
  5
67E
  8
CLUSTERS
 10
647.64648344499994
 20
4665.5131264900001
 30
5.0
  0
VERTEX
  5
67F
  8
CLUSTERS
 10
647.63035935599987
 20
4665.4128878299998
 30
5.0
  0
VERTEX
  5
680
  8
CLUSTERS
 10
647.54901960799987
 20
4665.3303559799997
 30
5.0
  0
VERTEX
  5
681
  8
CLUSTERS
 10
647.52532540300001
 20
4665.3126491599987
 30
5.0
  0
VERTEX
  5
682
  8
CLUSTERS
 10
647.53836455600003
 20
4665.2124105000003
 30
5.0
  0
VERTEX
  5
683
  8
CLUSTERS
 10
647.54354749499998
 20
4665.1121718399991
 30
5.0
  0
VERTEX
  5
684
  8
CLUSTERS
 10
647.44880174299976
 20
4665.018009639999
 30
5.0
  0
VERTEX
  5
685
  8
CLUSTERS
 10
647.348583878
 20
4665.0127701299998
 30
5.0
  0
VERTEX
  5
686
  8
CLUSTERS
 10
647.34564586699992
 20
4665.011933169998
 30
5.0
  0
VERTEX
  5
687
  8
CLUSTERS
 10
647.2483660129999
 20
4664.9200876900004
 30
5.0
  0
VERTEX
  5
688
  8
CLUSTERS
 10
647.24172893299999
 20
4664.9116945100004
 30
5.0
  0
VERTEX
  5
689
  8
CLUSTERS
 10
647.14814814800002
 20
4664.8199677100001
 30
5.0
  0
VERTEX
  5
68A
  8
CLUSTERS
 10
647.04793028300003
 20
4664.8465715399998
 30
5.0
  0
VERTEX
  5
68B
  8
CLUSTERS
 10
646.98138034699991
 20
4664.9116945100004
 30
5.0
  0
SEQEND
  5
68C
  8
CLUSTERS
  0
POLYLINE
  5
4D
  8
CLUSTERS
 66
     1
 10
0.0
 20
0.0
 30
5.0
 70
   129
  0
VERTEX
  5
68D
  8
CLUSTERS
 10
645.77242832399997
 20
4664.9116945100004
 30
5.0
  0
VERTEX
  5
68E
  8
CLUSTERS
 10
645.84531590400002
 20
4665.0045577600004
 30
5.0
  0
VERTEX
  5
68F
  8
CLUSTERS
 10
645.85386158999995
 20
4665.011933169998
 30
5.0
  0
VERTEX
  5
690
  8
CLUSTERS
 10
645.90746923400002
 20
4665.1121718399991
 30
5.0
  0
VERTEX
  5
691
  8
CLUSTERS
 10
645.94553376900001
 20
4665.1807254300002
 30
5.0
  0
VERTEX
  5
692
  8
CLUSTERS
 10
645.94802306899976
 20
4665.2124105000003
 30
5.0
  0
VERTEX
  5
693
  8
CLUSTERS
 10
646.04575163399988
 20
4665.3059117399989
 30
5.0
  0
VERTEX
  5
694
  8
CLUSTERS
 10
646.14596949899999
 20
4665.3114354299978
 30
5.0
  0
VERTEX
  5
695
  8
CLUSTERS
 10
646.24618736399975
 20
4665.2950278300004
 30
5.0
  0
VERTEX
  5
696
  8
CLUSTERS
 10
646.320763242
 20
4665.2124105000003
 30
5.0
  0
VERTEX
  5
697
  8
CLUSTERS
 10
646.32117204500003
 20
4665.1121718399991
 30
5.0
  0
VERTEX
  5
698
  8
CLUSTERS
 10
646.24618736399975
 20
4665.0325998099988
 30
5.0
  0
VERTEX
  5
699
  8
CLUSTERS
 10
646.23610996299976
 20
4665.011933169998
 30
5.0
  0
VERTEX
  5
69A
  8
CLUSTERS
 10
646.14596949899999
 20
4664.92424003
 30
5.0
  0
VERTEX
  5
69B
  8
CLUSTERS
 10
646.04575163399988
 20
4664.9158881699987
 30
5.0
  0
VERTEX
  5
69C
  8
CLUSTERS
 10
646.03009272700001
 20
4664.9116945100004
 30
5.0
  0
VERTEX
  5
69D
  8
CLUSTERS
 10
645.94553376900001
 20
4664.8311263599999
 30
5.0
  0
VERTEX
  5
69E
  8
CLUSTERS
 10
645.84531590400002
 20
4664.8392626799996
 30
5.0
  0
VERTEX
  5
69F
  8
CLUSTERS
 10
645.77242832399997
 20
4664.9116945100004
 30
5.0
  0
SEQEND
  5
6A0
  8
CLUSTERS
  0
POLYLINE
  5
4E
  8
CLUSTERS
 66
     1
 10
0.0
 20
0.0
 30
5.0
 70
   129
  0
VERTEX
  5
6A1
  8
CLUSTERS
 10
640.40594766699985
 20
4661.4033412899989
 30
5.0
  0
VERTEX
  5
6A2
  8
CLUSTERS
 10
640.43355119800003
 20
4661.4704975900004
 30
5.0
  0
VERTEX
  5
6A3
  8
CLUSTERS
 10
640.47232684300002
 20
4661.4033412899989
 30
5.0
  0
VERTEX
  5
6A4
  8
CLUSTERS
 10
640.43355119800003
 20
4661.3679507099978
 30
5.0
  0
VERTEX
  5
6A5
  8
CLUSTERS
 10
640.40594766699985
 20
4661.4033412899989
 30
5.0
  0
SEQEND
  5
6A6
  8
CLUSTERS
  0
ENDSEC
  0
EOF
