  0
SECTION
  2
HEADER
  9
$ACADVER
  1
AC1009
  9
$INSBASE
 10
0.0
 20
0.0
 30
0.0
  9
$EXTMIN
 10
664372.77025226178
 20
4793376.9712664401
 30
0.0
  9
$EXTMAX
 10
686219.42396552244
 20
4811454.421712446
 30
0.0
  9
$LIMMIN
 10
0.0
 20
0.0
  9
$LIMMAX
 10
12.0
 20
9.0
  9
$ORTHOMODE
 70
     0
  9
$REGENMODE
 70
     1
  9
$FILLMODE
 70
     1
  9
$QTEXTMODE
 70
     0
  9
$MIRRTEXT
 70
     0
  9
$DRAGMODE
 70
     2
  9
$LTSCALE
 40
1.0
  9
$OSMODE
 70
    37
  9
$ATTMODE
 70
     1
  9
$TEXTSIZE
 40
200.0
  9
$TRACEWID
 40
0.05
  9
$TEXTSTYLE
  7
STANDARD
  9
$CLAYER
  8
RIVERS_AND_CHANNELS
  9
$CELTYPE
  6
BYLAYER
  9
$CECOLOR
 62
   256
  9
$DIMSCALE
 40
1.0
  9
$DIMASZ
 40
0.18
  9
$DIMEXO
 40
0.0625
  9
$DIMDLI
 40
0.38
  9
$DIMRND
 40
0.0
  9
$DIMDLE
 40
0.0
  9
$DIMEXE
 40
0.18
  9
$DIMTP
 40
0.0
  9
$DIMTM
 40
0.0
  9
$DIMTXT
 40
0.18
  9
$DIMCEN
 40
0.09
  9
$DIMTSZ
 40
0.0
  9
$DIMTOL
 70
     0
  9
$DIMLIM
 70
     0
  9
$DIMTIH
 70
     1
  9
$DIMTOH
 70
     1
  9
$DIMSE1
 70
     0
  9
$DIMSE2
 70
     0
  9
$DIMTAD
 70
     0
  9
$DIMZIN
 70
     0
  9
$DIMBLK
  1

  9
$DIMASO
 70
     1
  9
$DIMSHO
 70
     1
  9
$DIMPOST
  1

  9
$DIMAPOST
  1

  9
$DIMALT
 70
     0
  9
$DIMALTD
 70
     2
  9
$DIMALTF
 40
25.399999999999999
  9
$DIMLFAC
 40
1.0
  9
$DIMTOFL
 70
     0
  9
$DIMTVP
 40
0.0
  9
$DIMTIX
 70
     0
  9
$DIMSOXD
 70
     0
  9
$DIMSAH
 70
     0
  9
$DIMBLK1
  1

  9
$DIMBLK2
  1

  9
$DIMSTYLE
  2
STANDARD
  9
$DIMCLRD
 70
     0
  9
$DIMCLRE
 70
     0
  9
$DIMCLRT
 70
     0
  9
$DIMTFAC
 40
1.0
  9
$DIMGAP
 40
0.09
  9
$LUNITS
 70
     2
  9
$LUPREC
 70
     4
  9
$SKETCHINC
 40
0.1
  9
$FILLETRAD
 40
0.0
  9
$AUNITS
 70
     0
  9
$AUPREC
 70
     0
  9
$MENU
  1
.
  9
$ELEVATION
 40
0.0
  9
$PELEVATION
 40
0.0
  9
$THICKNESS
 40
0.0
  9
$LIMCHECK
 70
     0
  9
$BLIPMODE
 70
     0
  9
$CHAMFERA
 40
0.0
  9
$CHAMFERB
 40
0.0
  9
$SKPOLY
 70
     0
  9
$TDCREATE
 40
2455831.585385602
  9
$TDUPDATE
 40
2456233.6369817131
  9
$TDINDWG
 40
0.3624950579
  9
$TDUSRTIMER
 40
0.3624890972
  9
$USRTIMER
 70
     1
  9
$ANGBASE
 50
0.0
  9
$ANGDIR
 70
     0
  9
$PDMODE
 70
     0
  9
$PDSIZE
 40
0.0
  9
$PLINEWID
 40
0.0
  9
$COORDS
 70
     1
  9
$SPLFRAME
 70
     0
  9
$SPLINETYPE
 70
     6
  9
$SPLINESEGS
 70
     8
  9
$ATTDIA
 70
     0
  9
$ATTREQ
 70
     1
  9
$HANDLING
 70
     1
  9
$HANDSEED
  5
A78
  9
$SURFTAB1
 70
     6
  9
$SURFTAB2
 70
     6
  9
$SURFTYPE
 70
     6
  9
$SURFU
 70
     6
  9
$SURFV
 70
     6
  9
$UCSNAME
  2

  9
$UCSORG
 10
0.0
 20
0.0
 30
0.0
  9
$UCSXDIR
 10
1.0
 20
0.0
 30
0.0
  9
$UCSYDIR
 10
0.0
 20
1.0
 30
0.0
  9
$PUCSNAME
  2

  9
$PUCSORG
 10
0.0
 20
0.0
 30
0.0
  9
$PUCSXDIR
 10
1.0
 20
0.0
 30
0.0
  9
$PUCSYDIR
 10
0.0
 20
1.0
 30
0.0
  9
$USERI1
 70
     0
  9
$USERI2
 70
     0
  9
$USERI3
 70
     0
  9
$USERI4
 70
     0
  9
$USERI5
 70
     0
  9
$USERR1
 40
0.0
  9
$USERR2
 40
0.0
  9
$USERR3
 40
0.0
  9
$USERR4
 40
0.0
  9
$USERR5
 40
0.0
  9
$WORLDVIEW
 70
     1
  9
$SHADEDGE
 70
     3
  9
$SHADEDIF
 70
    70
  9
$TILEMODE
 70
     1
  9
$MAXACTVP
 70
    64
  9
$PLIMCHECK
 70
     0
  9
$PEXTMIN
 10
0.0
 20
0.0
 30
0.0
  9
$PEXTMAX
 10
0.0
 20
0.0
 30
0.0
  9
$PLIMMIN
 10
0.0
 20
0.0
  9
$PLIMMAX
 10
12.0
 20
9.0
  9
$UNITMODE
 70
     0
  9
$VISRETAIN
 70
     1
  9
$PLINEGEN
 70
     0
  9
$PSLTSCALE
 70
     1
  0
ENDSEC
  0
SECTION
  2
TABLES
  0
TABLE
  2
VPORT
 70
     1
  0
VPORT
  2
*ACTIVE
 70
     0
 10
0.0
 20
0.0
 11
1.0
 21
1.0
 12
674031.4088951106
 22
4804001.4586300673
 13
0.0
 23
0.0
 14
0.5
 24
0.5
 15
0.5
 25
0.5
 16
0.0
 26
0.0
 36
1.0
 17
0.0
 27
0.0
 37
0.0
 40
29725.073509661052
 41
1.9114927344782029
 42
50.0
 43
0.0
 44
0.0
 50
0.0
 51
0.0
 71
     0
 72
  1000
 73
     1
 74
     3
 75
     0
 76
     0
 77
     0
 78
     0
  0
ENDTAB
  0
TABLE
  2
LTYPE
 70
     1
  0
LTYPE
  2
CONTINUOUS
 70
     0
  3
Solid line
 72
    65
 73
     0
 40
0.0
  0
ENDTAB
  0
TABLE
  2
LAYER
 70
     2
  0
LAYER
  2
0
 70
     4
 62
    -7
  6
CONTINUOUS
  0
LAYER
  2
RIVERS_AND_CHANNELS
 70
     4
 62
   150
  6
CONTINUOUS
  0
ENDTAB
  0
TABLE
  2
STYLE
 70
     1
  0
STYLE
  2
STANDARD
 70
     0
 40
0.0
 41
1.0
 50
0.0
 71
     0
 42
200.0
  3
txt
  4

  0
ENDTAB
  0
TABLE
  2
VIEW
 70
     0
  0
ENDTAB
  0
TABLE
  2
UCS
 70
     0
  0
ENDTAB
  0
TABLE
  2
APPID
 70
     2
  0
APPID
  2
ACAD
 70
     0
  0
APPID
  2
ADE
 70
     0
  0
ENDTAB
  0
TABLE
  2
DIMSTYLE
 70
     1
  0
DIMSTYLE
  2
STANDARD
 70
     0
  3

  4

  5

  6

  7

 40
1.0
 41
0.18
 42
0.0625
 43
0.38
 44
0.18
 45
0.0
 46
0.0
 47
0.0
 48
0.0
140
0.18
141
0.09
142
0.0
143
25.399999999999999
144
1.0
145
0.0
146
1.0
147
0.09
 71
     0
 72
     0
 73
     1
 74
     1
 75
     0
 76
     0
 77
     0
 78
     0
170
     0
171
     2
172
     0
173
     0
174
     0
175
     0
176
     0
177
     0
178
     0
  0
ENDTAB
  0
ENDSEC
  0
SECTION
  2
BLOCKS
  0
BLOCK
  8
0
  2
$MODEL_SPACE
 70
     0
 10
0.0
 20
0.0
 30
0.0
  3
$MODEL_SPACE
  1

  0
ENDBLK
  5
17
  8
0
  0
BLOCK
 67
     1
  8
0
  2
$PAPER_SPACE
 70
     0
 10
0.0
 20
0.0
 30
0.0
  3
$PAPER_SPACE
  1

  0
ENDBLK
  5
1E
 67
     1
  8
0
  0
ENDSEC
  0
SECTION
  2
ENTITIES
  0
POLYLINE
  5
73
  8
RIVERS_AND_CHANNELS
 66
     1
 10
0.0
 20
0.0
 30
0.0
  0
VERTEX
  5
AE
  8
RIVERS_AND_CHANNELS
 10
679266.32684353366
 20
4793413.8620225675
 30
0.0
  0
VERTEX
  5
AF
  8
RIVERS_AND_CHANNELS
 10
679265.01614149893
 20
4793454.859247637
 30
0.0
  0
VERTEX
  5
B0
  8
RIVERS_AND_CHANNELS
 10
679253.77845125028
 20
4793485.2793083601
 30
0.0
  0
VERTEX
  5
B1
  8
RIVERS_AND_CHANNELS
 10
679252.46774921566
 20
4793526.2765334276
 30
0.0
  0
VERTEX
  5
B2
  8
RIVERS_AND_CHANNELS
 10
679249.35483062128
 20
4793623.6449824339
 30
0.0
  0
VERTEX
  5
B3
  8
RIVERS_AND_CHANNELS
 10
679212.15280429542
 20
4793663.4947437011
 30
0.0
  0
VERTEX
  5
B4
  8
RIVERS_AND_CHANNELS
 10
679126.34731083829
 20
4793778.7389659444
 30
0.0
  0
VERTEX
  5
B5
  8
RIVERS_AND_CHANNELS
 10
679113.79891855456
 20
4793850.1562517351
 30
0.0
  0
VERTEX
  5
B6
  8
RIVERS_AND_CHANNELS
 10
679056.41532514547
 20
4793879.1010497324
 30
0.0
  0
VERTEX
  5
B7
  8
RIVERS_AND_CHANNELS
 10
678987.95788014343
 20
4793933.34122713
 30
0.0
  0
VERTEX
  5
B8
  8
RIVERS_AND_CHANNELS
 10
678976.88402710843
 20
4793958.6366516352
 30
0.0
  0
VERTEX
  5
B9
  8
RIVERS_AND_CHANNELS
 10
678963.51644587331
 20
4794055.677208731
 30
0.0
  0
VERTEX
  5
BA
  8
RIVERS_AND_CHANNELS
 10
678946.65991050028
 20
4794101.307299817
 30
0.0
  0
VERTEX
  5
BB
  8
RIVERS_AND_CHANNELS
 10
678913.60227670637
 20
4794172.0688947793
 30
0.0
  0
VERTEX
  5
BC
  8
RIVERS_AND_CHANNELS
 10
678865.98174764204
 20
4794216.7154905684
 30
0.0
  0
VERTEX
  5
BD
  8
RIVERS_AND_CHANNELS
 10
678813.39781184727
 20
4794256.073484404
 30
0.0
  0
VERTEX
  5
BE
  8
RIVERS_AND_CHANNELS
 10
678822.81179744413
 20
4794304.0229916759
 30
0.0
  0
VERTEX
  5
BF
  8
RIVERS_AND_CHANNELS
 10
678716.32587273512
 20
4794386.3657840388
 30
0.0
  0
VERTEX
  5
C0
  8
RIVERS_AND_CHANNELS
 10
678619.43804438156
 20
4794450.9634066653
 30
0.0
  0
VERTEX
  5
C1
  8
RIVERS_AND_CHANNELS
 10
678590.64384052798
 20
4794504.1989637604
 30
0.0
  0
VERTEX
  5
C2
  8
RIVERS_AND_CHANNELS
 10
678566.50463609176
 20
4794553.0703258207
 30
0.0
  0
VERTEX
  5
C3
  8
RIVERS_AND_CHANNELS
 10
678482.42828505614
 20
4794640.6425813204
 30
0.0
  0
VERTEX
  5
C4
  8
RIVERS_AND_CHANNELS
 10
678417.69226431171
 20
4794688.2160426136
 30
0.0
  0
VERTEX
  5
C5
  8
RIVERS_AND_CHANNELS
 10
678356.7462542915
 20
4794758.4757159324
 30
0.0
  0
VERTEX
  5
C6
  8
RIVERS_AND_CHANNELS
 10
678322.86481592024
 20
4794829.6007024562
 30
0.0
  0
VERTEX
  5
C7
  8
RIVERS_AND_CHANNELS
 10
678303.38043758995
 20
4794874.1078639403
 30
0.0
  0
VERTEX
  5
C8
  8
RIVERS_AND_CHANNELS
 10
678250.30289316317
 20
4794980.7231927123
 30
0.0
  0
VERTEX
  5
C9
  8
RIVERS_AND_CHANNELS
 10
678220.7880952789
 20
4795056.5008006673
 30
0.0
  0
VERTEX
  5
CA
  8
RIVERS_AND_CHANNELS
 10
678174.38327999506
 20
4795095.634284432
 30
0.0
  0
VERTEX
  5
CB
  8
RIVERS_AND_CHANNELS
 10
678040.83286885067
 20
4795177.1118114684
 30
0.0
  0
VERTEX
  5
CC
  8
RIVERS_AND_CHANNELS
 10
677999.5153732982
 20
4795198.3559136838
 30
0.0
  0
VERTEX
  5
CD
  8
RIVERS_AND_CHANNELS
 10
677957.18901288253
 20
4795251.1588408854
 30
0.0
  0
VERTEX
  5
CE
  8
RIVERS_AND_CHANNELS
 10
677955.60351825715
 20
4795300.7512564603
 30
0.0
  0
VERTEX
  5
CF
  8
RIVERS_AND_CHANNELS
 10
677938.90028434654
 20
4795399.5035000592
 30
0.0
  0
VERTEX
  5
D0
  8
RIVERS_AND_CHANNELS
 10
677874.30831308349
 20
4795442.5685489662
 30
0.0
  0
VERTEX
  5
D1
  8
RIVERS_AND_CHANNELS
 10
677828.19185528765
 20
4795472.6852613762
 30
0.0
  0
VERTEX
  5
D2
  8
RIVERS_AND_CHANNELS
 10
677731.15980414138
 20
4795541.7912908494
 30
0.0
  0
VERTEX
  5
D3
  8
RIVERS_AND_CHANNELS
 10
677707.16473584238
 20
4795586.1542432923
 30
0.0
  0
VERTEX
  5
D4
  8
RIVERS_AND_CHANNELS
 10
677650.29709403485
 20
4795670.0833572717
 30
0.0
  0
VERTEX
  5
D5
  8
RIVERS_AND_CHANNELS
 10
677562.71900454944
 20
4795725.9525815146
 30
0.0
  0
VERTEX
  5
D6
  8
RIVERS_AND_CHANNELS
 10
677548.89849049947
 20
4795734.5367229767
 30
0.0
  0
VERTEX
  5
D7
  8
RIVERS_AND_CHANNELS
 10
677534.5013452447
 20
4795761.1545001408
 30
0.0
  0
VERTEX
  5
D8
  8
RIVERS_AND_CHANNELS
 10
677524.18265485857
 20
4795801.4417207371
 30
0.0
  0
VERTEX
  5
D9
  8
RIVERS_AND_CHANNELS
 10
677454.6475852147
 20
4795857.8877894571
 30
0.0
  0
VERTEX
  5
DA
  8
RIVERS_AND_CHANNELS
 10
677434.73079847277
 20
4795915.9201797917
 30
0.0
  0
VERTEX
  5
DB
  8
RIVERS_AND_CHANNELS
 10
677388.61434067704
 20
4795946.0368922018
 30
0.0
  0
VERTEX
  5
DC
  8
RIVERS_AND_CHANNELS
 10
677387.31711832609
 20
4795986.6124885436
 30
0.0
  0
VERTEX
  5
DD
  8
RIVERS_AND_CHANNELS
 10
677394.60895415663
 20
4796041.001734592
 30
0.0
  0
VERTEX
  5
DE
  8
RIVERS_AND_CHANNELS
 10
677370.46966306481
 20
4796089.8730938807
 30
0.0
  0
VERTEX
  5
DF
  8
RIVERS_AND_CHANNELS
 10
677345.75391407975
 20
4796156.77809441
 30
0.0
  0
VERTEX
  5
E0
  8
RIVERS_AND_CHANNELS
 10
677316.6714379515
 20
4796219.0304707419
 30
0.0
  0
VERTEX
  5
E1
  8
RIVERS_AND_CHANNELS
 10
677279.1440397792
 20
4796262.9607877489
 30
0.0
  0
VERTEX
  5
E2
  8
RIVERS_AND_CHANNELS
 10
677277.55854515382
 20
4796312.5532033257
 30
0.0
  0
VERTEX
  5
E3
  8
RIVERS_AND_CHANNELS
 10
677274.3875544609
 20
4796411.7380795889
 30
0.0
  0
VERTEX
  5
E4
  8
RIVERS_AND_CHANNELS
 10
677272.94619597273
 20
4796456.8220855482
 30
0.0
  0
VERTEX
  5
E5
  8
RIVERS_AND_CHANNELS
 10
677307.44674103137
 20
4796507.5681900783
 30
0.0
  0
VERTEX
  5
E6
  8
RIVERS_AND_CHANNELS
 10
677346.02565430291
 20
4796571.9837352708
 30
0.0
  0
VERTEX
  5
E7
  8
RIVERS_AND_CHANNELS
 10
677356.09863599495
 20
4796680.6180183226
 30
0.0
  0
VERTEX
  5
E8
  8
RIVERS_AND_CHANNELS
 10
677321.35238224245
 20
4796778.7934174463
 30
0.0
  0
VERTEX
  5
E9
  8
RIVERS_AND_CHANNELS
 10
677212.00458906218
 20
4796910.3466312094
 30
0.0
  0
VERTEX
  5
EA
  8
RIVERS_AND_CHANNELS
 10
677146.6093775332
 20
4796967.8105793772
 30
0.0
  0
VERTEX
  5
EB
  8
RIVERS_AND_CHANNELS
 10
677137.27783214126
 20
4797011.1856459398
 30
0.0
  0
VERTEX
  5
EC
  8
RIVERS_AND_CHANNELS
 10
677058.83636804426
 20
4797103.9653346408
 30
0.0
  0
VERTEX
  5
ED
  8
RIVERS_AND_CHANNELS
 10
677034.01207109622
 20
4797134.9341749223
 30
0.0
  0
VERTEX
  5
EE
  8
RIVERS_AND_CHANNELS
 10
676975.91938132467
 20
4797212.483113694
 30
0.0
  0
VERTEX
  5
EF
  8
RIVERS_AND_CHANNELS
 10
676890.80932697398
 20
4797265.346463304
 30
0.0
  0
VERTEX
  5
F0
  8
RIVERS_AND_CHANNELS
 10
676788.43110354268
 20
4797361.3311415976
 30
0.0
  0
VERTEX
  5
F1
  8
RIVERS_AND_CHANNELS
 10
676731.35292486707
 20
4797407.1500743423
 30
0.0
  0
VERTEX
  5
F2
  8
RIVERS_AND_CHANNELS
 10
676776.43677632394
 20
4797487.9976193579
 30
0.0
  0
VERTEX
  5
F3
  8
RIVERS_AND_CHANNELS
 10
676753.93226196466
 20
4797570.6546803247
 30
0.0
  0
VERTEX
  5
F4
  8
RIVERS_AND_CHANNELS
 10
676732.31537043315
 20
4797625.5479384819
 30
0.0
  0
VERTEX
  5
F5
  8
RIVERS_AND_CHANNELS
 10
676706.73016849929
 20
4797680.3142825915
 30
0.0
  0
VERTEX
  5
F6
  8
RIVERS_AND_CHANNELS
 10
676677.43025938922
 20
4797727.0213006744
 30
0.0
  0
VERTEX
  5
F7
  8
RIVERS_AND_CHANNELS
 10
676603.44067506643
 20
4797842.0147771807
 30
0.0
  0
VERTEX
  5
F8
  8
RIVERS_AND_CHANNELS
 10
676572.30560194363
 20
4797958.4417762579
 30
0.0
  0
VERTEX
  5
F9
  8
RIVERS_AND_CHANNELS
 10
676571.55555640033
 20
4797981.9023227021
 30
0.0
  0
VERTEX
  5
FA
  8
RIVERS_AND_CHANNELS
 10
676569.43043168657
 20
4798048.3737356337
 30
0.0
  0
VERTEX
  5
FB
  8
RIVERS_AND_CHANNELS
 10
676516.57268017391
 20
4798109.3091583326
 30
0.0
  0
VERTEX
  5
FC
  8
RIVERS_AND_CHANNELS
 10
676463.46491492225
 20
4798178.064718076
 30
0.0
  0
VERTEX
  5
FD
  8
RIVERS_AND_CHANNELS
 10
676445.56632016774
 20
4798247.9459328149
 30
0.0
  0
VERTEX
  5
FE
  8
RIVERS_AND_CHANNELS
 10
676440.77910953527
 20
4798275.1914515262
 30
0.0
  0
VERTEX
  5
FF
  8
RIVERS_AND_CHANNELS
 10
676395.87068349426
 20
4798332.4669305533
 30
0.0
  0
VERTEX
  5
100
  8
RIVERS_AND_CHANNELS
 10
676365.98559673724
 20
4798409.7931063399
 30
0.0
  0
VERTEX
  5
101
  8
RIVERS_AND_CHANNELS
 10
676360.82344998873
 20
4798448.7689010389
 30
0.0
  0
VERTEX
  5
102
  8
RIVERS_AND_CHANNELS
 10
676343.04986282496
 20
4798514.7400247063
 30
0.0
  0
VERTEX
  5
103
  8
RIVERS_AND_CHANNELS
 10
676321.86414564063
 20
4798564.9457554864
 30
0.0
  0
VERTEX
  5
104
  8
RIVERS_AND_CHANNELS
 10
676288.31700033764
 20
4798634.3267232971
 30
0.0
  0
VERTEX
  5
105
  8
RIVERS_AND_CHANNELS
 10
676267.00627556292
 20
4798688.4425451523
 30
0.0
  0
VERTEX
  5
106
  8
RIVERS_AND_CHANNELS
 10
676241.78339184762
 20
4798742.4332933044
 30
0.0
  0
VERTEX
  5
107
  8
RIVERS_AND_CHANNELS
 10
676225.13487155689
 20
4798773.2136424109
 30
0.0
  0
VERTEX
  5
108
  8
RIVERS_AND_CHANNELS
 10
676216.43558863935
 20
4798800.33409019
 30
0.0
  0
VERTEX
  5
109
  8
RIVERS_AND_CHANNELS
 10
676179.72632849787
 20
4798846.1294829678
 30
0.0
  0
VERTEX
  5
10A
  8
RIVERS_AND_CHANNELS
 10
676139.23000510375
 20
4798887.8896686323
 30
0.0
  0
VERTEX
  5
10B
  8
RIVERS_AND_CHANNELS
 10
676122.20646204124
 20
4798930.4002909651
 30
0.0
  0
VERTEX
  5
10C
  8
RIVERS_AND_CHANNELS
 10
676076.42289765226
 20
4799015.0463596322
 30
0.0
  0
VERTEX
  5
10D
  8
RIVERS_AND_CHANNELS
 10
676043.75089069735
 20
4799057.0567378094
 30
0.0
  0
VERTEX
  5
10E
  8
RIVERS_AND_CHANNELS
 10
676034.05146328383
 20
4799115.4578211904
 30
0.0
  0
VERTEX
  5
10F
  8
RIVERS_AND_CHANNELS
 10
676008.57865104335
 20
4799177.2687542578
 30
0.0
  0
VERTEX
  5
110
  8
RIVERS_AND_CHANNELS
 10
675997.879249561
 20
4799266.9505690029
 30
0.0
  0
VERTEX
  5
111
  8
RIVERS_AND_CHANNELS
 10
675996.50416894886
 20
4799309.9614805998
 30
0.0
  0
VERTEX
  5
112
  8
RIVERS_AND_CHANNELS
 10
675887.37662400119
 20
4799416.0668907724
 30
0.0
  0
VERTEX
  5
113
  8
RIVERS_AND_CHANNELS
 10
675843.34316299658
 20
4799445.9717746219
 30
0.0
  0
VERTEX
  5
114
  8
RIVERS_AND_CHANNELS
 10
675795.64764488826
 20
4799467.9314053934
 30
0.0
  0
VERTEX
  5
115
  8
RIVERS_AND_CHANNELS
 10
675712.99297146359
 20
4799480.9451990174
 30
0.0
  0
VERTEX
  5
116
  8
RIVERS_AND_CHANNELS
 10
675646.36186847545
 20
4799482.7290565623
 30
0.0
  0
VERTEX
  5
117
  8
RIVERS_AND_CHANNELS
 10
675612.81472461461
 20
4799552.1099792691
 30
0.0
  0
VERTEX
  5
118
  8
RIVERS_AND_CHANNELS
 10
675601.99031554186
 20
4799645.7018850846
 30
0.0
  0
VERTEX
  5
119
  8
RIVERS_AND_CHANNELS
 10
675546.47056620824
 20
4799667.4113712227
 30
0.0
  0
VERTEX
  5
11A
  8
RIVERS_AND_CHANNELS
 10
675506.72428691573
 20
4799685.7110555544
 30
0.0
  0
VERTEX
  5
11B
  8
RIVERS_AND_CHANNELS
 10
675404.50899065833
 20
4799698.0995313199
 30
0.0
  0
VERTEX
  5
11C
  8
RIVERS_AND_CHANNELS
 10
675325.26644725469
 20
4799726.8787178313
 30
0.0
  0
VERTEX
  5
11D
  8
RIVERS_AND_CHANNELS
 10
675281.60809423495
 20
4799745.0533763394
 30
0.0
  0
VERTEX
  5
11E
  8
RIVERS_AND_CHANNELS
 10
675222.17618596065
 20
4799766.6377887763
 30
0.0
  0
VERTEX
  5
11F
  8
RIVERS_AND_CHANNELS
 10
675170.94353168365
 20
4799776.7420726251
 30
0.0
  0
VERTEX
  5
120
  8
RIVERS_AND_CHANNELS
 10
675143.30866388651
 20
4799783.6867471747
 30
0.0
  0
VERTEX
  5
121
  8
RIVERS_AND_CHANNELS
 10
675111.63662955817
 20
4799794.4164390974
 30
0.0
  0
VERTEX
  5
122
  8
RIVERS_AND_CHANNELS
 10
675084.25177694182
 20
4799793.5409314977
 30
0.0
  0
VERTEX
  5
123
  8
RIVERS_AND_CHANNELS
 10
675041.34346946608
 20
4799788.2550435653
 30
0.0
  0
VERTEX
  5
124
  8
RIVERS_AND_CHANNELS
 10
674975.08730259351
 20
4799778.3086251151
 30
0.0
  0
VERTEX
  5
125
  8
RIVERS_AND_CHANNELS
 10
674944.41541420366
 20
4799757.7576363226
 30
0.0
  0
VERTEX
  5
126
  8
RIVERS_AND_CHANNELS
 10
674894.18281776691
 20
4799736.581281798
 30
0.0
  0
VERTEX
  5
127
  8
RIVERS_AND_CHANNELS
 10
674862.88580621046
 20
4799735.5807004999
 30
0.0
  0
VERTEX
  5
128
  8
RIVERS_AND_CHANNELS
 10
674800.29186975304
 20
4799733.5795406718
 30
0.0
  0
VERTEX
  5
129
  8
RIVERS_AND_CHANNELS
 10
674706.27582893474
 20
4799734.4878427368
 30
0.0
  0
VERTEX
  5
12A
  8
RIVERS_AND_CHANNELS
 10
674685.96516200027
 20
4799757.3230262157
 30
0.0
  0
VERTEX
  5
12B
  8
RIVERS_AND_CHANNELS
 10
674649.00597477495
 20
4799810.9385588039
 30
0.0
  0
VERTEX
  5
12C
  8
RIVERS_AND_CHANNELS
 10
674619.99602636555
 20
4799860.8941449523
 30
0.0
  0
VERTEX
  5
12D
  8
RIVERS_AND_CHANNELS
 10
674582.78673874564
 20
4799922.3298118087
 30
0.0
  0
VERTEX
  5
12E
  8
RIVERS_AND_CHANNELS
 10
674525.40329111612
 20
4799998.7900813641
 30
0.0
  0
VERTEX
  5
12F
  8
RIVERS_AND_CHANNELS
 10
674488.85171697685
 20
4800059.8670257982
 30
0.0
  0
VERTEX
  5
130
  8
RIVERS_AND_CHANNELS
 10
674397.21943309892
 20
4800112.2668234678
 30
0.0
  0
VERTEX
  5
131
  8
RIVERS_AND_CHANNELS
 10
674333.01705995167
 20
4800172.4597578626
 30
0.0
  0
VERTEX
  5
132
  8
RIVERS_AND_CHANNELS
 10
674205.49586532335
 20
4800265.2091650125
 30
0.0
  0
VERTEX
  5
133
  8
RIVERS_AND_CHANNELS
 10
674120.11361780856
 20
4800338.5573001467
 30
0.0
  0
VERTEX
  5
134
  8
RIVERS_AND_CHANNELS
 10
674020.46411046456
 20
4800425.2815906489
 30
0.0
  0
VERTEX
  5
135
  8
RIVERS_AND_CHANNELS
 10
673970.74980021012
 20
4800465.1891951086
 30
0.0
  0
VERTEX
  5
136
  8
RIVERS_AND_CHANNELS
 10
673921.25646344607
 20
4800498.1877207598
 30
0.0
  0
VERTEX
  5
137
  8
RIVERS_AND_CHANNELS
 10
673851.24582904775
 20
4800523.6141094277
 30
0.0
  0
VERTEX
  5
138
  8
RIVERS_AND_CHANNELS
 10
673815.79869340884
 20
4800550.1455106409
 30
0.0
  0
VERTEX
  5
139
  8
RIVERS_AND_CHANNELS
 10
673738.43358414678
 20
4800589.1691050641
 30
0.0
  0
VERTEX
  5
13A
  8
RIVERS_AND_CHANNELS
 10
673682.46923608682
 20
4800608.1284171706
 30
0.0
  0
VERTEX
  5
13B
  8
RIVERS_AND_CHANNELS
 10
673562.52340315725
 20
4800680.3715369832
 30
0.0
  0
VERTEX
  5
13C
  8
RIVERS_AND_CHANNELS
 10
673464.86196975119
 20
4800704.9139156118
 30
0.0
  0
VERTEX
  5
13D
  8
RIVERS_AND_CHANNELS
 10
673415.14765949652
 20
4800744.8215200724
 30
0.0
  0
VERTEX
  5
13E
  8
RIVERS_AND_CHANNELS
 10
673269.53901628347
 20
4800753.9986700956
 30
0.0
  0
SEQEND
  5
13F
  8
RIVERS_AND_CHANNELS
  0
POLYLINE
  5
74
  8
RIVERS_AND_CHANNELS
 66
     1
 10
0.0
 20
0.0
 30
0.0
  0
VERTEX
  5
140
  8
RIVERS_AND_CHANNELS
 10
678977.58939118567
 20
4793941.3761589136
 30
0.0
  0
VERTEX
  5
141
  8
RIVERS_AND_CHANNELS
 10
678950.32589913241
 20
4793956.5629831562
 30
0.0
  0
VERTEX
  5
142
  8
RIVERS_AND_CHANNELS
 10
678917.54124091996
 20
4793976.9260500092
 30
0.0
  0
VERTEX
  5
143
  8
RIVERS_AND_CHANNELS
 10
678884.75666792062
 20
4793997.2891647434
 30
0.0
  0
VERTEX
  5
144
  8
RIVERS_AND_CHANNELS
 10
678756.01152055652
 20
4794003.8787217084
 30
0.0
  0
VERTEX
  5
145
  8
RIVERS_AND_CHANNELS
 10
678738.93540509848
 20
4794035.4496482648
 30
0.0
  0
VERTEX
  5
146
  8
RIVERS_AND_CHANNELS
 10
678727.03836836992
 20
4794072.5389999878
 30
0.0
  0
VERTEX
  5
147
  8
RIVERS_AND_CHANNELS
 10
678715.31237679825
 20
4794104.2809727117
 30
0.0
  0
VERTEX
  5
148
  8
RIVERS_AND_CHANNELS
 10
678703.92830078769
 20
4794125.3282270096
 30
0.0
  0
VERTEX
  5
149
  8
RIVERS_AND_CHANNELS
 10
678621.11190896097
 20
4794202.972714154
 30
0.0
  0
VERTEX
  5
14A
  8
RIVERS_AND_CHANNELS
 10
678523.44184777362
 20
4794242.6726159602
 30
0.0
  0
VERTEX
  5
14B
  8
RIVERS_AND_CHANNELS
 10
678490.31536065578
 20
4794273.7304040119
 30
0.0
  0
VERTEX
  5
14C
  8
RIVERS_AND_CHANNELS
 10
678383.31262295658
 20
4794270.3094723327
 30
0.0
  0
VERTEX
  5
14D
  8
RIVERS_AND_CHANNELS
 10
678258.5500267758
 20
4794319.8488617241
 30
0.0
  0
VERTEX
  5
14E
  8
RIVERS_AND_CHANNELS
 10
678204.1939145152
 20
4794344.8751256717
 30
0.0
  0
VERTEX
  5
14F
  8
RIVERS_AND_CHANNELS
 10
678079.60219017987
 20
4794389.0671305237
 30
0.0
  0
VERTEX
  5
150
  8
RIVERS_AND_CHANNELS
 10
677992.29046120495
 20
4794439.8038430959
 30
0.0
  0
VERTEX
  5
151
  8
RIVERS_AND_CHANNELS
 10
677942.94255871256
 20
4794475.6958265305
 30
0.0
  0
VERTEX
  5
152
  8
RIVERS_AND_CHANNELS
 10
677861.32295439905
 20
4794515.9089147206
 30
0.0
  0
VERTEX
  5
153
  8
RIVERS_AND_CHANNELS
 10
677843.22100848693
 20
4794579.5639035711
 30
0.0
  0
VERTEX
  5
154
  8
RIVERS_AND_CHANNELS
 10
677831.15310279699
 20
4794622.0005496126
 30
0.0
  0
VERTEX
  5
155
  8
RIVERS_AND_CHANNELS
 10
677791.82161839772
 20
4794679.6240171278
 30
0.0
  0
VERTEX
  5
156
  8
RIVERS_AND_CHANNELS
 10
677737.46550613723
 20
4794704.6502810791
 30
0.0
  0
VERTEX
  5
157
  8
RIVERS_AND_CHANNELS
 10
677671.21244524606
 20
4794766.7658544108
 30
0.0
  0
VERTEX
  5
158
  8
RIVERS_AND_CHANNELS
 10
677598.07055883575
 20
4794876.8364538429
 30
0.0
  0
VERTEX
  5
159
  8
RIVERS_AND_CHANNELS
 10
677565.11502877751
 20
4794902.5469052354
 30
0.0
  0
VERTEX
  5
15A
  8
RIVERS_AND_CHANNELS
 10
677506.09262086777
 20
4794906.0127763785
 30
0.0
  0
VERTEX
  5
15B
  8
RIVERS_AND_CHANNELS
 10
677446.72821362573
 20
4794920.1732729618
 30
0.0
  0
VERTEX
  5
15C
  8
RIVERS_AND_CHANNELS
 10
677414.28555618739
 20
4794929.8416692698
 30
0.0
  0
VERTEX
  5
15D
  8
RIVERS_AND_CHANNELS
 10
677418.43897777435
 20
4794967.4441622673
 30
0.0
  0
VERTEX
  5
15E
  8
RIVERS_AND_CHANNELS
 10
677404.66149860655
 20
4795063.3542651162
 30
0.0
  0
VERTEX
  5
15F
  8
RIVERS_AND_CHANNELS
 10
677402.78096806933
 20
4795122.1750585809
 30
0.0
  0
VERTEX
  5
160
  8
RIVERS_AND_CHANNELS
 10
677331.17769663595
 20
4795184.1195829762
 30
0.0
  0
VERTEX
  5
161
  8
RIVERS_AND_CHANNELS
 10
677286.32513129071
 20
4795246.9193409821
 30
0.0
  0
VERTEX
  5
162
  8
RIVERS_AND_CHANNELS
 10
677215.23481913295
 20
4795292.821813059
 30
0.0
  0
VERTEX
  5
163
  8
RIVERS_AND_CHANNELS
 10
677185.4068816494
 20
4795388.2187746326
 30
0.0
  0
VERTEX
  5
164
  8
RIVERS_AND_CHANNELS
 10
677166.62119271385
 20
4795473.2631579963
 30
0.0
  0
VERTEX
  5
165
  8
RIVERS_AND_CHANNELS
 10
677136.62229817105
 20
4795574.0074562291
 30
0.0
  0
VERTEX
  5
166
  8
RIVERS_AND_CHANNELS
 10
677134.74176763406
 20
4795632.8282496938
 30
0.0
  0
VERTEX
  5
167
  8
RIVERS_AND_CHANNELS
 10
677130.80974950048
 20
4795755.8171732826
 30
0.0
  0
VERTEX
  5
168
  8
RIVERS_AND_CHANNELS
 10
677139.80051045155
 20
4795809.632725195
 30
0.0
  0
VERTEX
  5
169
  8
RIVERS_AND_CHANNELS
 10
677092.72550045117
 20
4795941.9479499841
 30
0.0
  0
VERTEX
  5
16A
  8
RIVERS_AND_CHANNELS
 10
676945.19466415094
 20
4796033.581890313
 30
0.0
  0
VERTEX
  5
16B
  8
RIVERS_AND_CHANNELS
 10
676840.97769012186
 20
4796110.5421900079
 30
0.0
  0
VERTEX
  5
16C
  8
RIVERS_AND_CHANNELS
 10
676725.88959935785
 20
4796192.5076916898
 30
0.0
  0
VERTEX
  5
16D
  8
RIVERS_AND_CHANNELS
 10
676675.68691012624
 20
4796255.136403528
 30
0.0
  0
VERTEX
  5
16E
  8
RIVERS_AND_CHANNELS
 10
676598.56264296034
 20
4796322.2572662914
 30
0.0
  0
VERTEX
  5
16F
  8
RIVERS_AND_CHANNELS
 10
676538.00153486081
 20
4796373.8491645958
 30
0.0
  0
VERTEX
  5
170
  8
RIVERS_AND_CHANNELS
 10
676456.55288760632
 20
4796408.7149161277
 30
0.0
  0
VERTEX
  5
171
  8
RIVERS_AND_CHANNELS
 10
676418.24714844779
 20
4796434.2542734733
 30
0.0
  0
VERTEX
  5
172
  8
RIVERS_AND_CHANNELS
 10
676379.42853522673
 20
4796475.8357310127
 30
0.0
  0
VERTEX
  5
173
  8
RIVERS_AND_CHANNELS
 10
676313.00451727607
 20
4796543.2986410037
 30
0.0
  0
VERTEX
  5
174
  8
RIVERS_AND_CHANNELS
 10
676252.95636701013
 20
4796578.8485320993
 30
0.0
  0
VERTEX
  5
175
  8
RIVERS_AND_CHANNELS
 10
676204.63420831575
 20
4796582.6564504746
 30
0.0
  0
VERTEX
  5
176
  8
RIVERS_AND_CHANNELS
 10
676159.09781329124
 20
4796666.845600225
 30
0.0
  0
VERTEX
  5
177
  8
RIVERS_AND_CHANNELS
 10
676131.15040634514
 20
4796703.4217683328
 30
0.0
  0
VERTEX
  5
178
  8
RIVERS_AND_CHANNELS
 10
676085.27209720167
 20
4796798.3055913998
 30
0.0
  0
VERTEX
  5
179
  8
RIVERS_AND_CHANNELS
 10
676009.51548939489
 20
4796822.647670676
 30
0.0
  0
VERTEX
  5
17A
  8
RIVERS_AND_CHANNELS
 10
675958.11609786353
 20
4796922.7078293432
 30
0.0
  0
VERTEX
  5
17B
  8
RIVERS_AND_CHANNELS
 10
675902.73424324684
 20
4796979.8181132451
 30
0.0
  0
VERTEX
  5
17C
  8
RIVERS_AND_CHANNELS
 10
675863.40275884792
 20
4797037.4415807603
 30
0.0
  0
VERTEX
  5
17D
  8
RIVERS_AND_CHANNELS
 10
675808.19185984856
 20
4797089.2045731107
 30
0.0
  0
VERTEX
  5
17E
  8
RIVERS_AND_CHANNELS
 10
675759.35682853404
 20
4797109.0545465685
 30
0.0
  0
VERTEX
  5
17F
  8
RIVERS_AND_CHANNELS
 10
675675.31705805799
 20
4797202.9657753957
 30
0.0
  0
VERTEX
  5
180
  8
RIVERS_AND_CHANNELS
 10
675663.05079251155
 20
4797239.5437326282
 30
0.0
  0
VERTEX
  5
181
  8
RIVERS_AND_CHANNELS
 10
675661.87004460825
 20
4797276.476144623
 30
0.0
  0
VERTEX
  5
182
  8
RIVERS_AND_CHANNELS
 10
675660.33507392008
 20
4797324.4882305963
 30
0.0
  0
VERTEX
  5
183
  8
RIVERS_AND_CHANNELS
 10
675659.15432601643
 20
4797361.4206425911
 30
0.0
  0
VERTEX
  5
184
  8
RIVERS_AND_CHANNELS
 10
675639.02550161921
 20
4797412.5353033058
 30
0.0
  0
VERTEX
  5
185
  8
RIVERS_AND_CHANNELS
 10
675588.50877076027
 20
4797488.557519407
 30
0.0
  0
VERTEX
  5
186
  8
RIVERS_AND_CHANNELS
 10
675569.20646859729
 20
4797513.8195323246
 30
0.0
  0
VERTEX
  5
187
  8
RIVERS_AND_CHANNELS
 10
675490.07295096898
 20
4797559.3507534796
 30
0.0
  0
VERTEX
  5
188
  8
RIVERS_AND_CHANNELS
 10
675462.43570529181
 20
4797613.9223958254
 30
0.0
  0
VERTEX
  5
189
  8
RIVERS_AND_CHANNELS
 10
675417.85756660299
 20
4797619.8912243284
 30
0.0
  0
VERTEX
  5
18A
  8
RIVERS_AND_CHANNELS
 10
675402.48658647249
 20
4797637.8849094398
 30
0.0
  0
VERTEX
  5
18B
  8
RIVERS_AND_CHANNELS
 10
675400.7154667807
 20
4797693.2834597696
 30
0.0
  0
VERTEX
  5
18C
  8
RIVERS_AND_CHANNELS
 10
675398.59012141963
 20
4797759.7617742959
 30
0.0
  0
VERTEX
  5
18D
  8
RIVERS_AND_CHANNELS
 10
675334.47344490839
 20
4797798.3790773032
 30
0.0
  0
VERTEX
  5
18E
  8
RIVERS_AND_CHANNELS
 10
675308.76025256782
 20
4797908.4674065271
 30
0.0
  0
VERTEX
  5
18F
  8
RIVERS_AND_CHANNELS
 10
675229.27259592607
 20
4797965.0783946468
 30
0.0
  0
VERTEX
  5
190
  8
RIVERS_AND_CHANNELS
 10
675184.25701476645
 20
4798100.4287340203
 30
0.0
  0
SEQEND
  5
191
  8
RIVERS_AND_CHANNELS
  0
POLYLINE
  5
75
  8
RIVERS_AND_CHANNELS
 66
     1
 10
0.0
 20
0.0
 30
0.0
  0
VERTEX
  5
192
  8
RIVERS_AND_CHANNELS
 10
677213.02271444711
 20
4795295.0370405884
 30
0.0
  0
VERTEX
  5
193
  8
RIVERS_AND_CHANNELS
 10
677184.29279181222
 20
4795294.1185304224
 30
0.0
  0
VERTEX
  5
194
  8
RIVERS_AND_CHANNELS
 10
677054.31966087886
 20
4795311.5214107083
 30
0.0
  0
VERTEX
  5
195
  8
RIVERS_AND_CHANNELS
 10
677025.13072234683
 20
4795324.9603803838
 30
0.0
  0
VERTEX
  5
196
  8
RIVERS_AND_CHANNELS
 10
676966.17907541129
 20
4795369.78516954
 30
0.0
  0
VERTEX
  5
197
  8
RIVERS_AND_CHANNELS
 10
676929.34857533162
 20
4795397.3519894397
 30
0.0
  0
VERTEX
  5
198
  8
RIVERS_AND_CHANNELS
 10
676880.94115370966
 20
4795449.6999150654
 30
0.0
  0
VERTEX
  5
199
  8
RIVERS_AND_CHANNELS
 10
676804.26282390743
 20
4795486.7718957895
 30
0.0
  0
VERTEX
  5
19A
  8
RIVERS_AND_CHANNELS
 10
676763.72638512566
 20
4795517.8132285029
 30
0.0
  0
VERTEX
  5
19B
  8
RIVERS_AND_CHANNELS
 10
676729.91347465606
 20
4795563.4417157853
 30
0.0
  0
VERTEX
  5
19C
  8
RIVERS_AND_CHANNELS
 10
676638.29637177917
 20
4795618.0012447368
 30
0.0
  0
VERTEX
  5
19D
  8
RIVERS_AND_CHANNELS
 10
676590.80698050919
 20
4795641.6342557846
 30
0.0
  0
VERTEX
  5
19E
  8
RIVERS_AND_CHANNELS
 10
676543.66176450695
 20
4795654.4991541831
 30
0.0
  0
VERTEX
  5
19F
  8
RIVERS_AND_CHANNELS
 10
676474.73975022661
 20
4795673.8539147247
 30
0.0
  0
VERTEX
  5
1A0
  8
RIVERS_AND_CHANNELS
 10
676376.16969630367
 20
4795721.0050769057
 30
0.0
  0
VERTEX
  5
1A1
  8
RIVERS_AND_CHANNELS
 10
676294.17878550454
 20
4795811.8027471229
 30
0.0
  0
VERTEX
  5
1A2
  8
RIVERS_AND_CHANNELS
 10
676235.45664651727
 20
4795849.4487963561
 30
0.0
  0
VERTEX
  5
1A3
  8
RIVERS_AND_CHANNELS
 10
676221.81406678248
 20
4795938.8385586068
 30
0.0
  0
VERTEX
  5
1A4
  8
RIVERS_AND_CHANNELS
 10
676154.18816062866
 20
4796030.0954852924
 30
0.0
  0
VERTEX
  5
1A5
  8
RIVERS_AND_CHANNELS
 10
676094.77749923815
 20
4796089.2777091833
 30
0.0
  0
VERTEX
  5
1A6
  8
RIVERS_AND_CHANNELS
 10
676080.2168877091
 20
4796207.3824311178
 30
0.0
  0
VERTEX
  5
1A7
  8
RIVERS_AND_CHANNELS
 10
676056.25959060912
 20
4796282.070316975
 30
0.0
  0
VERTEX
  5
1A8
  8
RIVERS_AND_CHANNELS
 10
676018.28163888445
 20
4796345.5307941446
 30
0.0
  0
VERTEX
  5
1A9
  8
RIVERS_AND_CHANNELS
 10
675976.71241433441
 20
4796408.8764565028
 30
0.0
  0
VERTEX
  5
1AA
  8
RIVERS_AND_CHANNELS
 10
675928.30499127053
 20
4796461.2244272381
 30
0.0
  0
VERTEX
  5
1AB
  8
RIVERS_AND_CHANNELS
 10
675909.54543597996
 20
4796485.7759456839
 30
0.0
  0
VERTEX
  5
1AC
  8
RIVERS_AND_CHANNELS
 10
675880.01223696698
 20
4796509.982980133
 30
0.0
  0
VERTEX
  5
1AD
  8
RIVERS_AND_CHANNELS
 10
675850.70854446036
 20
4796527.0113197695
 30
0.0
  0
VERTEX
  5
1AE
  8
RIVERS_AND_CHANNELS
 10
675798.36567474646
 20
4796590.0125432378
 30
0.0
  0
VERTEX
  5
1AF
  8
RIVERS_AND_CHANNELS
 10
675721.45775034011
 20
4796634.2632611161
 30
0.0
  0
VERTEX
  5
1B0
  8
RIVERS_AND_CHANNELS
 10
675673.50934317335
 20
4796672.2537520071
 30
0.0
  0
VERTEX
  5
1B1
  8
RIVERS_AND_CHANNELS
 10
675651.50286507804
 20
4796685.9223034233
 30
0.0
  0
VERTEX
  5
1B2
  8
RIVERS_AND_CHANNELS
 10
675593.92826583388
 20
4796687.6746530496
 30
0.0
  0
VERTEX
  5
1B3
  8
RIVERS_AND_CHANNELS
 10
675521.75924065127
 20
4796696.1464889003
 30
0.0
  0
VERTEX
  5
1B4
  8
RIVERS_AND_CHANNELS
 10
675474.15509540716
 20
4796723.36886991
 30
0.0
  0
VERTEX
  5
1B5
  8
RIVERS_AND_CHANNELS
 10
675425.86242631706
 20
4796772.1274706852
 30
0.0
  0
VERTEX
  5
1B6
  8
RIVERS_AND_CHANNELS
 10
675371.41999878746
 20
4796788.352067085
 30
0.0
  0
VERTEX
  5
1B7
  8
RIVERS_AND_CHANNELS
 10
675341.31302846095
 20
4796830.5059964461
 30
0.0
  0
VERTEX
  5
1B8
  8
RIVERS_AND_CHANNELS
 10
675299.97331185977
 20
4796886.6729188832
 30
0.0
  0
SEQEND
  5
1B9
  8
RIVERS_AND_CHANNELS
  0
POLYLINE
  5
76
  8
RIVERS_AND_CHANNELS
 66
     1
 10
0.0
 20
0.0
 30
0.0
  0
VERTEX
  5
1BA
  8
RIVERS_AND_CHANNELS
 10
676926.68180821359
 20
4795395.8620183161
 30
0.0
  0
VERTEX
  5
1BB
  8
RIVERS_AND_CHANNELS
 10
676907.12621285405
 20
4795395.2368160347
 30
0.0
  0
VERTEX
  5
1BC
  8
RIVERS_AND_CHANNELS
 10
676844.04823093873
 20
4795408.8725579455
 30
0.0
  0
VERTEX
  5
1BD
  8
RIVERS_AND_CHANNELS
 10
676792.45365595387
 20
4795430.7015734939
 30
0.0
  0
VERTEX
  5
1BE
  8
RIVERS_AND_CHANNELS
 10
676756.62861977599
 20
4795449.1216549492
 30
0.0
  0
VERTEX
  5
1BF
  8
RIVERS_AND_CHANNELS
 10
676713.35627160245
 20
4795455.564404536
 30
0.0
  0
VERTEX
  5
1C0
  8
RIVERS_AND_CHANNELS
 10
676670.3337885004
 20
4795454.1889539771
 30
0.0
  0
VERTEX
  5
1C1
  8
RIVERS_AND_CHANNELS
 10
676642.20601460256
 20
4795476.7682150323
 30
0.0
  0
VERTEX
  5
1C2
  8
RIVERS_AND_CHANNELS
 10
676594.52264534566
 20
4795498.722273808
 30
0.0
  0
VERTEX
  5
1C3
  8
RIVERS_AND_CHANNELS
 10
676562.35877795471
 20
4795525.0855479864
 30
0.0
  0
VERTEX
  5
1C4
  8
RIVERS_AND_CHANNELS
 10
676510.38927537925
 20
4795558.6418595994
 30
0.0
  0
VERTEX
  5
1C5
  8
RIVERS_AND_CHANNELS
 10
676438.11432514817
 20
4795615.0274708383
 30
0.0
  0
VERTEX
  5
1C6
  8
RIVERS_AND_CHANNELS
 10
676343.49735371687
 20
4795635.4810385983
 30
0.0
  0
VERTEX
  5
1C7
  8
RIVERS_AND_CHANNELS
 10
676315.86948183097
 20
4795642.423950009
 30
0.0
  0
VERTEX
  5
1C8
  8
RIVERS_AND_CHANNELS
 10
676260.23881191097
 20
4795668.0370237883
 30
0.0
  0
VERTEX
  5
1C9
  8
RIVERS_AND_CHANNELS
 10
676208.51934771833
 20
4795693.775140794
 30
0.0
  0
VERTEX
  5
1CA
  8
RIVERS_AND_CHANNELS
 10
676157.67462647276
 20
4795692.1496093217
 30
0.0
  0
VERTEX
  5
1CB
  8
RIVERS_AND_CHANNELS
 10
676122.09954202175
 20
4795702.7514934018
 30
0.0
  0
VERTEX
  5
1CC
  8
RIVERS_AND_CHANNELS
 10
676105.08024746412
 20
4795745.2513241582
 30
0.0
  0
VERTEX
  5
1CD
  8
RIVERS_AND_CHANNELS
 10
676052.11102752096
 20
4795810.0803378252
 30
0.0
  0
VERTEX
  5
1CE
  8
RIVERS_AND_CHANNELS
 10
675995.60552799841
 20
4795863.0570573127
 30
0.0
  0
VERTEX
  5
1CF
  8
RIVERS_AND_CHANNELS
 10
675934.68900739215
 20
4795931.5450859852
 30
0.0
  0
VERTEX
  5
1D0
  8
RIVERS_AND_CHANNELS
 10
675885.00602864544
 20
4796016.044588441
 30
0.0
  0
VERTEX
  5
1D1
  8
RIVERS_AND_CHANNELS
 10
675846.05651499261
 20
4796132.191953891
 30
0.0
  0
VERTEX
  5
1D2
  8
RIVERS_AND_CHANNELS
 10
675710.11557948461
 20
4796343.0656296127
 30
0.0
  0
VERTEX
  5
1D3
  8
RIVERS_AND_CHANNELS
 10
675681.36292771145
 20
4796385.1903390009
 30
0.0
  0
VERTEX
  5
1D4
  8
RIVERS_AND_CHANNELS
 10
675616.66026389704
 20
4796449.644228531
 30
0.0
  0
VERTEX
  5
1D5
  8
RIVERS_AND_CHANNELS
 10
675561.15465649613
 20
4796471.3482063916
 30
0.0
  0
VERTEX
  5
1D6
  8
RIVERS_AND_CHANNELS
 10
675497.95170015912
 20
4796488.8930018833
 30
0.0
  0
VERTEX
  5
1D7
  8
RIVERS_AND_CHANNELS
 10
675437.03517955285
 20
4796557.3810305567
 30
0.0
  0
VERTEX
  5
1D8
  8
RIVERS_AND_CHANNELS
 10
675423.92700406723
 20
4796600.0059017679
 30
0.0
  0
VERTEX
  5
1D9
  8
RIVERS_AND_CHANNELS
 10
675394.29952269176
 20
4796669.4942568624
 30
0.0
  0
VERTEX
  5
1DA
  8
RIVERS_AND_CHANNELS
 10
675326.93549555633
 20
4796694.7322092727
 30
0.0
  0
VERTEX
  5
1DB
  8
RIVERS_AND_CHANNELS
 10
675287.57426645455
 20
4796701.2999993172
 30
0.0
  0
VERTEX
  5
1DC
  8
RIVERS_AND_CHANNELS
 10
675173.40161300846
 20
4796721.1283620233
 30
0.0
  0
VERTEX
  5
1DD
  8
RIVERS_AND_CHANNELS
 10
675074.62357222068
 20
4796749.2750415942
 30
0.0
  0
VERTEX
  5
1DE
  8
RIVERS_AND_CHANNELS
 10
674998.68745320244
 20
4796797.7174601108
 30
0.0
  0
VERTEX
  5
1DF
  8
RIVERS_AND_CHANNELS
 10
674904.57038378308
 20
4796802.5346782273
 30
0.0
  0
SEQEND
  5
1E0
  8
RIVERS_AND_CHANNELS
  0
POLYLINE
  5
77
  8
RIVERS_AND_CHANNELS
 66
     1
 10
0.0
 20
0.0
 30
0.0
  0
VERTEX
  5
1E1
  8
RIVERS_AND_CHANNELS
 10
679894.69017312466
 20
4794091.5629023081
 30
0.0
  0
VERTEX
  5
1E2
  8
RIVERS_AND_CHANNELS
 10
679919.68397438526
 20
4794175.3349170014
 30
0.0
  0
VERTEX
  5
1E3
  8
RIVERS_AND_CHANNELS
 10
679936.88357185619
 20
4794286.5153218713
 30
0.0
  0
VERTEX
  5
1E4
  8
RIVERS_AND_CHANNELS
 10
680031.42861690396
 20
4794358.6820698883
 30
0.0
  0
VERTEX
  5
1E5
  8
RIVERS_AND_CHANNELS
 10
680028.99947030365
 20
4794434.6629314898
 30
0.0
  0
VERTEX
  5
1E6
  8
RIVERS_AND_CHANNELS
 10
680033.92286631011
 20
4794497.0500476118
 30
0.0
  0
VERTEX
  5
1E7
  8
RIVERS_AND_CHANNELS
 10
680052.66828368953
 20
4794559.8790156022
 30
0.0
  0
VERTEX
  5
1E8
  8
RIVERS_AND_CHANNELS
 10
680135.67901038169
 20
4794676.106925928
 30
0.0
  0
VERTEX
  5
1E9
  8
RIVERS_AND_CHANNELS
 10
680161.94847445097
 20
4794704.0969921593
 30
0.0
  0
VERTEX
  5
1EA
  8
RIVERS_AND_CHANNELS
 10
680191.6100779532
 20
4794732.1954616513
 30
0.0
  0
VERTEX
  5
1EB
  8
RIVERS_AND_CHANNELS
 10
680227.83900306327
 20
4794767.2914801491
 30
0.0
  0
VERTEX
  5
1EC
  8
RIVERS_AND_CHANNELS
 10
680236.06422570383
 20
4794828.6423791209
 30
0.0
  0
VERTEX
  5
1ED
  8
RIVERS_AND_CHANNELS
 10
680248.33183998044
 20
4794869.7598404819
 30
0.0
  0
VERTEX
  5
1EE
  8
RIVERS_AND_CHANNELS
 10
680287.84451327112
 20
4794908.3546136972
 30
0.0
  0
VERTEX
  5
1EF
  8
RIVERS_AND_CHANNELS
 10
680335.22518877254
 20
4794913.2631695
 30
0.0
  0
VERTEX
  5
1F0
  8
RIVERS_AND_CHANNELS
 10
680375.60498198494
 20
4794924.7354468061
 30
0.0
  0
VERTEX
  5
1F1
  8
RIVERS_AND_CHANNELS
 10
680405.26649738895
 20
4794952.833958637
 30
0.0
  0
VERTEX
  5
1F2
  8
RIVERS_AND_CHANNELS
 10
680423.66796068975
 20
4795014.5101971729
 30
0.0
  0
VERTEX
  5
1F3
  8
RIVERS_AND_CHANNELS
 10
680435.61040553707
 20
4795065.7985775834
 30
0.0
  0
VERTEX
  5
1F4
  8
RIVERS_AND_CHANNELS
 10
680453.57830815576
 20
4795141.0360866282
 30
0.0
  0
VERTEX
  5
1F5
  8
RIVERS_AND_CHANNELS
 10
680457.8695304119
 20
4795219.2300717523
 30
0.0
  0
VERTEX
  5
1F6
  8
RIVERS_AND_CHANNELS
 10
680463.13617430103
 20
4795266.9112969553
 30
0.0
  0
VERTEX
  5
1F7
  8
RIVERS_AND_CHANNELS
 10
680482.51314733294
 20
4795298.0747332312
 30
0.0
  0
VERTEX
  5
1F8
  8
RIVERS_AND_CHANNELS
 10
680518.30859985901
 20
4795346.7319799
 30
0.0
  0
VERTEX
  5
1F9
  8
RIVERS_AND_CHANNELS
 10
680565.1190144883
 20
4795427.4816952096
 30
0.0
  0
VERTEX
  5
1FA
  8
RIVERS_AND_CHANNELS
 10
680576.78551345028
 20
4795481.3860429497
 30
0.0
  0
VERTEX
  5
1FB
  8
RIVERS_AND_CHANNELS
 10
680644.98002358736
 20
4795547.1347561851
 30
0.0
  0
VERTEX
  5
1FC
  8
RIVERS_AND_CHANNELS
 10
680697.73665874312
 20
4795572.2413672702
 30
0.0
  0
VERTEX
  5
1FD
  8
RIVERS_AND_CHANNELS
 10
680743.37778571295
 20
4795610.5033554994
 30
0.0
  0
VERTEX
  5
1FE
  8
RIVERS_AND_CHANNELS
 10
680751.16596662649
 20
4795681.0122570116
 30
0.0
  0
VERTEX
  5
1FF
  8
RIVERS_AND_CHANNELS
 10
680759.16777163034
 20
4795744.8365338454
 30
0.0
  0
VERTEX
  5
200
  8
RIVERS_AND_CHANNELS
 10
680846.78541682556
 20
4795831.2804872757
 30
0.0
  0
VERTEX
  5
201
  8
RIVERS_AND_CHANNELS
 10
680875.49261414981
 20
4795875.6924983989
 30
0.0
  0
VERTEX
  5
202
  8
RIVERS_AND_CHANNELS
 10
680886.73169450474
 20
4795942.9659997392
 30
0.0
  0
VERTEX
  5
203
  8
RIVERS_AND_CHANNELS
 10
680898.18448416318
 20
4796003.5549242767
 30
0.0
  0
VERTEX
  5
204
  8
RIVERS_AND_CHANNELS
 10
680906.50685240095
 20
4796057.352358466
 30
0.0
  0
VERTEX
  5
205
  8
RIVERS_AND_CHANNELS
 10
680915.36358127382
 20
4796094.4383308729
 30
0.0
  0
VERTEX
  5
206
  8
RIVERS_AND_CHANNELS
 10
680927.56435565744
 20
4796131.6311689513
 30
0.0
  0
VERTEX
  5
207
  8
RIVERS_AND_CHANNELS
 10
680940.83367655845
 20
4796135.401123031
 30
0.0
  0
VERTEX
  5
208
  8
RIVERS_AND_CHANNELS
 10
680971.57111587084
 20
4796116.3095417852
 30
0.0
  0
VERTEX
  5
209
  8
RIVERS_AND_CHANNELS
 10
680992.06271223247
 20
4796103.5818501022
 30
0.0
  0
VERTEX
  5
20A
  8
RIVERS_AND_CHANNELS
 10
681029.06081963272
 20
4796098.0732891271
 30
0.0
  0
VERTEX
  5
20B
  8
RIVERS_AND_CHANNELS
 10
681069.0824078673
 20
4796102.6984815774
 30
0.0
  0
VERTEX
  5
20C
  8
RIVERS_AND_CHANNELS
 10
681111.16578146524
 20
4796147.5381358257
 30
0.0
  0
VERTEX
  5
20D
  8
RIVERS_AND_CHANNELS
 10
681118.84710700624
 20
4796221.3893482927
 30
0.0
  0
VERTEX
  5
20E
  8
RIVERS_AND_CHANNELS
 10
681183.59071914444
 20
4796290.3734165914
 30
0.0
  0
VERTEX
  5
20F
  8
RIVERS_AND_CHANNELS
 10
681252.53330066253
 20
4796332.7260461366
 30
0.0
  0
VERTEX
  5
210
  8
RIVERS_AND_CHANNELS
 10
681308.09961780906
 20
4796374.6510748947
 30
0.0
  0
VERTEX
  5
211
  8
RIVERS_AND_CHANNELS
 10
681338.86860193929
 20
4796459.2775027053
 30
0.0
  0
VERTEX
  5
212
  8
RIVERS_AND_CHANNELS
 10
681332.74641925516
 20
4796546.0702284174
 30
0.0
  0
VERTEX
  5
213
  8
RIVERS_AND_CHANNELS
 10
681317.23314706294
 20
4796612.488443505
 30
0.0
  0
VERTEX
  5
214
  8
RIVERS_AND_CHANNELS
 10
681332.02989269164
 20
4796673.1843211632
 30
0.0
  0
VERTEX
  5
215
  8
RIVERS_AND_CHANNELS
 10
681349.85020725313
 20
4796744.0139099127
 30
0.0
  0
VERTEX
  5
216
  8
RIVERS_AND_CHANNELS
 10
681401.21772833075
 20
4796812.5703829667
 30
0.0
  0
VERTEX
  5
217
  8
RIVERS_AND_CHANNELS
 10
681470.48078786966
 20
4796844.8961219871
 30
0.0
  0
VERTEX
  5
218
  8
RIVERS_AND_CHANNELS
 10
681535.97238329088
 20
4796890.4841489317
 30
0.0
  0
VERTEX
  5
219
  8
RIVERS_AND_CHANNELS
 10
681544.72225679108
 20
4796930.9124322915
 30
0.0
  0
VERTEX
  5
21A
  8
RIVERS_AND_CHANNELS
 10
681546.35662498965
 20
4796984.496002581
 30
0.0
  0
VERTEX
  5
21B
  8
RIVERS_AND_CHANNELS
 10
681528.46100131585
 20
4797020.7266887352
 30
0.0
  0
VERTEX
  5
21C
  8
RIVERS_AND_CHANNELS
 10
681521.80445799616
 20
4797124.2308762297
 30
0.0
  0
VERTEX
  5
21D
  8
RIVERS_AND_CHANNELS
 10
681572.31714041857
 20
4797219.525701589
 30
0.0
  0
VERTEX
  5
21E
  8
RIVERS_AND_CHANNELS
 10
681557.6587068818
 20
4797259.2055643722
 30
0.0
  0
VERTEX
  5
21F
  8
RIVERS_AND_CHANNELS
 10
681549.68844813784
 20
4797299.0992514873
 30
0.0
  0
VERTEX
  5
220
  8
RIVERS_AND_CHANNELS
 10
681547.76506152248
 20
4797359.2605329016
 30
0.0
  0
VERTEX
  5
221
  8
RIVERS_AND_CHANNELS
 10
681606.24800413067
 20
4797414.66162604
 30
0.0
  0
VERTEX
  5
222
  8
RIVERS_AND_CHANNELS
 10
681630.00833544775
 20
4797509.1011200408
 30
0.0
  0
VERTEX
  5
223
  8
RIVERS_AND_CHANNELS
 10
681652.13438522175
 20
4797549.9570465246
 30
0.0
  0
VERTEX
  5
224
  8
RIVERS_AND_CHANNELS
 10
681663.4803195073
 20
4797613.8882820206
 30
0.0
  0
VERTEX
  5
225
  8
RIVERS_AND_CHANNELS
 10
681668.67235442216
 20
4797660.8941835184
 30
0.0
  0
VERTEX
  5
226
  8
RIVERS_AND_CHANNELS
 10
681595.10149393359
 20
4797712.0742173661
 30
0.0
  0
VERTEX
  5
227
  8
RIVERS_AND_CHANNELS
 10
681584.63256767835
 20
4797786.2091896161
 30
0.0
  0
VERTEX
  5
228
  8
RIVERS_AND_CHANNELS
 10
681600.99921628914
 20
4797882.2478367323
 30
0.0
  0
VERTEX
  5
229
  8
RIVERS_AND_CHANNELS
 10
681613.54558494117
 20
4797945.7862698194
 30
0.0
  0
VERTEX
  5
22A
  8
RIVERS_AND_CHANNELS
 10
681636.00733211415
 20
4798003.1660418734
 30
0.0
  0
VERTEX
  5
22B
  8
RIVERS_AND_CHANNELS
 10
681656.71121587476
 20
4798115.5324366204
 30
0.0
  0
VERTEX
  5
22C
  8
RIVERS_AND_CHANNELS
 10
681677.57012668729
 20
4798223.0470534191
 30
0.0
  0
VERTEX
  5
22D
  8
RIVERS_AND_CHANNELS
 10
681670.44085489016
 20
4798294.0509431819
 30
0.0
  0
VERTEX
  5
22E
  8
RIVERS_AND_CHANNELS
 10
681712.84424777108
 20
4798490.544925035
 30
0.0
  0
VERTEX
  5
22F
  8
RIVERS_AND_CHANNELS
 10
681714.16018733755
 20
4798541.7378117116
 30
0.0
  0
VERTEX
  5
230
  8
RIVERS_AND_CHANNELS
 10
681726.60155577399
 20
4798675.9144888204
 30
0.0
  0
VERTEX
  5
231
  8
RIVERS_AND_CHANNELS
 10
681740.95002532541
 20
4798719.6546307039
 30
0.0
  0
VERTEX
  5
232
  8
RIVERS_AND_CHANNELS
 10
681766.14489039755
 20
4798762.757890393
 30
0.0
  0
VERTEX
  5
233
  8
RIVERS_AND_CHANNELS
 10
681792.41719940398
 20
4798802.9446105016
 30
0.0
  0
VERTEX
  5
234
  8
RIVERS_AND_CHANNELS
 10
681813.80503478018
 20
4798841.9914342603
 30
0.0
  0
VERTEX
  5
235
  8
RIVERS_AND_CHANNELS
 10
681819.49349891406
 20
4798879.552739379
 30
0.0
  0
VERTEX
  5
236
  8
RIVERS_AND_CHANNELS
 10
681776.11729172152
 20
4798912.5943909632
 30
0.0
  0
VERTEX
  5
237
  8
RIVERS_AND_CHANNELS
 10
681708.13499320473
 20
4798999.4952872386
 30
0.0
  0
VERTEX
  5
238
  8
RIVERS_AND_CHANNELS
 10
681693.38117037748
 20
4799065.3870321317
 30
0.0
  0
VERTEX
  5
239
  8
RIVERS_AND_CHANNELS
 10
681687.80027599027
 20
4799141.0525562894
 30
0.0
  0
VERTEX
  5
23A
  8
RIVERS_AND_CHANNELS
 10
681685.47891205887
 20
4799213.6621022001
 30
0.0
  0
VERTEX
  5
23B
  8
RIVERS_AND_CHANNELS
 10
681674.38824862335
 20
4799263.870115038
 30
0.0
  0
VERTEX
  5
23C
  8
RIVERS_AND_CHANNELS
 10
681631.91369314038
 20
4799306.7544851033
 30
0.0
  0
VERTEX
  5
23D
  8
RIVERS_AND_CHANNELS
 10
681603.9395435442
 20
4799365.8135183323
 30
0.0
  0
VERTEX
  5
23E
  8
RIVERS_AND_CHANNELS
 10
681600.89529238886
 20
4799402.8808338782
 30
0.0
  0
VERTEX
  5
23F
  8
RIVERS_AND_CHANNELS
 10
681599.76768013847
 20
4799438.1512248563
 30
0.0
  0
VERTEX
  5
240
  8
RIVERS_AND_CHANNELS
 10
681583.21775281639
 20
4799490.5817772755
 30
0.0
  0
VERTEX
  5
241
  8
RIVERS_AND_CHANNELS
 10
681558.85298338591
 20
4799554.8409689851
 30
0.0
  0
VERTEX
  5
242
  8
RIVERS_AND_CHANNELS
 10
681540.78097525646
 20
4799625.8051354522
 30
0.0
  0
VERTEX
  5
243
  8
RIVERS_AND_CHANNELS
 10
681527.97539197409
 20
4799677.4262962034
 30
0.0
  0
VERTEX
  5
244
  8
RIVERS_AND_CHANNELS
 10
681511.06075622595
 20
4799712.1919228993
 30
0.0
  0
VERTEX
  5
245
  8
RIVERS_AND_CHANNELS
 10
681508.79673745926
 20
4799753.9297743803
 30
0.0
  0
VERTEX
  5
246
  8
RIVERS_AND_CHANNELS
 10
681486.52665066929
 20
4799810.8230419178
 30
0.0
  0
VERTEX
  5
247
  8
RIVERS_AND_CHANNELS
 10
681478.08848073112
 20
4799842.1432193983
 30
0.0
  0
VERTEX
  5
248
  8
RIVERS_AND_CHANNELS
 10
681485.35719622846
 20
4799905.5555039933
 30
0.0
  0
VERTEX
  5
249
  8
RIVERS_AND_CHANNELS
 10
681485.87915727904
 20
4799947.3824698161
 30
0.0
  0
VERTEX
  5
24A
  8
RIVERS_AND_CHANNELS
 10
681486.07112360885
 20
4800023.538206473
 30
0.0
  0
VERTEX
  5
24B
  8
RIVERS_AND_CHANNELS
 10
681448.90354082466
 20
4800076.4684035024
 30
0.0
  0
VERTEX
  5
24C
  8
RIVERS_AND_CHANNELS
 10
681399.41212532495
 20
4800164.4615879804
 30
0.0
  0
VERTEX
  5
24D
  8
RIVERS_AND_CHANNELS
 10
681403.27931683615
 20
4800218.7036875123
 30
0.0
  0
VERTEX
  5
24E
  8
RIVERS_AND_CHANNELS
 10
681399.08970063773
 20
4800291.349773976
 30
0.0
  0
VERTEX
  5
24F
  8
RIVERS_AND_CHANNELS
 10
681384.38191667863
 20
4800400.9826784423
 30
0.0
  0
VERTEX
  5
250
  8
RIVERS_AND_CHANNELS
 10
681349.99107254145
 20
4800483.8601476233
 30
0.0
  0
VERTEX
  5
251
  8
RIVERS_AND_CHANNELS
 10
681341.95181290386
 20
4800560.1154544046
 30
0.0
  0
VERTEX
  5
252
  8
RIVERS_AND_CHANNELS
 10
681320.58063290059
 20
4800730.874139905
 30
0.0
  0
VERTEX
  5
253
  8
RIVERS_AND_CHANNELS
 10
681303.48750200716
 20
4800783.7011673823
 30
0.0
  0
VERTEX
  5
254
  8
RIVERS_AND_CHANNELS
 10
681303.36598010513
 20
4800819.6217992064
 30
0.0
  0
VERTEX
  5
255
  8
RIVERS_AND_CHANNELS
 10
681297.38416387571
 20
4800846.1173092723
 30
0.0
  0
VERTEX
  5
256
  8
RIVERS_AND_CHANNELS
 10
681212.38199083239
 20
4800969.0460597323
 30
0.0
  0
VERTEX
  5
257
  8
RIVERS_AND_CHANNELS
 10
681186.70123085659
 20
4801049.1070559695
 30
0.0
  0
VERTEX
  5
258
  8
RIVERS_AND_CHANNELS
 10
681165.01475084433
 20
4801094.6320400592
 30
0.0
  0
VERTEX
  5
259
  8
RIVERS_AND_CHANNELS
 10
681150.96168854157
 20
4801201.2159983441
 30
0.0
  0
VERTEX
  5
25A
  8
RIVERS_AND_CHANNELS
 10
681151.30379583687
 20
4801292.2489572763
 30
0.0
  0
VERTEX
  5
25B
  8
RIVERS_AND_CHANNELS
 10
681164.01958628977
 20
4801403.1822925378
 30
0.0
  0
VERTEX
  5
25C
  8
RIVERS_AND_CHANNELS
 10
681202.41724277765
 20
4801524.6890366087
 30
0.0
  0
VERTEX
  5
25D
  8
RIVERS_AND_CHANNELS
 10
681230.75596198812
 20
4801655.62653792
 30
0.0
  0
VERTEX
  5
25E
  8
RIVERS_AND_CHANNELS
 10
681259.19850519276
 20
4801783.3165462483
 30
0.0
  0
VERTEX
  5
25F
  8
RIVERS_AND_CHANNELS
 10
681290.05961682973
 20
4801937.0902402708
 30
0.0
  0
VERTEX
  5
260
  8
RIVERS_AND_CHANNELS
 10
681274.98644191364
 20
4802001.6240922986
 30
0.0
  0
VERTEX
  5
261
  8
RIVERS_AND_CHANNELS
 10
681283.9340487601
 20
4802128.690837645
 30
0.0
  0
VERTEX
  5
262
  8
RIVERS_AND_CHANNELS
 10
681300.7295814578
 20
4802213.7482866459
 30
0.0
  0
VERTEX
  5
263
  8
RIVERS_AND_CHANNELS
 10
681334.29009675526
 20
4802283.0877946513
 30
0.0
  0
VERTEX
  5
264
  8
RIVERS_AND_CHANNELS
 10
681344.06820168893
 20
4802384.1748189116
 30
0.0
  0
VERTEX
  5
265
  8
RIVERS_AND_CHANNELS
 10
681373.02986053843
 20
4802495.6274976525
 30
0.0
  0
VERTEX
  5
266
  8
RIVERS_AND_CHANNELS
 10
681397.95618929749
 20
4802601.3846009178
 30
0.0
  0
VERTEX
  5
267
  8
RIVERS_AND_CHANNELS
 10
681404.15675848548
 20
4802675.9395286627
 30
0.0
  0
VERTEX
  5
268
  8
RIVERS_AND_CHANNELS
 10
681410.99669473025
 20
4802730.4958034307
 30
0.0
  0
VERTEX
  5
269
  8
RIVERS_AND_CHANNELS
 10
681421.63537923666
 20
4802845.2308528507
 30
0.0
  0
VERTEX
  5
26A
  8
RIVERS_AND_CHANNELS
 10
681421.47964383627
 20
4802939.6016601846
 30
0.0
  0
VERTEX
  5
26B
  8
RIVERS_AND_CHANNELS
 10
681419.01351066795
 20
4803016.7394183259
 30
0.0
  0
VERTEX
  5
26C
  8
RIVERS_AND_CHANNELS
 10
681431.38762189809
 20
4803077.1923516728
 30
0.0
  0
VERTEX
  5
26D
  8
RIVERS_AND_CHANNELS
 10
681463.95347373816
 20
4803132.5710969828
 30
0.0
  0
VERTEX
  5
26E
  8
RIVERS_AND_CHANNELS
 10
681499.65185294871
 20
4803179.4703533193
 30
0.0
  0
VERTEX
  5
26F
  8
RIVERS_AND_CHANNELS
 10
681480.49177310802
 20
4803241.7749867197
 30
0.0
  0
VERTEX
  5
270
  8
RIVERS_AND_CHANNELS
 10
681527.89786790416
 20
4803280.4689523438
 30
0.0
  0
VERTEX
  5
271
  8
RIVERS_AND_CHANNELS
 10
681594.09136883542
 20
4803456.8288751962
 30
0.0
  0
VERTEX
  5
272
  8
RIVERS_AND_CHANNELS
 10
681610.6970704312
 20
4803546.3018800942
 30
0.0
  0
VERTEX
  5
273
  8
RIVERS_AND_CHANNELS
 10
681650.05989373487
 20
4803619.8257787153
 30
0.0
  0
VERTEX
  5
274
  8
RIVERS_AND_CHANNELS
 10
681744.00721262454
 20
4803725.668608252
 30
0.0
  0
VERTEX
  5
275
  8
RIVERS_AND_CHANNELS
 10
681790.19498278224
 20
4803846.6612038147
 30
0.0
  0
VERTEX
  5
276
  8
RIVERS_AND_CHANNELS
 10
681884.87870035425
 20
4804016.4547392949
 30
0.0
  0
VERTEX
  5
277
  8
RIVERS_AND_CHANNELS
 10
681893.15028849395
 20
4804105.66129837
 30
0.0
  0
VERTEX
  5
278
  8
RIVERS_AND_CHANNELS
 10
681893.70906297537
 20
4804175.1651680842
 30
0.0
  0
VERTEX
  5
279
  8
RIVERS_AND_CHANNELS
 10
681938.92045680305
 20
4804326.7003853638
 30
0.0
  0
VERTEX
  5
27A
  8
RIVERS_AND_CHANNELS
 10
681943.70379484782
 20
4804438.0309287924
 30
0.0
  0
VERTEX
  5
27B
  8
RIVERS_AND_CHANNELS
 10
681929.57342590916
 20
4804532.0801736144
 30
0.0
  0
VERTEX
  5
27C
  8
RIVERS_AND_CHANNELS
 10
681994.40876788134
 20
4804678.6838907916
 30
0.0
  0
VERTEX
  5
27D
  8
RIVERS_AND_CHANNELS
 10
682018.25719293347
 20
4804715.5790616311
 30
0.0
  0
VERTEX
  5
27E
  8
RIVERS_AND_CHANNELS
 10
682074.66956530011
 20
4804864.6929360339
 30
0.0
  0
VERTEX
  5
27F
  8
RIVERS_AND_CHANNELS
 10
682106.14194786095
 20
4804924.0673992848
 30
0.0
  0
VERTEX
  5
280
  8
RIVERS_AND_CHANNELS
 10
682130.72677303723
 20
4805024.9132309631
 30
0.0
  0
VERTEX
  5
281
  8
RIVERS_AND_CHANNELS
 10
682172.42375780677
 20
4805112.4089730522
 30
0.0
  0
VERTEX
  5
282
  8
RIVERS_AND_CHANNELS
 10
682186.96160641685
 20
4805179.5803170139
 30
0.0
  0
VERTEX
  5
283
  8
RIVERS_AND_CHANNELS
 10
682236.57510279457
 20
4805367.388996359
 30
0.0
  0
VERTEX
  5
284
  8
RIVERS_AND_CHANNELS
 10
682292.53108633042
 20
4805513.4323094236
 30
0.0
  0
VERTEX
  5
285
  8
RIVERS_AND_CHANNELS
 10
682304.56402258074
 20
4805559.7386097014
 30
0.0
  0
VERTEX
  5
286
  8
RIVERS_AND_CHANNELS
 10
682332.19264247525
 20
4805625.4523905562
 30
0.0
  0
VERTEX
  5
287
  8
RIVERS_AND_CHANNELS
 10
682367.83469896647
 20
4805694.1236463208
 30
0.0
  0
VERTEX
  5
288
  8
RIVERS_AND_CHANNELS
 10
682389.97709478927
 20
4805762.3633111008
 30
0.0
  0
VERTEX
  5
289
  8
RIVERS_AND_CHANNELS
 10
682395.31616196304
 20
4805848.9746436402
 30
0.0
  0
SEQEND
  5
28A
  8
RIVERS_AND_CHANNELS
  0
POLYLINE
  5
78
  8
RIVERS_AND_CHANNELS
 66
     1
 10
0.0
 20
0.0
 30
0.0
  0
VERTEX
  5
28B
  8
RIVERS_AND_CHANNELS
 10
680023.19817146205
 20
4795359.5186680509
 30
0.0
  0
VERTEX
  5
28C
  8
RIVERS_AND_CHANNELS
 10
680040.658305777
 20
4795402.4266625363
 30
0.0
  0
VERTEX
  5
28D
  8
RIVERS_AND_CHANNELS
 10
680061.76968398562
 20
4795478.3901962163
 30
0.0
  0
VERTEX
  5
28E
  8
RIVERS_AND_CHANNELS
 10
680059.36512875895
 20
4795553.601868446
 30
0.0
  0
VERTEX
  5
28F
  8
RIVERS_AND_CHANNELS
 10
680042.70074451377
 20
4795633.0632034959
 30
0.0
  0
VERTEX
  5
290
  8
RIVERS_AND_CHANNELS
 10
680040.14590530633
 20
4795712.9755826863
 30
0.0
  0
VERTEX
  5
291
  8
RIVERS_AND_CHANNELS
 10
680051.70060825185
 20
4795793.339096236
 30
0.0
  0
VERTEX
  5
292
  8
RIVERS_AND_CHANNELS
 10
680078.86770181032
 20
4795827.1464038892
 30
0.0
  0
VERTEX
  5
293
  8
RIVERS_AND_CHANNELS
 10
680085.11811363616
 20
4795926.1624733377
 30
0.0
  0
VERTEX
  5
294
  8
RIVERS_AND_CHANNELS
 10
680086.06414768635
 20
4796043.8310959116
 30
0.0
  0
VERTEX
  5
295
  8
RIVERS_AND_CHANNELS
 10
680020.8650466688
 20
4796168.7960934257
 30
0.0
  0
VERTEX
  5
296
  8
RIVERS_AND_CHANNELS
 10
679985.23768253427
 20
4796252.3566840282
 30
0.0
  0
VERTEX
  5
297
  8
RIVERS_AND_CHANNELS
 10
679978.43054439744
 20
4796318.0165350679
 30
0.0
  0
VERTEX
  5
298
  8
RIVERS_AND_CHANNELS
 10
679997.42432010523
 20
4796348.1232953453
 30
0.0
  0
VERTEX
  5
299
  8
RIVERS_AND_CHANNELS
 10
679996.03491759929
 20
4796391.5821790062
 30
0.0
  0
VERTEX
  5
29A
  8
RIVERS_AND_CHANNELS
 10
679980.05902618065
 20
4796437.4749575127
 30
0.0
  0
VERTEX
  5
29B
  8
RIVERS_AND_CHANNELS
 10
679972.96472210425
 20
4796477.8512654593
 30
0.0
  0
VERTEX
  5
29C
  8
RIVERS_AND_CHANNELS
 10
679974.19624638709
 20
4796530.0945931561
 30
0.0
  0
VERTEX
  5
29D
  8
RIVERS_AND_CHANNELS
 10
679980.8547024877
 20
4796594.1123517249
 30
0.0
  0
VERTEX
  5
29E
  8
RIVERS_AND_CHANNELS
 10
679988.62476897915
 20
4796623.362952007
 30
0.0
  0
VERTEX
  5
29F
  8
RIVERS_AND_CHANNELS
 10
679975.48234545905
 20
4796762.1533895982
 30
0.0
  0
VERTEX
  5
2A0
  8
RIVERS_AND_CHANNELS
 10
679963.51678333466
 20
4796773.3717284789
 30
0.0
  0
VERTEX
  5
2A1
  8
RIVERS_AND_CHANNELS
 10
679952.59740295855
 20
4796842.6279792767
 30
0.0
  0
VERTEX
  5
2A2
  8
RIVERS_AND_CHANNELS
 10
679930.73135841684
 20
4796891.2326337323
 30
0.0
  0
VERTEX
  5
2A3
  8
RIVERS_AND_CHANNELS
 10
679928.0451791815
 20
4796975.2531752205
 30
0.0
  0
VERTEX
  5
2A4
  8
RIVERS_AND_CHANNELS
 10
679952.37418419041
 20
4797031.1352184992
 30
0.0
  0
VERTEX
  5
2A5
  8
RIVERS_AND_CHANNELS
 10
679964.64500129898
 20
4797101.1328264941
 30
0.0
  0
VERTEX
  5
2A6
  8
RIVERS_AND_CHANNELS
 10
679971.76668014692
 20
4797150.664233136
 30
0.0
  0
VERTEX
  5
2A7
  8
RIVERS_AND_CHANNELS
 10
679977.59158082295
 20
4797240.7573427148
 30
0.0
  0
VERTEX
  5
2A8
  8
RIVERS_AND_CHANNELS
 10
679968.92262124631
 20
4797330.3870310923
 30
0.0
  0
VERTEX
  5
2A9
  8
RIVERS_AND_CHANNELS
 10
679966.23644201085
 20
4797414.4075725824
 30
0.0
  0
VERTEX
  5
2AA
  8
RIVERS_AND_CHANNELS
 10
679963.08712812618
 20
4797512.9144236604
 30
0.0
  0
VERTEX
  5
2AB
  8
RIVERS_AND_CHANNELS
 10
679964.22663962061
 20
4797848.1011890052
 30
0.0
  0
VERTEX
  5
2AC
  8
RIVERS_AND_CHANNELS
 10
679968.36628604145
 20
4797946.5642743772
 30
0.0
  0
VERTEX
  5
2AD
  8
RIVERS_AND_CHANNELS
 10
679957.94569393143
 20
4798044.5618163999
 30
0.0
  0
VERTEX
  5
2AE
  8
RIVERS_AND_CHANNELS
 10
679952.51867707854
 20
4798187.6683387663
 30
0.0
  0
VERTEX
  5
2AF
  8
RIVERS_AND_CHANNELS
 10
679950.26748768566
 20
4798258.0829072678
 30
0.0
  0
VERTEX
  5
2B0
  8
RIVERS_AND_CHANNELS
 10
679941.61157434608
 20
4798328.2927135052
 30
0.0
  0
VERTEX
  5
2B1
  8
RIVERS_AND_CHANNELS
 10
679910.64179942769
 20
4798394.5852375943
 30
0.0
  0
VERTEX
  5
2B2
  8
RIVERS_AND_CHANNELS
 10
679890.09755209752
 20
4798435.5795814013
 30
0.0
  0
VERTEX
  5
2B3
  8
RIVERS_AND_CHANNELS
 10
679887.43705593573
 20
4798518.79678642
 30
0.0
  0
VERTEX
  5
2B4
  8
RIVERS_AND_CHANNELS
 10
679903.58125009097
 20
4798615.4309543204
 30
0.0
  0
VERTEX
  5
2B5
  8
RIVERS_AND_CHANNELS
 10
679894.16308183724
 20
4798757.3596358988
 30
0.0
  0
VERTEX
  5
2B6
  8
RIVERS_AND_CHANNELS
 10
679910.6904546849
 20
4798894.4005031586
 30
0.0
  0
VERTEX
  5
2B7
  8
RIVERS_AND_CHANNELS
 10
679907.92763147026
 20
4798980.8183785854
 30
0.0
  0
VERTEX
  5
2B8
  8
RIVERS_AND_CHANNELS
 10
679888.94851759518
 20
4799073.1256946977
 30
0.0
  0
VERTEX
  5
2B9
  8
RIVERS_AND_CHANNELS
 10
679870.89025765529
 20
4799136.6270645997
 30
0.0
  0
VERTEX
  5
2BA
  8
RIVERS_AND_CHANNELS
 10
679816.80719153327
 20
4799217.1258511776
 30
0.0
  0
VERTEX
  5
2BB
  8
RIVERS_AND_CHANNELS
 10
679788.30765300035
 20
4799298.5004211152
 30
0.0
  0
VERTEX
  5
2BC
  8
RIVERS_AND_CHANNELS
 10
679747.59402652469
 20
4799339.1876761233
 30
0.0
  0
VERTEX
  5
2BD
  8
RIVERS_AND_CHANNELS
 10
679718.69493754499
 20
4799384.4711575806
 30
0.0
  0
VERTEX
  5
2BE
  8
RIVERS_AND_CHANNELS
 10
679709.65975629655
 20
4799415.170750495
 30
0.0
  0
VERTEX
  5
2BF
  8
RIVERS_AND_CHANNELS
 10
679713.27378275152
 20
4799462.1229668511
 30
0.0
  0
VERTEX
  5
2C0
  8
RIVERS_AND_CHANNELS
 10
679700.62469015946
 20
4799527.1338201473
 30
0.0
  0
VERTEX
  5
2C1
  8
RIVERS_AND_CHANNELS
 10
679674.30961397954
 20
4799546.6927545592
 30
0.0
  0
VERTEX
  5
2C2
  8
RIVERS_AND_CHANNELS
 10
679641.73871279845
 20
4799579.2425825344
 30
0.0
  0
VERTEX
  5
2C3
  8
RIVERS_AND_CHANNELS
 10
679596.95372367545
 20
4799652.4796655169
 30
0.0
  0
VERTEX
  5
2C4
  8
RIVERS_AND_CHANNELS
 10
679543.15968351171
 20
4799703.6555206683
 30
0.0
  0
VERTEX
  5
2C5
  8
RIVERS_AND_CHANNELS
 10
679494.85333232675
 20
4799810.2630472472
 30
0.0
  0
VERTEX
  5
2C6
  8
RIVERS_AND_CHANNELS
 10
679498.87888077751
 20
4799892.7330296822
 30
0.0
  0
VERTEX
  5
2C7
  8
RIVERS_AND_CHANNELS
 10
679506.92997767858
 20
4800003.3634603098
 30
0.0
  0
VERTEX
  5
2C8
  8
RIVERS_AND_CHANNELS
 10
679496.86616410769
 20
4800039.5697765239
 30
0.0
  0
VERTEX
  5
2C9
  8
RIVERS_AND_CHANNELS
 10
679458.62362649385
 20
4800075.7761526592
 30
0.0
  0
VERTEX
  5
2CA
  8
RIVERS_AND_CHANNELS
 10
679466.67460828391
 20
4800120.0283368947
 30
0.0
  0
VERTEX
  5
2CB
  8
RIVERS_AND_CHANNELS
 10
679452.58524626249
 20
4800146.1773630232
 30
0.0
  0
VERTEX
  5
2CC
  8
RIVERS_AND_CHANNELS
 10
679442.52143269184
 20
4800178.3607152654
 30
0.0
  0
VERTEX
  5
2CD
  8
RIVERS_AND_CHANNELS
 10
679454.59807804343
 20
4800236.6931535592
 30
0.0
  0
VERTEX
  5
2CE
  8
RIVERS_AND_CHANNELS
 10
679454.59807804343
 20
4800262.8421796858
 30
0.0
  0
VERTEX
  5
2CF
  8
RIVERS_AND_CHANNELS
 10
679462.64905983361
 20
4800284.9683017656
 30
0.0
  0
VERTEX
  5
2D0
  8
RIVERS_AND_CHANNELS
 10
679436.48316757125
 20
4800309.1058459077
 30
0.0
  0
VERTEX
  5
2D1
  8
RIVERS_AND_CHANNELS
 10
679408.30444352818
 20
4800333.2433900507
 30
0.0
  0
VERTEX
  5
2D2
  8
RIVERS_AND_CHANNELS
 10
679386.16398460558
 20
4800371.4611882512
 30
0.0
  0
VERTEX
  5
2D3
  8
RIVERS_AND_CHANNELS
 10
679388.42211802921
 20
4800419.0329259587
 30
0.0
  0
VERTEX
  5
2D4
  8
RIVERS_AND_CHANNELS
 10
679350.19742262771
 20
4800448.6541838059
 30
0.0
  0
VERTEX
  5
2D5
  8
RIVERS_AND_CHANNELS
 10
679350.19742262771
 20
4800470.3417454083
 30
0.0
  0
VERTEX
  5
2D6
  8
RIVERS_AND_CHANNELS
 10
679340.55226793746
 20
4800482.3903840827
 30
0.0
  0
VERTEX
  5
2D7
  8
RIVERS_AND_CHANNELS
 10
679338.14092170936
 20
4800501.6682299348
 30
0.0
  0
VERTEX
  5
2D8
  8
RIVERS_AND_CHANNELS
 10
679326.08453590213
 20
4800528.1752230357
 30
0.0
  0
VERTEX
  5
2D9
  8
RIVERS_AND_CHANNELS
 10
679311.61680386681
 20
4800557.0919918111
 30
0.0
  0
VERTEX
  5
2DA
  8
RIVERS_AND_CHANNELS
 10
679298.3546298343
 20
4800596.8525114292
 30
0.0
  0
VERTEX
  5
2DB
  8
RIVERS_AND_CHANNELS
 10
679287.5589402219
 20
4800645.2381536253
 30
0.0
  0
VERTEX
  5
2DC
  8
RIVERS_AND_CHANNELS
 10
679274.50177896547
 20
4800689.2592831822
 30
0.0
  0
VERTEX
  5
2DD
  8
RIVERS_AND_CHANNELS
 10
679260.25057081098
 20
4800732.8754079193
 30
0.0
  0
VERTEX
  5
2DE
  8
RIVERS_AND_CHANNELS
 10
679231.74815450155
 20
4800790.733513006
 30
0.0
  0
VERTEX
  5
2DF
  8
RIVERS_AND_CHANNELS
 10
679233.52949796547
 20
4800834.349637744
 30
0.0
  0
VERTEX
  5
2E0
  8
RIVERS_AND_CHANNELS
 10
679221.84330928768
 20
4800855.6975082196
 30
0.0
  0
VERTEX
  5
2E1
  8
RIVERS_AND_CHANNELS
 10
679212.06243867194
 20
4800899.1395030571
 30
0.0
  0
VERTEX
  5
2E2
  8
RIVERS_AND_CHANNELS
 10
679251.20756201155
 20
4800917.1107155187
 30
0.0
  0
VERTEX
  5
2E3
  8
RIVERS_AND_CHANNELS
 10
679246.41076954082
 20
4800963.1181603167
 30
0.0
  0
VERTEX
  5
2E4
  8
RIVERS_AND_CHANNELS
 10
679239.54842442984
 20
4800983.691973648
 30
0.0
  0
VERTEX
  5
2E5
  8
RIVERS_AND_CHANNELS
 10
679205.23646865203
 20
4801007.0090220114
 30
0.0
  0
VERTEX
  5
2E6
  8
RIVERS_AND_CHANNELS
 10
679188.76672527438
 20
4801035.8124205982
 30
0.0
  0
VERTEX
  5
2E7
  8
RIVERS_AND_CHANNELS
 10
679190.13919429656
 20
4801082.4465173231
 30
0.0
  0
VERTEX
  5
2E8
  8
RIVERS_AND_CHANNELS
 10
679207.98140669649
 20
4801126.3373790178
 30
0.0
  0
VERTEX
  5
2E9
  8
RIVERS_AND_CHANNELS
 10
679196.47064725554
 20
4801169.119465868
 30
0.0
  0
VERTEX
  5
2EA
  8
RIVERS_AND_CHANNELS
 10
679201.03975007357
 20
4801189.6667942004
 30
0.0
  0
VERTEX
  5
2EB
  8
RIVERS_AND_CHANNELS
 10
679209.55255738716
 20
4801223.7552689742
 30
0.0
  0
VERTEX
  5
2EC
  8
RIVERS_AND_CHANNELS
 10
679197.12067934207
 20
4801244.8756200969
 30
0.0
  0
VERTEX
  5
2ED
  8
RIVERS_AND_CHANNELS
 10
679199.60707797331
 20
4801275.9349776134
 30
0.0
  0
VERTEX
  5
2EE
  8
RIVERS_AND_CHANNELS
 10
679175.98663631
 20
4801315.6909432458
 30
0.0
  0
VERTEX
  5
2EF
  8
RIVERS_AND_CHANNELS
 10
679148.63671181083
 20
4801334.3265577527
 30
0.0
  0
VERTEX
  5
2F0
  8
RIVERS_AND_CHANNELS
 10
679110.09822369297
 20
4801349.2350373762
 30
0.0
  0
VERTEX
  5
2F1
  8
RIVERS_AND_CHANNELS
 10
679097.66646075901
 20
4801398.9300093967
 30
0.0
  0
VERTEX
  5
2F2
  8
RIVERS_AND_CHANNELS
 10
679095.18006212788
 20
4801432.4741634494
 30
0.0
  0
VERTEX
  5
2F3
  8
RIVERS_AND_CHANNELS
 10
679100.15274427924
 20
4801485.8962104358
 30
0.0
  0
VERTEX
  5
2F4
  8
RIVERS_AND_CHANNELS
 10
679094.12990403944
 20
4801517.5130113307
 30
0.0
  0
VERTEX
  5
2F5
  8
RIVERS_AND_CHANNELS
 10
679058.19465226645
 20
4801559.6704835631
 30
0.0
  0
VERTEX
  5
2F6
  8
RIVERS_AND_CHANNELS
 10
679020.69711335353
 20
4801584.6526715746
 30
0.0
  0
VERTEX
  5
2F7
  8
RIVERS_AND_CHANNELS
 10
678997.26119469956
 20
4801611.1962762997
 30
0.0
  0
VERTEX
  5
2F8
  8
RIVERS_AND_CHANNELS
 10
678964.45074742869
 20
4801628.3715605177
 30
0.0
  0
VERTEX
  5
2F9
  8
RIVERS_AND_CHANNELS
 10
678956.63885128486
 20
4801668.9676160393
 30
0.0
  0
VERTEX
  5
2FA
  8
RIVERS_AND_CHANNELS
 10
678944.13963327685
 20
4801709.5637314804
 30
0.0
  0
VERTEX
  5
2FB
  8
RIVERS_AND_CHANNELS
 10
678944.13963327685
 20
4801745.4755967883
 30
0.0
  0
VERTEX
  5
2FC
  8
RIVERS_AND_CHANNELS
 10
678933.59304397157
 20
4801790.3293261304
 30
0.0
  0
VERTEX
  5
2FD
  8
RIVERS_AND_CHANNELS
 10
678935.55672333494
 20
4801825.6510312883
 30
0.0
  0
VERTEX
  5
2FE
  8
RIVERS_AND_CHANNELS
 10
678933.59304397157
 20
4801845.2742008213
 30
0.0
  0
VERTEX
  5
2FF
  8
RIVERS_AND_CHANNELS
 10
678915.92085058917
 20
4801862.9350234382
 30
0.0
  0
VERTEX
  5
300
  8
RIVERS_AND_CHANNELS
 10
678874.68542573403
 20
4801878.6335590649
 30
0.0
  0
VERTEX
  5
301
  8
RIVERS_AND_CHANNELS
 10
678855.04966809927
 20
4801890.4074607817
 30
0.0
  0
VERTEX
  5
302
  8
RIVERS_AND_CHANNELS
 10
678833.45011599013
 20
4801884.5205398854
 30
0.0
  0
VERTEX
  5
303
  8
RIVERS_AND_CHANNELS
 10
678811.85067899176
 20
4801902.1813625032
 30
0.0
  0
VERTEX
  5
304
  8
RIVERS_AND_CHANNELS
 10
678788.28767774126
 20
4801917.879898129
 30
0.0
  0
VERTEX
  5
305
  8
RIVERS_AND_CHANNELS
 10
678772.57893349999
 20
4801943.3899885602
 30
0.0
  0
VERTEX
  5
306
  8
RIVERS_AND_CHANNELS
 10
678762.76099712704
 20
4801964.9755050046
 30
0.0
  0
VERTEX
  5
307
  8
RIVERS_AND_CHANNELS
 10
678760.79743287456
 20
4801978.7116937181
 30
0.0
  0
VERTEX
  5
308
  8
RIVERS_AND_CHANNELS
 10
678762.76099712704
 20
4801998.3348632492
 30
0.0
  0
VERTEX
  5
309
  8
RIVERS_AND_CHANNELS
 10
678765.61946713366
 20
4802048.5155828577
 30
0.0
  0
VERTEX
  5
30A
  8
RIVERS_AND_CHANNELS
 10
678754.77700465429
 20
4802080.8478412712
 30
0.0
  0
VERTEX
  5
30B
  8
RIVERS_AND_CHANNELS
 10
678731.87644401286
 20
4802132.4019256104
 30
0.0
  0
VERTEX
  5
30C
  8
RIVERS_AND_CHANNELS
 10
678722.234826984
 20
4802205.7925590053
 30
0.0
  0
VERTEX
  5
30D
  8
RIVERS_AND_CHANNELS
 10
678722.43007266731
 20
4802244.2236615364
 30
0.0
  0
VERTEX
  5
30E
  8
RIVERS_AND_CHANNELS
 10
678695.71180470497
 20
4802298.1751679797
 30
0.0
  0
VERTEX
  5
30F
  8
RIVERS_AND_CHANNELS
 10
678697.66742629488
 20
4802339.2217681427
 30
0.0
  0
VERTEX
  5
310
  8
RIVERS_AND_CHANNELS
 10
678693.75618311483
 20
4802349.9720425038
 30
0.0
  0
VERTEX
  5
311
  8
RIVERS_AND_CHANNELS
 10
678682.02256868535
 20
4802377.336442613
 30
0.0
  0
VERTEX
  5
312
  8
RIVERS_AND_CHANNELS
 10
678676.53833303787
 20
4802394.7513501868
 30
0.0
  0
VERTEX
  5
313
  8
RIVERS_AND_CHANNELS
 10
678640.95463040459
 20
4802454.543100114
 30
0.0
  0
VERTEX
  5
314
  8
RIVERS_AND_CHANNELS
 10
678618.46503967431
 20
4802594.2969065029
 30
0.0
  0
VERTEX
  5
315
  8
RIVERS_AND_CHANNELS
 10
678626.4752332943
 20
4802662.4061748879
 30
0.0
  0
VERTEX
  5
316
  8
RIVERS_AND_CHANNELS
 10
678626.5020225615
 20
4802750.6418425282
 30
0.0
  0
VERTEX
  5
317
  8
RIVERS_AND_CHANNELS
 10
678640.2397621671
 20
4802810.8530400964
 30
0.0
  0
VERTEX
  5
318
  8
RIVERS_AND_CHANNELS
 10
678641.68909022107
 20
4802899.1342321727
 30
0.0
  0
VERTEX
  5
319
  8
RIVERS_AND_CHANNELS
 10
678605.00540476223
 20
4802977.6574296234
 30
0.0
  0
VERTEX
  5
31A
  8
RIVERS_AND_CHANNELS
 10
678601.9466744836
 20
4803028.7927726572
 30
0.0
  0
VERTEX
  5
31B
  8
RIVERS_AND_CHANNELS
 10
678604.04328864045
 20
4803184.5527277375
 30
0.0
  0
VERTEX
  5
31C
  8
RIVERS_AND_CHANNELS
 10
678597.35199423996
 20
4803304.3924081987
 30
0.0
  0
VERTEX
  5
31D
  8
RIVERS_AND_CHANNELS
 10
678623.45707191748
 20
4803382.4043179397
 30
0.0
  0
VERTEX
  5
31E
  8
RIVERS_AND_CHANNELS
 10
678627.5547174149
 20
4803522.5978603587
 30
0.0
  0
VERTEX
  5
31F
  8
RIVERS_AND_CHANNELS
 10
678681.49933024822
 20
4803624.3671673751
 30
0.0
  0
VERTEX
  5
320
  8
RIVERS_AND_CHANNELS
 10
678726.69032930559
 20
4803731.5734552387
 30
0.0
  0
VERTEX
  5
321
  8
RIVERS_AND_CHANNELS
 10
678759.96998030879
 20
4803764.0800332334
 30
0.0
  0
VERTEX
  5
322
  8
RIVERS_AND_CHANNELS
 10
678813.61381115438
 20
4803785.8039877452
 30
0.0
  0
VERTEX
  5
323
  8
RIVERS_AND_CHANNELS
 10
678857.31723486935
 20
4803850.0864297403
 30
0.0
  0
VERTEX
  5
324
  8
RIVERS_AND_CHANNELS
 10
678870.05020765029
 20
4803899.0866801217
 30
0.0
  0
VERTEX
  5
325
  8
RIVERS_AND_CHANNELS
 10
678912.53744691075
 20
4803946.6943516787
 30
0.0
  0
VERTEX
  5
326
  8
RIVERS_AND_CHANNELS
 10
678911.80597613205
 20
4803969.5739012258
 30
0.0
  0
VERTEX
  5
327
  8
RIVERS_AND_CHANNELS
 10
678908.75090339396
 20
4804009.9968480589
 30
0.0
  0
VERTEX
  5
328
  8
RIVERS_AND_CHANNELS
 10
678942.56197778857
 20
4804055.1219249573
 30
0.0
  0
VERTEX
  5
329
  8
RIVERS_AND_CHANNELS
 10
678980.11980806815
 20
4804093.31974102
 30
0.0
  0
VERTEX
  5
32A
  8
RIVERS_AND_CHANNELS
 10
678996.15320525435
 20
4804143.1617979072
 30
0.0
  0
VERTEX
  5
32B
  8
RIVERS_AND_CHANNELS
 10
679010.14433894632
 20
4804201.7473142929
 30
0.0
  0
VERTEX
  5
32C
  8
RIVERS_AND_CHANNELS
 10
679029.02422017895
 20
4804272.8215594152
 30
0.0
  0
VERTEX
  5
32D
  8
RIVERS_AND_CHANNELS
 10
679040.86063962639
 20
4804343.6705763433
 30
0.0
  0
VERTEX
  5
32E
  8
RIVERS_AND_CHANNELS
 10
679073.26495234738
 20
4804432.7947980911
 30
0.0
  0
VERTEX
  5
32F
  8
RIVERS_AND_CHANNELS
 10
679067.77383122733
 20
4804494.2810479207
 30
0.0
  0
VERTEX
  5
330
  8
RIVERS_AND_CHANNELS
 10
679091.80731811619
 20
4804514.42884502
 30
0.0
  0
VERTEX
  5
331
  8
RIVERS_AND_CHANNELS
 10
679095.34566006227
 20
4804569.1566796862
 30
0.0
  0
VERTEX
  5
332
  8
RIVERS_AND_CHANNELS
 10
679120.18345271621
 20
4804619.2801723965
 30
0.0
  0
VERTEX
  5
333
  8
RIVERS_AND_CHANNELS
 10
679118.43917557842
 20
4804673.8391190572
 30
0.0
  0
VERTEX
  5
334
  8
RIVERS_AND_CHANNELS
 10
679115.55299055588
 20
4804708.9821691429
 30
0.0
  0
VERTEX
  5
335
  8
RIVERS_AND_CHANNELS
 10
679141.81402523292
 20
4804769.7217559712
 30
0.0
  0
VERTEX
  5
336
  8
RIVERS_AND_CHANNELS
 10
679149.4931650341
 20
4804805.2025848404
 30
0.0
  0
VERTEX
  5
337
  8
RIVERS_AND_CHANNELS
 10
679160.35639100138
 20
4804851.3558029002
 30
0.0
  0
VERTEX
  5
338
  8
RIVERS_AND_CHANNELS
 10
679198.97737672227
 20
4804968.0775237018
 30
0.0
  0
VERTEX
  5
339
  8
RIVERS_AND_CHANNELS
 10
679194.95311963721
 20
4804986.7832398238
 30
0.0
  0
VERTEX
  5
33A
  8
RIVERS_AND_CHANNELS
 10
679218.65493171755
 20
4805049.1808122322
 30
0.0
  0
VERTEX
  5
33B
  8
RIVERS_AND_CHANNELS
 10
679219.99964773795
 20
4805114.2880033869
 30
0.0
  0
VERTEX
  5
33C
  8
RIVERS_AND_CHANNELS
 10
679224.25878529926
 20
4805141.819667913
 30
0.0
  0
VERTEX
  5
33D
  8
RIVERS_AND_CHANNELS
 10
679234.81644744787
 20
4805186.6748121744
 30
0.0
  0
VERTEX
  5
33E
  8
RIVERS_AND_CHANNELS
 10
679247.35898253915
 20
4805223.0323348921
 30
0.0
  0
VERTEX
  5
33F
  8
RIVERS_AND_CHANNELS
 10
679274.70217346796
 20
4805278.6974608786
 30
0.0
  0
VERTEX
  5
340
  8
RIVERS_AND_CHANNELS
 10
679273.44442970282
 20
4805318.0382132744
 30
0.0
  0
VERTEX
  5
341
  8
RIVERS_AND_CHANNELS
 10
679248.11830992042
 20
4805360.0339642316
 30
0.0
  0
VERTEX
  5
342
  8
RIVERS_AND_CHANNELS
 10
679216.38421275595
 20
4805388.1270774622
 30
0.0
  0
VERTEX
  5
343
  8
RIVERS_AND_CHANNELS
 10
679211.77456847462
 20
4805478.7271866603
 30
0.0
  0
VERTEX
  5
344
  8
RIVERS_AND_CHANNELS
 10
679212.00945039256
 20
4805524.9645221997
 30
0.0
  0
VERTEX
  5
345
  8
RIVERS_AND_CHANNELS
 10
679191.21580551541
 20
4805585.9395523285
 30
0.0
  0
VERTEX
  5
346
  8
RIVERS_AND_CHANNELS
 10
679208.34558667871
 20
4805639.5658894973
 30
0.0
  0
VERTEX
  5
347
  8
RIVERS_AND_CHANNELS
 10
679208.14299106249
 20
4805699.4870101083
 30
0.0
  0
VERTEX
  5
348
  8
RIVERS_AND_CHANNELS
 10
679184.36409626144
 20
4805746.6688288357
 30
0.0
  0
VERTEX
  5
349
  8
RIVERS_AND_CHANNELS
 10
679187.58422810375
 20
4805806.6993757766
 30
0.0
  0
VERTEX
  5
34A
  8
RIVERS_AND_CHANNELS
 10
679191.29652199137
 20
4805851.335670149
 30
0.0
  0
VERTEX
  5
34B
  8
RIVERS_AND_CHANNELS
 10
679230.74543617363
 20
4805996.1356343757
 30
0.0
  0
VERTEX
  5
34C
  8
RIVERS_AND_CHANNELS
 10
679218.20533889567
 20
4806026.5647199033
 30
0.0
  0
VERTEX
  5
34D
  8
RIVERS_AND_CHANNELS
 10
679178.08700076421
 20
4806075.3808304891
 30
0.0
  0
VERTEX
  5
34E
  8
RIVERS_AND_CHANNELS
 10
679157.3509748939
 20
4806120.9628874259
 30
0.0
  0
SEQEND
  5
34F
  8
RIVERS_AND_CHANNELS
  0
POLYLINE
  5
79
  8
RIVERS_AND_CHANNELS
 66
     1
 10
0.0
 20
0.0
 30
0.0
  0
VERTEX
  5
350
  8
RIVERS_AND_CHANNELS
 10
677486.21241635038
 20
4804661.2634166935
 30
0.0
  0
VERTEX
  5
351
  8
RIVERS_AND_CHANNELS
 10
677454.43866822706
 20
4804713.7245916566
 30
0.0
  0
VERTEX
  5
352
  8
RIVERS_AND_CHANNELS
 10
677422.34476944932
 20
4804776.2024175264
 30
0.0
  0
VERTEX
  5
353
  8
RIVERS_AND_CHANNELS
 10
677418.25688167824
 20
4804799.4678839892
 30
0.0
  0
VERTEX
  5
354
  8
RIVERS_AND_CHANNELS
 10
677432.39820747962
 20
4804880.1354408367
 30
0.0
  0
VERTEX
  5
355
  8
RIVERS_AND_CHANNELS
 10
677458.19407841854
 20
4805014.6525520086
 30
0.0
  0
VERTEX
  5
356
  8
RIVERS_AND_CHANNELS
 10
677462.8472291237
 20
4805078.3051996492
 30
0.0
  0
VERTEX
  5
357
  8
RIVERS_AND_CHANNELS
 10
677423.53826962004
 20
4805157.2639238229
 30
0.0
  0
VERTEX
  5
358
  8
RIVERS_AND_CHANNELS
 10
677376.37676771334
 20
4805217.0838067429
 30
0.0
  0
VERTEX
  5
359
  8
RIVERS_AND_CHANNELS
 10
677374.85025373497
 20
4805264.831376737
 30
0.0
  0
VERTEX
  5
35A
  8
RIVERS_AND_CHANNELS
 10
677369.53150600335
 20
4805316.1343720481
 30
0.0
  0
VERTEX
  5
35B
  8
RIVERS_AND_CHANNELS
 10
677331.5504632754
 20
4805353.5248550912
 30
0.0
  0
VERTEX
  5
35C
  8
RIVERS_AND_CHANNELS
 10
677303.05004537338
 20
4805382.0268664397
 30
0.0
  0
VERTEX
  5
35D
  8
RIVERS_AND_CHANNELS
 10
677274.6669656334
 20
4805406.8559641987
 30
0.0
  0
VERTEX
  5
35E
  8
RIVERS_AND_CHANNELS
 10
677259.55674591463
 20
4805419.2411198411
 30
0.0
  0
VERTEX
  5
35F
  8
RIVERS_AND_CHANNELS
 10
677250.62190165708
 20
4805468.5901742429
 30
0.0
  0
VERTEX
  5
360
  8
RIVERS_AND_CHANNELS
 10
677220.46025984199
 20
4805491.5240780003
 30
0.0
  0
VERTEX
  5
361
  8
RIVERS_AND_CHANNELS
 10
677181.28760148981
 20
4805508.6549427258
 30
0.0
  0
VERTEX
  5
362
  8
RIVERS_AND_CHANNELS
 10
677100.08961856004
 20
4805517.0889518131
 30
0.0
  0
VERTEX
  5
363
  8
RIVERS_AND_CHANNELS
 10
677094.30117444159
 20
4805583.0835001823
 30
0.0
  0
VERTEX
  5
364
  8
RIVERS_AND_CHANNELS
 10
677092.42238889402
 20
4805641.8497124184
 30
0.0
  0
VERTEX
  5
365
  8
RIVERS_AND_CHANNELS
 10
677085.32499243179
 20
4805691.2575109564
 30
0.0
  0
VERTEX
  5
366
  8
RIVERS_AND_CHANNELS
 10
677067.17691342533
 20
4805773.1885525174
 30
0.0
  0
VERTEX
  5
367
  8
RIVERS_AND_CHANNELS
 10
677043.04860994581
 20
4805819.3177105328
 30
0.0
  0
VERTEX
  5
368
  8
RIVERS_AND_CHANNELS
 10
677007.76019290497
 20
4805860.2382616792
 30
0.0
  0
VERTEX
  5
369
  8
RIVERS_AND_CHANNELS
 10
676966.47082485515
 20
4805886.4116576733
 30
0.0
  0
VERTEX
  5
36A
  8
RIVERS_AND_CHANNELS
 10
676921.48372680286
 20
4805927.0221370757
 30
0.0
  0
VERTEX
  5
36B
  8
RIVERS_AND_CHANNELS
 10
676889.27321803255
 20
4805972.8929028967
 30
0.0
  0
VERTEX
  5
36C
  8
RIVERS_AND_CHANNELS
 10
676876.82172121829
 20
4806008.0745389601
 30
0.0
  0
VERTEX
  5
36D
  8
RIVERS_AND_CHANNELS
 10
676851.12868036469
 20
4806052.5364157837
 30
0.0
  0
VERTEX
  5
36E
  8
RIVERS_AND_CHANNELS
 10
676815.58200342767
 20
4806101.5350341117
 30
0.0
  0
VERTEX
  5
36F
  8
RIVERS_AND_CHANNELS
 10
676814.44566334493
 20
4806137.0784214605
 30
0.0
  0
VERTEX
  5
370
  8
RIVERS_AND_CHANNELS
 10
676780.71881018043
 20
4806218.6600956973
 30
0.0
  0
VERTEX
  5
371
  8
RIVERS_AND_CHANNELS
 10
676746.11256357282
 20
4806304.0315636974
 30
0.0
  0
VERTEX
  5
372
  8
RIVERS_AND_CHANNELS
 10
676710.17655822216
 20
4806359.7759729438
 30
0.0
  0
VERTEX
  5
373
  8
RIVERS_AND_CHANNELS
 10
676678.86248561146
 20
4806413.3924481701
 30
0.0
  0
VERTEX
  5
374
  8
RIVERS_AND_CHANNELS
 10
676679.68347173906
 20
4806458.933318669
 30
0.0
  0
VERTEX
  5
375
  8
RIVERS_AND_CHANNELS
 10
676699.81282977504
 20
4806541.5032673972
 30
0.0
  0
VERTEX
  5
376
  8
RIVERS_AND_CHANNELS
 10
676709.65946369525
 20
4806589.6084371293
 30
0.0
  0
VERTEX
  5
377
  8
RIVERS_AND_CHANNELS
 10
676764.52895367634
 20
4806661.5777134439
 30
0.0
  0
VERTEX
  5
378
  8
RIVERS_AND_CHANNELS
 10
676794.3049690522
 20
4806713.9681177009
 30
0.0
  0
VERTEX
  5
379
  8
RIVERS_AND_CHANNELS
 10
676808.97835880145
 20
4806791.5949083604
 30
0.0
  0
VERTEX
  5
37A
  8
RIVERS_AND_CHANNELS
 10
676811.31393849268
 20
4806897.4042198136
 30
0.0
  0
VERTEX
  5
37B
  8
RIVERS_AND_CHANNELS
 10
676808.57588115067
 20
4806983.0474477448
 30
0.0
  0
VERTEX
  5
37C
  8
RIVERS_AND_CHANNELS
 10
676775.51410944294
 20
4807033.428941302
 30
0.0
  0
VERTEX
  5
37D
  8
RIVERS_AND_CHANNELS
 10
676778.07290038664
 20
4807152.5353695434
 30
0.0
  0
VERTEX
  5
37E
  8
RIVERS_AND_CHANNELS
 10
676766.82373457868
 20
4807252.7059906079
 30
0.0
  0
VERTEX
  5
37F
  8
RIVERS_AND_CHANNELS
 10
676756.47365673934
 20
4807324.7569059227
 30
0.0
  0
VERTEX
  5
380
  8
RIVERS_AND_CHANNELS
 10
676737.95670639898
 20
4807400.5679164408
 30
0.0
  0
VERTEX
  5
381
  8
RIVERS_AND_CHANNELS
 10
676691.69061798474
 20
4807463.4281450687
 30
0.0
  0
VERTEX
  5
382
  8
RIVERS_AND_CHANNELS
 10
676580.60360668611
 20
4807540.3008832876
 30
0.0
  0
VERTEX
  5
383
  8
RIVERS_AND_CHANNELS
 10
676506.46003850712
 20
4807594.2274211328
 30
0.0
  0
VERTEX
  5
384
  8
RIVERS_AND_CHANNELS
 10
676431.54580926395
 20
4807672.2566214995
 30
0.0
  0
VERTEX
  5
385
  8
RIVERS_AND_CHANNELS
 10
676381.38897188928
 20
4807730.971221515
 30
0.0
  0
VERTEX
  5
386
  8
RIVERS_AND_CHANNELS
 10
676351.45654182183
 20
4807786.311256974
 30
0.0
  0
VERTEX
  5
387
  8
RIVERS_AND_CHANNELS
 10
676324.00223266974
 20
4807889.9849856487
 30
0.0
  0
VERTEX
  5
388
  8
RIVERS_AND_CHANNELS
 10
676322.20422715927
 20
4807946.2244929001
 30
0.0
  0
SEQEND
  5
389
  8
RIVERS_AND_CHANNELS
  0
POLYLINE
  5
7A
  8
RIVERS_AND_CHANNELS
 66
     1
 10
0.0
 20
0.0
 30
0.0
  0
VERTEX
  5
38A
  8
RIVERS_AND_CHANNELS
 10
679929.65934534254
 20
4794836.7721884511
 30
0.0
  0
VERTEX
  5
38B
  8
RIVERS_AND_CHANNELS
 10
679938.17264857364
 20
4794900.271901208
 30
0.0
  0
VERTEX
  5
38C
  8
RIVERS_AND_CHANNELS
 10
679945.84455677925
 20
4794990.0894652558
 30
0.0
  0
VERTEX
  5
38D
  8
RIVERS_AND_CHANNELS
 10
679946.73562324466
 20
4795127.110884686
 30
0.0
  0
VERTEX
  5
38E
  8
RIVERS_AND_CHANNELS
 10
679935.74779916566
 20
4795305.9042220674
 30
0.0
  0
VERTEX
  5
38F
  8
RIVERS_AND_CHANNELS
 10
679885.99493848172
 20
4795378.0790365217
 30
0.0
  0
VERTEX
  5
390
  8
RIVERS_AND_CHANNELS
 10
679830.13435352035
 20
4795476.4033802124
 30
0.0
  0
VERTEX
  5
391
  8
RIVERS_AND_CHANNELS
 10
679625.92247847305
 20
4795610.3580926461
 30
0.0
  0
VERTEX
  5
392
  8
RIVERS_AND_CHANNELS
 10
679566.98922191863
 20
4795639.2750213183
 30
0.0
  0
VERTEX
  5
393
  8
RIVERS_AND_CHANNELS
 10
679430.89792556735
 20
4795700.149876616
 30
0.0
  0
VERTEX
  5
394
  8
RIVERS_AND_CHANNELS
 10
679361.98433263006
 20
4795757.736956846
 30
0.0
  0
VERTEX
  5
395
  8
RIVERS_AND_CHANNELS
 10
679288.92808598815
 20
4795831.4979899181
 30
0.0
  0
VERTEX
  5
396
  8
RIVERS_AND_CHANNELS
 10
679207.28010915278
 20
4795890.4897721969
 30
0.0
  0
VERTEX
  5
397
  8
RIVERS_AND_CHANNELS
 10
679107.87010274478
 20
4795938.0427329186
 30
0.0
  0
VERTEX
  5
398
  8
RIVERS_AND_CHANNELS
 10
679040.82530682674
 20
4795993.8777327891
 30
0.0
  0
VERTEX
  5
399
  8
RIVERS_AND_CHANNELS
 10
678977.76657087565
 20
4796095.1358377049
 30
0.0
  0
VERTEX
  5
39A
  8
RIVERS_AND_CHANNELS
 10
678939.82923417352
 20
4796204.4443934653
 30
0.0
  0
VERTEX
  5
39B
  8
RIVERS_AND_CHANNELS
 10
678919.24886737764
 20
4796337.861562903
 30
0.0
  0
VERTEX
  5
39C
  8
RIVERS_AND_CHANNELS
 10
678888.42243442137
 20
4796394.8544821655
 30
0.0
  0
VERTEX
  5
39D
  8
RIVERS_AND_CHANNELS
 10
678846.80062626034
 20
4796496.045209989
 30
0.0
  0
VERTEX
  5
39E
  8
RIVERS_AND_CHANNELS
 10
678831.51918467646
 20
4796526.9832805628
 30
0.0
  0
VERTEX
  5
39F
  8
RIVERS_AND_CHANNELS
 10
678838.53462372755
 20
4796575.7759937989
 30
0.0
  0
VERTEX
  5
3A0
  8
RIVERS_AND_CHANNELS
 10
678850.62247628276
 20
4796644.7296489719
 30
0.0
  0
VERTEX
  5
3A1
  8
RIVERS_AND_CHANNELS
 10
678843.90764544054
 20
4796675.9415984293
 30
0.0
  0
VERTEX
  5
3A2
  8
RIVERS_AND_CHANNELS
 10
678821.63781082374
 20
4796746.6537500098
 30
0.0
  0
VERTEX
  5
3A3
  8
RIVERS_AND_CHANNELS
 10
678802.7708396985
 20
4796800.3329379121
 30
0.0
  0
VERTEX
  5
3A4
  8
RIVERS_AND_CHANNELS
 10
678755.43988950911
 20
4796850.245143787
 30
0.0
  0
VERTEX
  5
3A5
  8
RIVERS_AND_CHANNELS
 10
678735.02183334902
 20
4796952.4431688124
 30
0.0
  0
VERTEX
  5
3A6
  8
RIVERS_AND_CHANNELS
 10
678736.59987774631
 20
4796992.4911231613
 30
0.0
  0
VERTEX
  5
3A7
  8
RIVERS_AND_CHANNELS
 10
678688.08265036088
 20
4797079.5059775701
 30
0.0
  0
VERTEX
  5
3A8
  8
RIVERS_AND_CHANNELS
 10
678691.09717470454
 20
4797158.8122580312
 30
0.0
  0
VERTEX
  5
3A9
  8
RIVERS_AND_CHANNELS
 10
678674.15645059478
 20
4797201.8309431234
 30
0.0
  0
VERTEX
  5
3AA
  8
RIVERS_AND_CHANNELS
 10
678645.07432960719
 20
4797235.127155982
 30
0.0
  0
VERTEX
  5
3AB
  8
RIVERS_AND_CHANNELS
 10
678622.11255050567
 20
4797271.7304594284
 30
0.0
  0
VERTEX
  5
3AC
  8
RIVERS_AND_CHANNELS
 10
678624.62621241598
 20
4797290.4795240434
 30
0.0
  0
VERTEX
  5
3AD
  8
RIVERS_AND_CHANNELS
 10
678638.58574589505
 20
4797340.7089914829
 30
0.0
  0
VERTEX
  5
3AE
  8
RIVERS_AND_CHANNELS
 10
678634.08462164155
 20
4797384.1254220353
 30
0.0
  0
VERTEX
  5
3AF
  8
RIVERS_AND_CHANNELS
 10
678633.19026401965
 20
4797412.0998813268
 30
0.0
  0
VERTEX
  5
3B0
  8
RIVERS_AND_CHANNELS
 10
678631.79904153303
 20
4797455.6156918574
 30
0.0
  0
VERTEX
  5
3B1
  8
RIVERS_AND_CHANNELS
 10
678610.95343158441
 20
4797523.4011679748
 30
0.0
  0
VERTEX
  5
3B2
  8
RIVERS_AND_CHANNELS
 10
678597.02332090528
 20
4797569.6275692172
 30
0.0
  0
VERTEX
  5
3B3
  8
RIVERS_AND_CHANNELS
 10
678599.04011650861
 20
4797603.9180301791
 30
0.0
  0
VERTEX
  5
3B4
  8
RIVERS_AND_CHANNELS
 10
678597.4501483643
 20
4797653.650372183
 30
0.0
  0
VERTEX
  5
3B5
  8
RIVERS_AND_CHANNELS
 10
678589.93849733612
 20
4797693.859089355
 30
0.0
  0
VERTEX
  5
3B6
  8
RIVERS_AND_CHANNELS
 10
678579.21757387568
 20
4797737.0766246226
 30
0.0
  0
VERTEX
  5
3B7
  8
RIVERS_AND_CHANNELS
 10
678506.00060992921
 20
4797787.6305257883
 30
0.0
  0
VERTEX
  5
3B8
  8
RIVERS_AND_CHANNELS
 10
678470.69868973456
 20
4797820.7278433628
 30
0.0
  0
VERTEX
  5
3B9
  8
RIVERS_AND_CHANNELS
 10
678410.31881984347
 20
4797859.2463368233
 30
0.0
  0
VERTEX
  5
3BA
  8
RIVERS_AND_CHANNELS
 10
678356.45686980896
 20
4797888.6388606923
 30
0.0
  0
VERTEX
  5
3BB
  8
RIVERS_AND_CHANNELS
 10
678323.66861152463
 20
4797940.4852428827
 30
0.0
  0
VERTEX
  5
3BC
  8
RIVERS_AND_CHANNELS
 10
678313.74267213605
 20
4797958.8366071507
 30
0.0
  0
VERTEX
  5
3BD
  8
RIVERS_AND_CHANNELS
 10
678274.73461176024
 20
4798010.4841842763
 30
0.0
  0
VERTEX
  5
3BE
  8
RIVERS_AND_CHANNELS
 10
678250.77910292929
 20
4798078.1701901974
 30
0.0
  0
VERTEX
  5
3BF
  8
RIVERS_AND_CHANNELS
 10
678186.79255450459
 20
4798132.1306125764
 30
0.0
  0
VERTEX
  5
3C0
  8
RIVERS_AND_CHANNELS
 10
678117.18235574733
 20
4798167.2425875925
 30
0.0
  0
VERTEX
  5
3C1
  8
RIVERS_AND_CHANNELS
 10
678112.58185938629
 20
4798213.7672613254
 30
0.0
  0
VERTEX
  5
3C2
  8
RIVERS_AND_CHANNELS
 10
678117.41043754888
 20
4798257.4819220277
 30
0.0
  0
VERTEX
  5
3C3
  8
RIVERS_AND_CHANNELS
 10
678097.85667797935
 20
4798284.8598307976
 30
0.0
  0
VERTEX
  5
3C4
  8
RIVERS_AND_CHANNELS
 10
678080.7172934257
 20
4798334.0950952452
 30
0.0
  0
VERTEX
  5
3C5
  8
RIVERS_AND_CHANNELS
 10
678055.34122596402
 20
4798348.8410457829
 30
0.0
  0
VERTEX
  5
3C6
  8
RIVERS_AND_CHANNELS
 10
678044.52092895366
 20
4798395.1668693423
 30
0.0
  0
VERTEX
  5
3C7
  8
RIVERS_AND_CHANNELS
 10
678043.62657133176
 20
4798423.1413286328
 30
0.0
  0
VERTEX
  5
3C8
  8
RIVERS_AND_CHANNELS
 10
678020.26738612889
 20
4798472.1777429059
 30
0.0
  0
VERTEX
  5
3C9
  8
RIVERS_AND_CHANNELS
 10
677950.26187037048
 20
4798599.3432099298
 30
0.0
  0
VERTEX
  5
3CA
  8
RIVERS_AND_CHANNELS
 10
677938.81110808998
 20
4798669.5269701257
 30
0.0
  0
VERTEX
  5
3CB
  8
RIVERS_AND_CHANNELS
 10
677931.20995175641
 20
4798715.2946936293
 30
0.0
  0
VERTEX
  5
3CC
  8
RIVERS_AND_CHANNELS
 10
677910.85553508939
 20
4798775.9916612525
 30
0.0
  0
VERTEX
  5
3CD
  8
RIVERS_AND_CHANNELS
 10
677857.16865769774
 20
4798823.3533953913
 30
0.0
  0
VERTEX
  5
3CE
  8
RIVERS_AND_CHANNELS
 10
677843.04387883795
 20
4798881.1821332276
 30
0.0
  0
VERTEX
  5
3CF
  8
RIVERS_AND_CHANNELS
 10
677843.56265016459
 20
4798960.9507037029
 30
0.0
  0
VERTEX
  5
3D0
  8
RIVERS_AND_CHANNELS
 10
677851.19274916186
 20
4799010.2728177654
 30
0.0
  0
VERTEX
  5
3D1
  8
RIVERS_AND_CHANNELS
 10
677880.08781213907
 20
4799066.4095272562
 30
0.0
  0
VERTEX
  5
3D2
  8
RIVERS_AND_CHANNELS
 10
677899.78541076498
 20
4799122.2521891566
 30
0.0
  0
VERTEX
  5
3D3
  8
RIVERS_AND_CHANNELS
 10
677906.53381989908
 20
4799199.1525298432
 30
0.0
  0
VERTEX
  5
3D4
  8
RIVERS_AND_CHANNELS
 10
677923.55740194581
 20
4799242.6401693858
 30
0.0
  0
VERTEX
  5
3D5
  8
RIVERS_AND_CHANNELS
 10
677858.90959093638
 20
4799344.8643966317
 30
0.0
  0
VERTEX
  5
3D6
  8
RIVERS_AND_CHANNELS
 10
677817.77995373856
 20
4799383.4254538622
 30
0.0
  0
VERTEX
  5
3D7
  8
RIVERS_AND_CHANNELS
 10
677785.74990152696
 20
4799425.3448238913
 30
0.0
  0
VERTEX
  5
3D8
  8
RIVERS_AND_CHANNELS
 10
677739.88905517443
 20
4799515.9001472117
 30
0.0
  0
VERTEX
  5
3D9
  8
RIVERS_AND_CHANNELS
 10
677676.51471001422
 20
4799578.2891404117
 30
0.0
  0
VERTEX
  5
3DA
  8
RIVERS_AND_CHANNELS
 10
677679.50144463114
 20
4799640.1528608827
 30
0.0
  0
VERTEX
  5
3DB
  8
RIVERS_AND_CHANNELS
 10
677671.91134872462
 20
4799688.2933134567
 30
0.0
  0
VERTEX
  5
3DC
  8
RIVERS_AND_CHANNELS
 10
677633.42090591695
 20
4799756.6134212604
 30
0.0
  0
VERTEX
  5
3DD
  8
RIVERS_AND_CHANNELS
 10
677616.7635039856
 20
4799804.4639423173
 30
0.0
  0
VERTEX
  5
3DE
  8
RIVERS_AND_CHANNELS
 10
677587.34028198884
 20
4799873.0739337606
 30
0.0
  0
VERTEX
  5
3DF
  8
RIVERS_AND_CHANNELS
 10
677582.09660434024
 20
4799942.4569574734
 30
0.0
  0
VERTEX
  5
3E0
  8
RIVERS_AND_CHANNELS
 10
677574.21677527158
 20
4799999.6599241458
 30
0.0
  0
VERTEX
  5
3E1
  8
RIVERS_AND_CHANNELS
 10
677575.59732293582
 20
4800051.1110833539
 30
0.0
  0
VERTEX
  5
3E2
  8
RIVERS_AND_CHANNELS
 10
677570.93311449676
 20
4800102.3689886518
 30
0.0
  0
VERTEX
  5
3E3
  8
RIVERS_AND_CHANNELS
 10
677544.43577852496
 20
4800174.0964779276
 30
0.0
  0
VERTEX
  5
3E4
  8
RIVERS_AND_CHANNELS
 10
677543.18026142474
 20
4800213.3675828679
 30
0.0
  0
VERTEX
  5
3E5
  8
RIVERS_AND_CHANNELS
 10
677513.75703942776
 20
4800281.9775743131
 30
0.0
  0
VERTEX
  5
3E6
  8
RIVERS_AND_CHANNELS
 10
677511.63231707131
 20
4800348.4364019847
 30
0.0
  0
VERTEX
  5
3E7
  8
RIVERS_AND_CHANNELS
 10
677512.72321678675
 20
4800408.9501231732
 30
0.0
  0
VERTEX
  5
3E8
  8
RIVERS_AND_CHANNELS
 10
677517.41596376325
 20
4800451.4353528991
 30
0.0
  0
VERTEX
  5
3E9
  8
RIVERS_AND_CHANNELS
 10
677479.60156884685
 20
4800498.6094741821
 30
0.0
  0
VERTEX
  5
3EA
  8
RIVERS_AND_CHANNELS
 10
677411.56287347851
 20
4800544.8173092809
 30
0.0
  0
VERTEX
  5
3EB
  8
RIVERS_AND_CHANNELS
 10
677355.13097165921
 20
4800606.5159531673
 30
0.0
  0
VERTEX
  5
3EC
  8
RIVERS_AND_CHANNELS
 10
677313.81122150854
 20
4800668.6976950346
 30
0.0
  0
VERTEX
  5
3ED
  8
RIVERS_AND_CHANNELS
 10
677311.8796565166
 20
4800729.1147864964
 30
0.0
  0
VERTEX
  5
3EE
  8
RIVERS_AND_CHANNELS
 10
677295.54052772711
 20
4800861.6458833683
 30
0.0
  0
VERTEX
  5
3EF
  8
RIVERS_AND_CHANNELS
 10
677296.72791802709
 20
4800919.138778789
 30
0.0
  0
VERTEX
  5
3F0
  8
RIVERS_AND_CHANNELS
 10
677261.83941057813
 20
4800969.430352794
 30
0.0
  0
VERTEX
  5
3F1
  8
RIVERS_AND_CHANNELS
 10
677286.24047607474
 20
4801057.9048234429
 30
0.0
  0
VERTEX
  5
3F2
  8
RIVERS_AND_CHANNELS
 10
677247.94318918919
 20
4801120.1832401482
 30
0.0
  0
VERTEX
  5
3F3
  8
RIVERS_AND_CHANNELS
 10
677201.44780009286
 20
4801154.9840477081
 30
0.0
  0
VERTEX
  5
3F4
  8
RIVERS_AND_CHANNELS
 10
677199.03334457416
 20
4801230.5053894809
 30
0.0
  0
VERTEX
  5
3F5
  8
RIVERS_AND_CHANNELS
 10
677175.7516292322
 20
4801296.2878173804
 30
0.0
  0
VERTEX
  5
3F6
  8
RIVERS_AND_CHANNELS
 10
677134.52845632145
 20
4801355.4487362485
 30
0.0
  0
VERTEX
  5
3F7
  8
RIVERS_AND_CHANNELS
 10
677114.75201100041
 20
4801406.2234956846
 30
0.0
  0
VERTEX
  5
3F8
  8
RIVERS_AND_CHANNELS
 10
677078.60789835325
 20
4801495.7862169677
 30
0.0
  0
VERTEX
  5
3F9
  8
RIVERS_AND_CHANNELS
 10
677050.0539668256
 20
4801537.2085335581
 30
0.0
  0
VERTEX
  5
3FA
  8
RIVERS_AND_CHANNELS
 10
677006.09815046738
 20
4801587.2102662632
 30
0.0
  0
VERTEX
  5
3FB
  8
RIVERS_AND_CHANNELS
 10
676965.2612908436
 20
4801634.2877578204
 30
0.0
  0
VERTEX
  5
3FC
  8
RIVERS_AND_CHANNELS
 10
676930.66242990119
 20
4801675.5168149527
 30
0.0
  0
VERTEX
  5
3FD
  8
RIVERS_AND_CHANNELS
 10
676914.41181625309
 20
4801683.9232927049
 30
0.0
  0
VERTEX
  5
3FE
  8
RIVERS_AND_CHANNELS
 10
676912.99391994253
 20
4801728.273429215
 30
0.0
  0
VERTEX
  5
3FF
  8
RIVERS_AND_CHANNELS
 10
676889.88982159458
 20
4801756.2612530738
 30
0.0
  0
VERTEX
  5
400
  8
RIVERS_AND_CHANNELS
 10
676863.28747268766
 20
4801771.0797563111
 30
0.0
  0
VERTEX
  5
401
  8
RIVERS_AND_CHANNELS
 10
676812.81804166886
 20
4801796.8869170472
 30
0.0
  0
VERTEX
  5
402
  8
RIVERS_AND_CHANNELS
 10
676778.80216365657
 20
4801798.4109262284
 30
0.0
  0
VERTEX
  5
403
  8
RIVERS_AND_CHANNELS
 10
676752.70024891116
 20
4801797.5764348032
 30
0.0
  0
VERTEX
  5
404
  8
RIVERS_AND_CHANNELS
 10
676744.11904201854
 20
4801820.8055348163
 30
0.0
  0
VERTEX
  5
405
  8
RIVERS_AND_CHANNELS
 10
676735.57953604974
 20
4801842.73027875
 30
0.0
  0
VERTEX
  5
406
  8
RIVERS_AND_CHANNELS
 10
676699.21596705657
 20
4801876.8229079349
 30
0.0
  0
VERTEX
  5
407
  8
RIVERS_AND_CHANNELS
 10
676657.5068892428
 20
4801914.6618869463
 30
0.0
  0
VERTEX
  5
408
  8
RIVERS_AND_CHANNELS
 10
676634.02755192935
 20
4801954.389459569
 30
0.0
  0
VERTEX
  5
409
  8
RIVERS_AND_CHANNELS
 10
676605.45283622027
 20
4801990.0368819209
 30
0.0
  0
VERTEX
  5
40A
  8
RIVERS_AND_CHANNELS
 10
676587.06870543328
 20
4802033.8445541728
 30
0.0
  0
VERTEX
  5
40B
  8
RIVERS_AND_CHANNELS
 10
676555.75872437144
 20
4802073.3217771538
 30
0.0
  0
VERTEX
  5
40C
  8
RIVERS_AND_CHANNELS
 10
676528.61423893715
 20
4802105.0976762408
 30
0.0
  0
VERTEX
  5
40D
  8
RIVERS_AND_CHANNELS
 10
676496.97063606256
 20
4802155.0101989256
 30
0.0
  0
VERTEX
  5
40E
  8
RIVERS_AND_CHANNELS
 10
676494.08080855384
 20
4802204.5362147763
 30
0.0
  0
VERTEX
  5
40F
  8
RIVERS_AND_CHANNELS
 10
676492.6629122434
 20
4802248.8863512864
 30
0.0
  0
VERTEX
  5
410
  8
RIVERS_AND_CHANNELS
 10
676499.4323688111
 20
4802282.8232067609
 30
0.0
  0
VERTEX
  5
411
  8
RIVERS_AND_CHANNELS
 10
676478.26119303436
 20
4802300.6770176366
 30
0.0
  0
VERTEX
  5
412
  8
RIVERS_AND_CHANNELS
 10
676473.15892448067
 20
4802331.3983055586
 30
0.0
  0
VERTEX
  5
413
  8
RIVERS_AND_CHANNELS
 10
676482.52797415294
 20
4802360.5232911911
 30
0.0
  0
VERTEX
  5
414
  8
RIVERS_AND_CHANNELS
 10
676515.93458262645
 20
4802411.0063463291
 30
0.0
  0
VERTEX
  5
415
  8
RIVERS_AND_CHANNELS
 10
676533.53540535492
 20
4802440.3945059134
 30
0.0
  0
VERTEX
  5
416
  8
RIVERS_AND_CHANNELS
 10
676528.10434183141
 20
4802481.4001155403
 30
0.0
  0
VERTEX
  5
417
  8
RIVERS_AND_CHANNELS
 10
676524.13943654962
 20
4802540.9832179146
 30
0.0
  0
VERTEX
  5
418
  8
RIVERS_AND_CHANNELS
 10
676522.62698487949
 20
4802588.2909353683
 30
0.0
  0
VERTEX
  5
419
  8
RIVERS_AND_CHANNELS
 10
676526.17041879485
 20
4802670.7626625439
 30
0.0
  0
VERTEX
  5
41A
  8
RIVERS_AND_CHANNELS
 10
676465.65496665391
 20
4802759.4222253449
 30
0.0
  0
VERTEX
  5
41B
  8
RIVERS_AND_CHANNELS
 10
676441.63678647426
 20
4802801.8925079489
 30
0.0
  0
VERTEX
  5
41C
  8
RIVERS_AND_CHANNELS
 10
676417.55284614698
 20
4802846.4196909834
 30
0.0
  0
VERTEX
  5
41D
  8
RIVERS_AND_CHANNELS
 10
676355.68337743764
 20
4802848.559608072
 30
0.0
  0
VERTEX
  5
41E
  8
RIVERS_AND_CHANNELS
 10
676353.03356249596
 20
4802867.0055110734
 30
0.0
  0
VERTEX
  5
41F
  8
RIVERS_AND_CHANNELS
 10
676359.1610540899
 20
4802933.08814546
 30
0.0
  0
VERTEX
  5
420
  8
RIVERS_AND_CHANNELS
 10
676360.90962289146
 20
4803007.266659257
 30
0.0
  0
VERTEX
  5
421
  8
RIVERS_AND_CHANNELS
 10
676314.12267937977
 20
4803053.1269282913
 30
0.0
  0
VERTEX
  5
422
  8
RIVERS_AND_CHANNELS
 10
676287.19164655183
 20
4803122.270625391
 30
0.0
  0
VERTEX
  5
423
  8
RIVERS_AND_CHANNELS
 10
676244.52058956842
 20
4803168.2624814007
 30
0.0
  0
VERTEX
  5
424
  8
RIVERS_AND_CHANNELS
 10
676197.73364461469
 20
4803214.1227955436
 30
0.0
  0
VERTEX
  5
425
  8
RIVERS_AND_CHANNELS
 10
676149.28335340042
 20
4803247.5761405593
 30
0.0
  0
VERTEX
  5
426
  8
RIVERS_AND_CHANNELS
 10
676100.57002736395
 20
4803289.2569068521
 30
0.0
  0
VERTEX
  5
427
  8
RIVERS_AND_CHANNELS
 10
676061.68597528327
 20
4803345.6646687724
 30
0.0
  0
VERTEX
  5
428
  8
RIVERS_AND_CHANNELS
 10
676022.34169891872
 20
4803416.4704206996
 30
0.0
  0
VERTEX
  5
429
  8
RIVERS_AND_CHANNELS
 10
675970.29084617319
 20
4803548.8865652373
 30
0.0
  0
VERTEX
  5
42A
  8
RIVERS_AND_CHANNELS
 10
675954.14612774632
 20
4803600.5213090526
 30
0.0
  0
VERTEX
  5
42B
  8
RIVERS_AND_CHANNELS
 10
675919.79362284567
 20
4803677.6494351914
 30
0.0
  0
VERTEX
  5
42C
  8
RIVERS_AND_CHANNELS
 10
675872.90526157711
 20
4803693.5340384804
 30
0.0
  0
VERTEX
  5
42D
  8
RIVERS_AND_CHANNELS
 10
675838.27524577908
 20
4803779.3450938407
 30
0.0
  0
SEQEND
  5
42E
  8
RIVERS_AND_CHANNELS
  0
POLYLINE
  5
7B
  8
RIVERS_AND_CHANNELS
 66
     1
 10
0.0
 20
0.0
 30
0.0
  0
VERTEX
  5
42F
  8
RIVERS_AND_CHANNELS
 10
678591.79140246636
 20
4797152.2502683233
 30
0.0
  0
VERTEX
  5
430
  8
RIVERS_AND_CHANNELS
 10
678571.92433006363
 20
4797214.1867309604
 30
0.0
  0
VERTEX
  5
431
  8
RIVERS_AND_CHANNELS
 10
678564.92135292105
 20
4797246.7384607317
 30
0.0
  0
VERTEX
  5
432
  8
RIVERS_AND_CHANNELS
 10
678503.93172159174
 20
4797289.4826206798
 30
0.0
  0
VERTEX
  5
433
  8
RIVERS_AND_CHANNELS
 10
678438.12775532575
 20
4797296.3176314086
 30
0.0
  0
VERTEX
  5
434
  8
RIVERS_AND_CHANNELS
 10
678389.90697154205
 20
4797312.6535822144
 30
0.0
  0
VERTEX
  5
435
  8
RIVERS_AND_CHANNELS
 10
678374.15994035965
 20
4797338.9665773157
 30
0.0
  0
VERTEX
  5
436
  8
RIVERS_AND_CHANNELS
 10
678372.2566989999
 20
4797398.4977387264
 30
0.0
  0
VERTEX
  5
437
  8
RIVERS_AND_CHANNELS
 10
678371.33323597419
 20
4797520.6318922983
 30
0.0
  0
VERTEX
  5
438
  8
RIVERS_AND_CHANNELS
 10
678318.13595134893
 20
4797599.3803648483
 30
0.0
  0
VERTEX
  5
439
  8
RIVERS_AND_CHANNELS
 10
678271.65615636448
 20
4797654.506822437
 30
0.0
  0
VERTEX
  5
43A
  8
RIVERS_AND_CHANNELS
 10
678245.54740249785
 20
4797725.1825773465
 30
0.0
  0
VERTEX
  5
43B
  8
RIVERS_AND_CHANNELS
 10
678180.62796685193
 20
4797797.5971039599
 30
0.0
  0
VERTEX
  5
43C
  8
RIVERS_AND_CHANNELS
 10
678116.56507748296
 20
4797843.2225791328
 30
0.0
  0
VERTEX
  5
43D
  8
RIVERS_AND_CHANNELS
 10
678069.70463393815
 20
4797910.2552780239
 30
0.0
  0
VERTEX
  5
43E
  8
RIVERS_AND_CHANNELS
 10
678029.65693063289
 20
4797950.6893480122
 30
0.0
  0
VERTEX
  5
43F
  8
RIVERS_AND_CHANNELS
 10
677962.92941468535
 20
4798079.6585095404
 30
0.0
  0
VERTEX
  5
440
  8
RIVERS_AND_CHANNELS
 10
677916.52710452105
 20
4798137.5572251109
 30
0.0
  0
VERTEX
  5
441
  8
RIVERS_AND_CHANNELS
 10
677892.76132917218
 20
4798159.8388001658
 30
0.0
  0
VERTEX
  5
442
  8
RIVERS_AND_CHANNELS
 10
677891.18441672274
 20
4798209.1627753293
 30
0.0
  0
VERTEX
  5
443
  8
RIVERS_AND_CHANNELS
 10
677857.57974554028
 20
4798333.170252773
 30
0.0
  0
VERTEX
  5
444
  8
RIVERS_AND_CHANNELS
 10
677825.55198680738
 20
4798407.8537550541
 30
0.0
  0
VERTEX
  5
445
  8
RIVERS_AND_CHANNELS
 10
677783.44406143308
 20
4798488.7982081743
 30
0.0
  0
VERTEX
  5
446
  8
RIVERS_AND_CHANNELS
 10
677748.44162820943
 20
4798553.5117125716
 30
0.0
  0
VERTEX
  5
447
  8
RIVERS_AND_CHANNELS
 10
677723.94004569377
 20
4798598.8111875746
 30
0.0
  0
VERTEX
  5
448
  8
RIVERS_AND_CHANNELS
 10
677706.43882908206
 20
4798631.1679397766
 30
0.0
  0
VERTEX
  5
449
  8
RIVERS_AND_CHANNELS
 10
677661.98699390842
 20
4798682.4128139718
 30
0.0
  0
VERTEX
  5
44A
  8
RIVERS_AND_CHANNELS
 10
677607.77037371846
 20
4798730.0538710356
 30
0.0
  0
VERTEX
  5
44B
  8
RIVERS_AND_CHANNELS
 10
677580.29411671194
 20
4798765.3833481567
 30
0.0
  0
VERTEX
  5
44C
  8
RIVERS_AND_CHANNELS
 10
677550.68429193972
 20
4798764.4367070729
 30
0.0
  0
VERTEX
  5
44D
  8
RIVERS_AND_CHANNELS
 10
677552.39743704791
 20
4798813.8658670411
 30
0.0
  0
VERTEX
  5
44E
  8
RIVERS_AND_CHANNELS
 10
677527.79064018768
 20
4798862.4536102973
 30
0.0
  0
VERTEX
  5
44F
  8
RIVERS_AND_CHANNELS
 10
677465.52229199116
 20
4798955.9200525368
 30
0.0
  0
VERTEX
  5
450
  8
RIVERS_AND_CHANNELS
 10
677387.32964107476
 20
4799032.419226707
 30
0.0
  0
VERTEX
  5
451
  8
RIVERS_AND_CHANNELS
 10
677293.52806906216
 20
4799082.0863648383
 30
0.0
  0
VERTEX
  5
452
  8
RIVERS_AND_CHANNELS
 10
677231.99561324599
 20
4799152.5349550117
 30
0.0
  0
VERTEX
  5
453
  8
RIVERS_AND_CHANNELS
 10
677189.36204942723
 20
4799249.920763257
 30
0.0
  0
VERTEX
  5
454
  8
RIVERS_AND_CHANNELS
 10
677157.54454607225
 20
4799318.0277234884
 30
0.0
  0
VERTEX
  5
455
  8
RIVERS_AND_CHANNELS
 10
677139.20643031644
 20
4799375.1019673124
 30
0.0
  0
VERTEX
  5
456
  8
RIVERS_AND_CHANNELS
 10
677125.32446214382
 20
4799420.2430825736
 30
0.0
  0
VERTEX
  5
457
  8
RIVERS_AND_CHANNELS
 10
677117.1858257975
 20
4799458.6609734558
 30
0.0
  0
VERTEX
  5
458
  8
RIVERS_AND_CHANNELS
 10
677098.53128970135
 20
4799480.1663813181
 30
0.0
  0
VERTEX
  5
459
  8
RIVERS_AND_CHANNELS
 10
677050.03134614252
 20
4799484.141241705
 30
0.0
  0
VERTEX
  5
45A
  8
RIVERS_AND_CHANNELS
 10
676994.4515031901
 20
4799493.4152274076
 30
0.0
  0
VERTEX
  5
45B
  8
RIVERS_AND_CHANNELS
 10
676948.27175260137
 20
4799511.2779035876
 30
0.0
  0
VERTEX
  5
45C
  8
RIVERS_AND_CHANNELS
 10
676929.44065948867
 20
4799538.3030949598
 30
0.0
  0
VERTEX
  5
45D
  8
RIVERS_AND_CHANNELS
 10
676907.49534127302
 20
4799576.2795792371
 30
0.0
  0
VERTEX
  5
45E
  8
RIVERS_AND_CHANNELS
 10
676882.25923805393
 20
4799630.7272301447
 30
0.0
  0
VERTEX
  5
45F
  8
RIVERS_AND_CHANNELS
 10
676857.68490121223
 20
4799664.4756035572
 30
0.0
  0
VERTEX
  5
460
  8
RIVERS_AND_CHANNELS
 10
676839.03027846059
 20
4799685.9810086489
 30
0.0
  0
VERTEX
  5
461
  8
RIVERS_AND_CHANNELS
 10
676823.50300516316
 20
4799739.3576874407
 30
0.0
  0
VERTEX
  5
462
  8
RIVERS_AND_CHANNELS
 10
676798.35513784585
 20
4799791.0454226537
 30
0.0
  0
VERTEX
  5
463
  8
RIVERS_AND_CHANNELS
 10
676766.43628344615
 20
4799838.37258102
 30
0.0
  0
VERTEX
  5
464
  8
RIVERS_AND_CHANNELS
 10
676724.67624527251
 20
4799890.910585044
 30
0.0
  0
VERTEX
  5
465
  8
RIVERS_AND_CHANNELS
 10
676698.58886906086
 20
4799928.754690784
 30
0.0
  0
VERTEX
  5
466
  8
RIVERS_AND_CHANNELS
 10
676696.14935849188
 20
4799961.829357475
 30
0.0
  0
VERTEX
  5
467
  8
RIVERS_AND_CHANNELS
 10
676638.30656198761
 20
4799998.6582263559
 30
0.0
  0
VERTEX
  5
468
  8
RIVERS_AND_CHANNELS
 10
676631.28390489705
 20
4800045.3999604313
 30
0.0
  0
VERTEX
  5
469
  8
RIVERS_AND_CHANNELS
 10
676629.16625335359
 20
4800111.6376213478
 30
0.0
  0
VERTEX
  5
46A
  8
RIVERS_AND_CHANNELS
 10
676613.94771761354
 20
4800155.3546375483
 30
0.0
  0
VERTEX
  5
46B
  8
RIVERS_AND_CHANNELS
 10
676584.79023425002
 20
4800202.7700783433
 30
0.0
  0
VERTEX
  5
46C
  8
RIVERS_AND_CHANNELS
 10
676511.31412555929
 20
4800463.1307407664
 30
0.0
  0
VERTEX
  5
46D
  8
RIVERS_AND_CHANNELS
 10
676470.35323928006
 20
4800534.3177056285
 30
0.0
  0
VERTEX
  5
46E
  8
RIVERS_AND_CHANNELS
 10
676448.71519110817
 20
4800606.122431404
 30
0.0
  0
VERTEX
  5
46F
  8
RIVERS_AND_CHANNELS
 10
676407.44558733399
 20
4800686.9657180663
 30
0.0
  0
VERTEX
  5
470
  8
RIVERS_AND_CHANNELS
 10
676366.94777801866
 20
4800743.6681776727
 30
0.0
  0
VERTEX
  5
471
  8
RIVERS_AND_CHANNELS
 10
676282.5108526214
 20
4800813.4651915627
 30
0.0
  0
VERTEX
  5
472
  8
RIVERS_AND_CHANNELS
 10
676202.59574594488
 20
4800893.0729619348
 30
0.0
  0
VERTEX
  5
473
  8
RIVERS_AND_CHANNELS
 10
676157.57603125367
 20
4800939.9646622892
 30
0.0
  0
VERTEX
  5
474
  8
RIVERS_AND_CHANNELS
 10
676108.80611898936
 20
4800952.9047735669
 30
0.0
  0
VERTEX
  5
475
  8
RIVERS_AND_CHANNELS
 10
675992.40662141575
 20
4800963.6826876206
 30
0.0
  0
VERTEX
  5
476
  8
RIVERS_AND_CHANNELS
 10
675943.01927271904
 20
4800995.9354876047
 30
0.0
  0
VERTEX
  5
477
  8
RIVERS_AND_CHANNELS
 10
675888.49258509895
 20
4801037.6901268167
 30
0.0
  0
VERTEX
  5
478
  8
RIVERS_AND_CHANNELS
 10
675832.57658137358
 20
4801122.8982339082
 30
0.0
  0
VERTEX
  5
479
  8
RIVERS_AND_CHANNELS
 10
675812.32767599495
 20
4801151.2494862676
 30
0.0
  0
VERTEX
  5
47A
  8
RIVERS_AND_CHANNELS
 10
675796.60076264769
 20
4801189.4115006542
 30
0.0
  0
VERTEX
  5
47B
  8
RIVERS_AND_CHANNELS
 10
675695.35632673616
 20
4801331.1676298957
 30
0.0
  0
VERTEX
  5
47C
  8
RIVERS_AND_CHANNELS
 10
675648.79302312725
 20
4801426.3409843491
 30
0.0
  0
VERTEX
  5
47D
  8
RIVERS_AND_CHANNELS
 10
675585.8853711813
 20
4801578.9889967861
 30
0.0
  0
VERTEX
  5
47E
  8
RIVERS_AND_CHANNELS
 10
675470.76632833551
 20
4801700.9691645158
 30
0.0
  0
VERTEX
  5
47F
  8
RIVERS_AND_CHANNELS
 10
675420.14410965855
 20
4801771.8472516909
 30
0.0
  0
VERTEX
  5
480
  8
RIVERS_AND_CHANNELS
 10
675332.11125950166
 20
4801802.8644902799
 30
0.0
  0
VERTEX
  5
481
  8
RIVERS_AND_CHANNELS
 10
675191.09530919965
 20
4801827.3547590887
 30
0.0
  0
VERTEX
  5
482
  8
RIVERS_AND_CHANNELS
 10
675159.9502014427
 20
4801894.0224209568
 30
0.0
  0
VERTEX
  5
483
  8
RIVERS_AND_CHANNELS
 10
675171.66378302721
 20
4801981.3927252712
 30
0.0
  0
VERTEX
  5
484
  8
RIVERS_AND_CHANNELS
 10
675139.80455233215
 20
4802018.7992557418
 30
0.0
  0
VERTEX
  5
485
  8
RIVERS_AND_CHANNELS
 10
675101.60263985198
 20
4802095.0279268557
 30
0.0
  0
VERTEX
  5
486
  8
RIVERS_AND_CHANNELS
 10
675076.07136097352
 20
4802147.8308684342
 30
0.0
  0
VERTEX
  5
487
  8
RIVERS_AND_CHANNELS
 10
675068.68957183685
 20
4802192.2775192773
 30
0.0
  0
VERTEX
  5
488
  8
RIVERS_AND_CHANNELS
 10
675016.07659056818
 20
4802253.1512293844
 30
0.0
  0
VERTEX
  5
489
  8
RIVERS_AND_CHANNELS
 10
674946.07522487408
 20
4802298.5747470399
 30
0.0
  0
VERTEX
  5
48A
  8
RIVERS_AND_CHANNELS
 10
674900.27329293441
 20
4802332.8565925211
 30
0.0
  0
VERTEX
  5
48B
  8
RIVERS_AND_CHANNELS
 10
674883.48368932621
 20
4802391.8967026174
 30
0.0
  0
VERTEX
  5
48C
  8
RIVERS_AND_CHANNELS
 10
674866.78931035777
 20
4802447.9610107262
 30
0.0
  0
VERTEX
  5
48D
  8
RIVERS_AND_CHANNELS
 10
674807.36545451416
 20
4802535.4265458891
 30
0.0
  0
VERTEX
  5
48E
  8
RIVERS_AND_CHANNELS
 10
674776.7356085811
 20
4802561.2569115311
 30
0.0
  0
VERTEX
  5
48F
  8
RIVERS_AND_CHANNELS
 10
674664.48045593232
 20
4802623.2026324496
 30
0.0
  0
VERTEX
  5
490
  8
RIVERS_AND_CHANNELS
 10
674562.39166608686
 20
4802704.7022210248
 30
0.0
  0
VERTEX
  5
491
  8
RIVERS_AND_CHANNELS
 10
674501.86312716256
 20
4802761.4507728592
 30
0.0
  0
VERTEX
  5
492
  8
RIVERS_AND_CHANNELS
 10
674416.1969782972
 20
4802817.3956625806
 30
0.0
  0
VERTEX
  5
493
  8
RIVERS_AND_CHANNELS
 10
674377.01804037637
 20
4802862.2516783569
 30
0.0
  0
VERTEX
  5
494
  8
RIVERS_AND_CHANNELS
 10
674323.93156024627
 20
4802948.579996503
 30
0.0
  0
VERTEX
  5
495
  8
RIVERS_AND_CHANNELS
 10
674272.451563649
 20
4802984.6593906246
 30
0.0
  0
VERTEX
  5
496
  8
RIVERS_AND_CHANNELS
 10
674235.98955994984
 20
4803075.7108544121
 30
0.0
  0
VERTEX
  5
497
  8
RIVERS_AND_CHANNELS
 10
674171.00364274741
 20
4803140.7002973426
 30
0.0
  0
VERTEX
  5
498
  8
RIVERS_AND_CHANNELS
 10
674114.79852157785
 20
4803193.3953731619
 30
0.0
  0
VERTEX
  5
499
  8
RIVERS_AND_CHANNELS
 10
674066.57104133035
 20
4803258.92054665
 30
0.0
  0
VERTEX
  5
49A
  8
RIVERS_AND_CHANNELS
 10
673932.3701166393
 20
4803258.8217730364
 30
0.0
  0
VERTEX
  5
49B
  8
RIVERS_AND_CHANNELS
 10
673856.82349960343
 20
4803260.5982073229
 30
0.0
  0
VERTEX
  5
49C
  8
RIVERS_AND_CHANNELS
 10
673750.20937133895
 20
4803315.8733795388
 30
0.0
  0
VERTEX
  5
49D
  8
RIVERS_AND_CHANNELS
 10
673614.26817590278
 20
4803370.2109505776
 30
0.0
  0
VERTEX
  5
49E
  8
RIVERS_AND_CHANNELS
 10
673566.70997689792
 20
4803414.7990771364
 30
0.0
  0
VERTEX
  5
49F
  8
RIVERS_AND_CHANNELS
 10
673514.15899223986
 20
4803484.3777238689
 30
0.0
  0
VERTEX
  5
4A0
  8
RIVERS_AND_CHANNELS
 10
673454.16594734637
 20
4803524.3766493928
 30
0.0
  0
VERTEX
  5
4A1
  8
RIVERS_AND_CHANNELS
 10
673412.26998854824
 20
4803523.0372143881
 30
0.0
  0
VERTEX
  5
4A2
  8
RIVERS_AND_CHANNELS
 10
673353.61559423734
 20
4803521.1620037174
 30
0.0
  0
VERTEX
  5
4A3
  8
RIVERS_AND_CHANNELS
 10
673290.77174269571
 20
4803519.152853976
 30
0.0
  0
VERTEX
  5
4A4
  8
RIVERS_AND_CHANNELS
 10
673233.05446401949
 20
4803487.9657634357
 30
0.0
  0
VERTEX
  5
4A5
  8
RIVERS_AND_CHANNELS
 10
673195.34813576343
 20
4803486.7602730393
 30
0.0
  0
VERTEX
  5
4A6
  8
RIVERS_AND_CHANNELS
 10
673132.50419756619
 20
4803484.7511205291
 30
0.0
  0
VERTEX
  5
4A7
  8
RIVERS_AND_CHANNELS
 10
673086.41869488172
 20
4803483.2777436841
 30
0.0
  0
VERTEX
  5
4A8
  8
RIVERS_AND_CHANNELS
 10
672998.30327287514
 20
4803484.6523469146
 30
0.0
  0
VERTEX
  5
4A9
  8
RIVERS_AND_CHANNELS
 10
672959.92757672083
 20
4803504.383900675
 30
0.0
  0
VERTEX
  5
4AA
  8
RIVERS_AND_CHANNELS
 10
672910.35598164983
 20
4803548.393302341
 30
0.0
  0
VERTEX
  5
4AB
  8
RIVERS_AND_CHANNELS
 10
672834.1670279298
 20
4803623.3977551367
 30
0.0
  0
VERTEX
  5
4AC
  8
RIVERS_AND_CHANNELS
 10
672820.40084534825
 20
4803707.7731705327
 30
0.0
  0
VERTEX
  5
4AD
  8
RIVERS_AND_CHANNELS
 10
672762.52292745863
 20
4803787.050673916
 30
0.0
  0
VERTEX
  5
4AE
  8
RIVERS_AND_CHANNELS
 10
672731.74114878522
 20
4803826.6304871524
 30
0.0
  0
VERTEX
  5
4AF
  8
RIVERS_AND_CHANNELS
 10
672659.47347169404
 20
4803894.3850752832
 30
0.0
  0
VERTEX
  5
4B0
  8
RIVERS_AND_CHANNELS
 10
672609.08495748439
 20
4803970.2143811872
 30
0.0
  0
VERTEX
  5
4B1
  8
RIVERS_AND_CHANNELS
 10
672566.18576029933
 20
4804042.5954868356
 30
0.0
  0
VERTEX
  5
4B2
  8
RIVERS_AND_CHANNELS
 10
672466.93980878976
 20
4804146.3638054961
 30
0.0
  0
VERTEX
  5
4B3
  8
RIVERS_AND_CHANNELS
 10
672435.45137856936
 20
4804208.0468517728
 30
0.0
  0
VERTEX
  5
4B4
  8
RIVERS_AND_CHANNELS
 10
672407.68855668593
 20
4804291.8637976162
 30
0.0
  0
VERTEX
  5
4B5
  8
RIVERS_AND_CHANNELS
 10
672375.26123111695
 20
4804356.8481046492
 30
0.0
  0
VERTEX
  5
4B6
  8
RIVERS_AND_CHANNELS
 10
672331.43236889783
 20
4804387.5652224496
 30
0.0
  0
VERTEX
  5
4B7
  8
RIVERS_AND_CHANNELS
 10
672321.71722440759
 20
4804412.235572285
 30
0.0
  0
VERTEX
  5
4B8
  8
RIVERS_AND_CHANNELS
 10
672325.58591022959
 20
4804458.7524064211
 30
0.0
  0
VERTEX
  5
4B9
  8
RIVERS_AND_CHANNELS
 10
672344.46313534409
 20
4804482.5524960076
 30
0.0
  0
VERTEX
  5
4BA
  8
RIVERS_AND_CHANNELS
 10
672362.37155812106
 20
4804536.6555884276
 30
0.0
  0
VERTEX
  5
4BB
  8
RIVERS_AND_CHANNELS
 10
672343.16922390426
 20
4804578.8661299804
 30
0.0
  0
VERTEX
  5
4BC
  8
RIVERS_AND_CHANNELS
 10
672279.03842614847
 20
4804630.3464321559
 30
0.0
  0
VERTEX
  5
4BD
  8
RIVERS_AND_CHANNELS
 10
672203.52308737638
 20
4804702.8749671634
 30
0.0
  0
VERTEX
  5
4BE
  8
RIVERS_AND_CHANNELS
 10
672128.06246495969
 20
4804752.2410070002
 30
0.0
  0
VERTEX
  5
4BF
  8
RIVERS_AND_CHANNELS
 10
672091.7500794282
 20
4804836.2249210868
 30
0.0
  0
VERTEX
  5
4C0
  8
RIVERS_AND_CHANNELS
 10
671998.99886018608
 20
4804862.3881474491
 30
0.0
  0
VERTEX
  5
4C1
  8
RIVERS_AND_CHANNELS
 10
671955.68172285205
 20
4804955.1107545188
 30
0.0
  0
VERTEX
  5
4C2
  8
RIVERS_AND_CHANNELS
 10
671929.90181556274
 20
4804990.1370212957
 30
0.0
  0
VERTEX
  5
4C3
  8
RIVERS_AND_CHANNELS
 10
671903.40637759701
 20
4805047.5469631478
 30
0.0
  0
VERTEX
  5
4C4
  8
RIVERS_AND_CHANNELS
 10
671863.5452329556
 20
4805102.2889369829
 30
0.0
  0
VERTEX
  5
4C5
  8
RIVERS_AND_CHANNELS
 10
671868.6894669272
 20
4805151.7477767169
 30
0.0
  0
VERTEX
  5
4C6
  8
RIVERS_AND_CHANNELS
 10
671828.70631641522
 20
4805280.4274364943
 30
0.0
  0
VERTEX
  5
4C7
  8
RIVERS_AND_CHANNELS
 10
671800.99432941736
 20
4805375.8896077294
 30
0.0
  0
VERTEX
  5
4C8
  8
RIVERS_AND_CHANNELS
 10
671683.65349591617
 20
4805584.1001720373
 30
0.0
  0
VERTEX
  5
4C9
  8
RIVERS_AND_CHANNELS
 10
671678.28681185422
 20
4805653.2933618473
 30
0.0
  0
VERTEX
  5
4CA
  8
RIVERS_AND_CHANNELS
 10
671662.55970508943
 20
4805750.5318042748
 30
0.0
  0
VERTEX
  5
4CB
  8
RIVERS_AND_CHANNELS
 10
671650.99090163654
 20
4805816.3737919889
 30
0.0
  0
VERTEX
  5
4CC
  8
RIVERS_AND_CHANNELS
 10
671627.14849501941
 20
4805970.1057904791
 30
0.0
  0
VERTEX
  5
4CD
  8
RIVERS_AND_CHANNELS
 10
671623.92614971648
 20
4806070.896978816
 30
0.0
  0
VERTEX
  5
4CE
  8
RIVERS_AND_CHANNELS
 10
671598.74490437005
 20
4806167.8331676479
 30
0.0
  0
VERTEX
  5
4CF
  8
RIVERS_AND_CHANNELS
 10
671585.86711083038
 20
4806274.6215459732
 30
0.0
  0
VERTEX
  5
4D0
  8
RIVERS_AND_CHANNELS
 10
671541.07278716692
 20
4806393.0012957854
 30
0.0
  0
VERTEX
  5
4D1
  8
RIVERS_AND_CHANNELS
 10
671538.15253705159
 20
4806484.3433003472
 30
0.0
  0
VERTEX
  5
4D2
  8
RIVERS_AND_CHANNELS
 10
671524.87186279183
 20
4806603.730602636
 30
0.0
  0
VERTEX
  5
4D3
  8
RIVERS_AND_CHANNELS
 10
671579.7839527285
 20
4806662.239131094
 30
0.0
  0
VERTEX
  5
4D4
  8
RIVERS_AND_CHANNELS
 10
671596.27538461925
 20
4806738.4370154878
 30
0.0
  0
VERTEX
  5
4D5
  8
RIVERS_AND_CHANNELS
 10
671581.8573545973
 20
4806794.7290700777
 30
0.0
  0
VERTEX
  5
4D6
  8
RIVERS_AND_CHANNELS
 10
671579.33989710431
 20
4806873.4721930129
 30
0.0
  0
VERTEX
  5
4D7
  8
RIVERS_AND_CHANNELS
 10
671577.62802629708
 20
4806927.0175075894
 30
0.0
  0
VERTEX
  5
4D8
  8
RIVERS_AND_CHANNELS
 10
671557.03764031315
 20
4807077.7005124679
 30
0.0
  0
VERTEX
  5
4D9
  8
RIVERS_AND_CHANNELS
 10
671589.58803614241
 20
4807144.9529681588
 30
0.0
  0
VERTEX
  5
4DA
  8
RIVERS_AND_CHANNELS
 10
671624.28276928887
 20
4807243.8034674842
 30
0.0
  0
VERTEX
  5
4DB
  8
RIVERS_AND_CHANNELS
 10
671620.55693392956
 20
4807360.3432352971
 30
0.0
  0
VERTEX
  5
4DC
  8
RIVERS_AND_CHANNELS
 10
671601.27571134386
 20
4807470.0798551096
 30
0.0
  0
VERTEX
  5
4DD
  8
RIVERS_AND_CHANNELS
 10
671517.7659978033
 20
4807752.7211761419
 30
0.0
  0
VERTEX
  5
4DE
  8
RIVERS_AND_CHANNELS
 10
671474.59687594592
 20
4807853.3845648477
 30
0.0
  0
VERTEX
  5
4DF
  8
RIVERS_AND_CHANNELS
 10
671435.29530901636
 20
4807971.9182918379
 30
0.0
  0
VERTEX
  5
4E0
  8
RIVERS_AND_CHANNELS
 10
671308.72171579499
 20
4808043.2951389076
 30
0.0
  0
VERTEX
  5
4E1
  8
RIVERS_AND_CHANNELS
 10
671222.90838008944
 20
4808089.3550535664
 30
0.0
  0
VERTEX
  5
4E2
  8
RIVERS_AND_CHANNELS
 10
671128.65118428494
 20
4808121.8350296607
 30
0.0
  0
VERTEX
  5
4E3
  8
RIVERS_AND_CHANNELS
 10
671030.66804581776
 20
4808132.0124883689
 30
0.0
  0
VERTEX
  5
4E4
  8
RIVERS_AND_CHANNELS
 10
670892.7747509327
 20
4808140.9139991803
 30
0.0
  0
VERTEX
  5
4E5
  8
RIVERS_AND_CHANNELS
 10
670817.24734687002
 20
4808142.9360112073
 30
0.0
  0
VERTEX
  5
4E6
  8
RIVERS_AND_CHANNELS
 10
670759.74106951943
 20
4808136.6608450552
 30
0.0
  0
VERTEX
  5
4E7
  8
RIVERS_AND_CHANNELS
 10
670640.01077357854
 20
4808132.8330068961
 30
0.0
  0
VERTEX
  5
4E8
  8
RIVERS_AND_CHANNELS
 10
670597.97514921846
 20
4808198.0392077407
 30
0.0
  0
VERTEX
  5
4E9
  8
RIVERS_AND_CHANNELS
 10
670554.66432988271
 20
4808303.1347276652
 30
0.0
  0
VERTEX
  5
4EA
  8
RIVERS_AND_CHANNELS
 10
670543.81160544255
 20
4808364.9012453957
 30
0.0
  0
VERTEX
  5
4EB
  8
RIVERS_AND_CHANNELS
 10
670483.04636409401
 20
4808460.5653707404
 30
0.0
  0
VERTEX
  5
4EC
  8
RIVERS_AND_CHANNELS
 10
670454.59752016305
 20
4808517.3326251078
 30
0.0
  0
VERTEX
  5
4ED
  8
RIVERS_AND_CHANNELS
 10
670410.25106375059
 20
4808657.3992570322
 30
0.0
  0
VERTEX
  5
4EE
  8
RIVERS_AND_CHANNELS
 10
670372.2023517919
 20
4808773.8137021856
 30
0.0
  0
VERTEX
  5
4EF
  8
RIVERS_AND_CHANNELS
 10
670280.42297350976
 20
4808883.6090489514
 30
0.0
  0
VERTEX
  5
4F0
  8
RIVERS_AND_CHANNELS
 10
670243.93962822703
 20
4808951.0606572283
 30
0.0
  0
VERTEX
  5
4F1
  8
RIVERS_AND_CHANNELS
 10
670226.58204341854
 20
4809033.8275859654
 30
0.0
  0
VERTEX
  5
4F2
  8
RIVERS_AND_CHANNELS
 10
670160.39252510772
 20
4809110.1320764348
 30
0.0
  0
VERTEX
  5
4F3
  8
RIVERS_AND_CHANNELS
 10
670055.32551364333
 20
4809175.3910301952
 30
0.0
  0
VERTEX
  5
4F4
  8
RIVERS_AND_CHANNELS
 10
670003.98908184655
 20
4809247.2690795697
 30
0.0
  0
VERTEX
  5
4F5
  8
RIVERS_AND_CHANNELS
 10
669938.42579859251
 20
4809303.9883839311
 30
0.0
  0
VERTEX
  5
4F6
  8
RIVERS_AND_CHANNELS
 10
669843.62603738299
 20
4809354.8717718152
 30
0.0
  0
VERTEX
  5
4F7
  8
RIVERS_AND_CHANNELS
 10
669797.97111056442
 20
4809402.4249979826
 30
0.0
  0
VERTEX
  5
4F8
  8
RIVERS_AND_CHANNELS
 10
669727.50900494901
 20
4809458.9877296686
 30
0.0
  0
VERTEX
  5
4F9
  8
RIVERS_AND_CHANNELS
 10
669642.66342267825
 20
4809505.2880559033
 30
0.0
  0
VERTEX
  5
4FA
  8
RIVERS_AND_CHANNELS
 10
669503.46102856752
 20
4809564.5543824108
 30
0.0
  0
VERTEX
  5
4FB
  8
RIVERS_AND_CHANNELS
 10
669436.48891429591
 20
4809665.3402715372
 30
0.0
  0
VERTEX
  5
4FC
  8
RIVERS_AND_CHANNELS
 10
669393.6979185181
 20
4809776.7018016847
 30
0.0
  0
VERTEX
  5
4FD
  8
RIVERS_AND_CHANNELS
 10
669322.45304363035
 20
4809857.7459264854
 30
0.0
  0
VERTEX
  5
4FE
  8
RIVERS_AND_CHANNELS
 10
669284.71740587207
 20
4809964.3677771948
 30
0.0
  0
VERTEX
  5
4FF
  8
RIVERS_AND_CHANNELS
 10
669244.1179222865
 20
4810007.1813718062
 30
0.0
  0
VERTEX
  5
500
  8
RIVERS_AND_CHANNELS
 10
669158.4896573989
 20
4810077.9630939187
 30
0.0
  0
SEQEND
  5
501
  8
RIVERS_AND_CHANNELS
  0
POLYLINE
  5
7C
  8
RIVERS_AND_CHANNELS
 66
     1
 10
0.0
 20
0.0
 30
0.0
  0
VERTEX
  5
502
  8
RIVERS_AND_CHANNELS
 10
675084.09126921894
 20
4802204.11310622
 30
0.0
  0
VERTEX
  5
503
  8
RIVERS_AND_CHANNELS
 10
675085.45975417155
 20
4802280.0244665407
 30
0.0
  0
VERTEX
  5
504
  8
RIVERS_AND_CHANNELS
 10
675105.54325792205
 20
4802364.120934464
 30
0.0
  0
VERTEX
  5
505
  8
RIVERS_AND_CHANNELS
 10
675076.8579291096
 20
4802549.0794834066
 30
0.0
  0
VERTEX
  5
506
  8
RIVERS_AND_CHANNELS
 10
675031.15354091965
 20
4802672.7998731993
 30
0.0
  0
VERTEX
  5
507
  8
RIVERS_AND_CHANNELS
 10
674982.14231620112
 20
4802781.2409837963
 30
0.0
  0
VERTEX
  5
508
  8
RIVERS_AND_CHANNELS
 10
674911.59367096028
 20
4802851.0597275766
 30
0.0
  0
VERTEX
  5
509
  8
RIVERS_AND_CHANNELS
 10
674870.40773201233
 20
4802952.1642826991
 30
0.0
  0
VERTEX
  5
50A
  8
RIVERS_AND_CHANNELS
 10
674865.44048079848
 20
4803107.5340849832
 30
0.0
  0
VERTEX
  5
50B
  8
RIVERS_AND_CHANNELS
 10
674870.96387008717
 20
4803172.1981563848
 30
0.0
  0
VERTEX
  5
50C
  8
RIVERS_AND_CHANNELS
 10
674846.63994352496
 20
4803220.7344360361
 30
0.0
  0
VERTEX
  5
50D
  8
RIVERS_AND_CHANNELS
 10
674788.31388054707
 20
4803264.3903058451
 30
0.0
  0
VERTEX
  5
50E
  8
RIVERS_AND_CHANNELS
 10
674789.68227884383
 20
4803340.301663395
 30
0.0
  0
VERTEX
  5
50F
  8
RIVERS_AND_CHANNELS
 10
674801.33482117171
 20
4803450.6822253289
 30
0.0
  0
VERTEX
  5
510
  8
RIVERS_AND_CHANNELS
 10
674853.36095412751
 20
4803604.0807906147
 30
0.0
  0
VERTEX
  5
511
  8
RIVERS_AND_CHANNELS
 10
674861.70665848465
 20
4803699.1821184633
 30
0.0
  0
VERTEX
  5
512
  8
RIVERS_AND_CHANNELS
 10
674852.70556902885
 20
4803862.0096907187
 30
0.0
  0
VERTEX
  5
513
  8
RIVERS_AND_CHANNELS
 10
674815.88480217708
 20
4803941.3123887787
 30
0.0
  0
VERTEX
  5
514
  8
RIVERS_AND_CHANNELS
 10
674776.32018290868
 20
4804029.9880577372
 30
0.0
  0
VERTEX
  5
515
  8
RIVERS_AND_CHANNELS
 10
674745.85268271493
 20
4804063.8888955116
 30
0.0
  0
VERTEX
  5
516
  8
RIVERS_AND_CHANNELS
 10
674721.12352274789
 20
4804090.631149672
 30
0.0
  0
VERTEX
  5
517
  8
RIVERS_AND_CHANNELS
 10
674679.17942587216
 20
4804138.8492476717
 30
0.0
  0
VERTEX
  5
518
  8
RIVERS_AND_CHANNELS
 10
674661.78861853224
 20
4804165.8261126764
 30
0.0
  0
VERTEX
  5
519
  8
RIVERS_AND_CHANNELS
 10
674658.72295466578
 20
4804204.2740668124
 30
0.0
  0
VERTEX
  5
51A
  8
RIVERS_AND_CHANNELS
 10
674635.55255612836
 20
4804297.1449330868
 30
0.0
  0
VERTEX
  5
51B
  8
RIVERS_AND_CHANNELS
 10
674613.49598875048
 20
4804355.1764647756
 30
0.0
  0
VERTEX
  5
51C
  8
RIVERS_AND_CHANNELS
 10
674596.59144930728
 20
4804424.3858616035
 30
0.0
  0
VERTEX
  5
51D
  8
RIVERS_AND_CHANNELS
 10
674584.47000399325
 20
4804458.8732320387
 30
0.0
  0
VERTEX
  5
51E
  8
RIVERS_AND_CHANNELS
 10
674494.77357842575
 20
4804570.0698052067
 30
0.0
  0
VERTEX
  5
51F
  8
RIVERS_AND_CHANNELS
 10
674457.67917321122
 20
4804629.6350048734
 30
0.0
  0
VERTEX
  5
520
  8
RIVERS_AND_CHANNELS
 10
674427.18073235487
 20
4804683.016201661
 30
0.0
  0
VERTEX
  5
521
  8
RIVERS_AND_CHANNELS
 10
674332.05089604505
 20
4804756.7130868966
 30
0.0
  0
VERTEX
  5
522
  8
RIVERS_AND_CHANNELS
 10
674269.28773049847
 20
4804818.655037744
 30
0.0
  0
VERTEX
  5
523
  8
RIVERS_AND_CHANNELS
 10
674248.88738540898
 20
4804856.3719680915
 30
0.0
  0
VERTEX
  5
524
  8
RIVERS_AND_CHANNELS
 10
674240.86184353277
 20
4804907.2741952352
 30
0.0
  0
VERTEX
  5
525
  8
RIVERS_AND_CHANNELS
 10
674232.93833294278
 20
4804954.982289928
 30
0.0
  0
VERTEX
  5
526
  8
RIVERS_AND_CHANNELS
 10
674218.41903274809
 20
4805008.8743479308
 30
0.0
  0
VERTEX
  5
527
  8
RIVERS_AND_CHANNELS
 10
674193.59739801777
 20
4805084.819021957
 30
0.0
  0
VERTEX
  5
528
  8
RIVERS_AND_CHANNELS
 10
674172.68637223379
 20
4805138.5067332592
 30
0.0
  0
VERTEX
  5
529
  8
RIVERS_AND_CHANNELS
 10
674170.95034990611
 20
4805192.8074791254
 30
0.0
  0
VERTEX
  5
52A
  8
RIVERS_AND_CHANNELS
 10
674145.31176298275
 20
4805294.3054612419
 30
0.0
  0
VERTEX
  5
52B
  8
RIVERS_AND_CHANNELS
 10
674134.09035831154
 20
4805345.1055150358
 30
0.0
  0
VERTEX
  5
52C
  8
RIVERS_AND_CHANNELS
 10
674125.96269705053
 20
4805399.2019169722
 30
0.0
  0
VERTEX
  5
52D
  8
RIVERS_AND_CHANNELS
 10
674101.95801307028
 20
4805449.5933280112
 30
0.0
  0
VERTEX
  5
52E
  8
RIVERS_AND_CHANNELS
 10
674013.21981569345
 20
4805523.4945571786
 30
0.0
  0
VERTEX
  5
52F
  8
RIVERS_AND_CHANNELS
 10
673994.58558256936
 20
4805606.0318796029
 30
0.0
  0
VERTEX
  5
530
  8
RIVERS_AND_CHANNELS
 10
673984.72189898067
 20
4805714.4290274028
 30
0.0
  0
VERTEX
  5
531
  8
RIVERS_AND_CHANNELS
 10
673957.72559097479
 20
4805758.3299155161
 30
0.0
  0
VERTEX
  5
532
  8
RIVERS_AND_CHANNELS
 10
673871.26409815997
 20
4805861.0807981454
 30
0.0
  0
VERTEX
  5
533
  8
RIVERS_AND_CHANNELS
 10
673820.97794042423
 20
4805933.0139188841
 30
0.0
  0
VERTEX
  5
534
  8
RIVERS_AND_CHANNELS
 10
673784.08786063467
 20
4805986.1907717418
 30
0.0
  0
VERTEX
  5
535
  8
RIVERS_AND_CHANNELS
 10
673775.75596060441
 20
4806046.6755232522
 30
0.0
  0
VERTEX
  5
536
  8
RIVERS_AND_CHANNELS
 10
673754.94705420523
 20
4806097.1690597674
 30
0.0
  0
VERTEX
  5
537
  8
RIVERS_AND_CHANNELS
 10
673718.15909380035
 20
4806147.1517378334
 30
0.0
  0
VERTEX
  5
538
  8
RIVERS_AND_CHANNELS
 10
673670.01743304636
 20
4806152.0075037703
 30
0.0
  0
VERTEX
  5
539
  8
RIVERS_AND_CHANNELS
 10
673618.24624395662
 20
4806227.195571254
 30
0.0
  0
VERTEX
  5
53A
  8
RIVERS_AND_CHANNELS
 10
673601.16676414723
 20
4806268.0344089856
 30
0.0
  0
VERTEX
  5
53B
  8
RIVERS_AND_CHANNELS
 10
673511.33327972679
 20
4806302.6059033852
 30
0.0
  0
VERTEX
  5
53C
  8
RIVERS_AND_CHANNELS
 10
673463.49343794421
 20
4806318.8128347909
 30
0.0
  0
VERTEX
  5
53D
  8
RIVERS_AND_CHANNELS
 10
673416.99387871043
 20
4806354.7696915567
 30
0.0
  0
VERTEX
  5
53E
  8
RIVERS_AND_CHANNELS
 10
673405.88647813105
 20
4806393.8287791908
 30
0.0
  0
VERTEX
  5
53F
  8
RIVERS_AND_CHANNELS
 10
673404.06121040357
 20
4806450.9210166717
 30
0.0
  0
VERTEX
  5
540
  8
RIVERS_AND_CHANNELS
 10
673393.07969135151
 20
4806486.0426775096
 30
0.0
  0
VERTEX
  5
541
  8
RIVERS_AND_CHANNELS
 10
673366.08858728106
 20
4806528.5354064023
 30
0.0
  0
VERTEX
  5
542
  8
RIVERS_AND_CHANNELS
 10
673304.58648947987
 20
4806540.3640972711
 30
0.0
  0
VERTEX
  5
543
  8
RIVERS_AND_CHANNELS
 10
673256.18018515024
 20
4806574.2893139357
 30
0.0
  0
VERTEX
  5
544
  8
RIVERS_AND_CHANNELS
 10
673225.18668626703
 20
4806618.624764733
 30
0.0
  0
VERTEX
  5
545
  8
RIVERS_AND_CHANNELS
 10
673209.19572595134
 20
4806687.0883814236
 30
0.0
  0
VERTEX
  5
546
  8
RIVERS_AND_CHANNELS
 10
673207.7480999222
 20
4806732.3684287248
 30
0.0
  0
VERTEX
  5
547
  8
RIVERS_AND_CHANNELS
 10
673231.15160930145
 20
4806802.0914613958
 30
0.0
  0
VERTEX
  5
548
  8
RIVERS_AND_CHANNELS
 10
673242.08881229255
 20
4806830.0310625928
 30
0.0
  0
VERTEX
  5
549
  8
RIVERS_AND_CHANNELS
 10
673234.79489902058
 20
4806873.1535206418
 30
0.0
  0
VERTEX
  5
54A
  8
RIVERS_AND_CHANNELS
 10
673199.8010969935
 20
4806902.7425164711
 30
0.0
  0
VERTEX
  5
54B
  8
RIVERS_AND_CHANNELS
 10
673195.46717997175
 20
4806942.4293332342
 30
0.0
  0
VERTEX
  5
54C
  8
RIVERS_AND_CHANNELS
 10
673194.68444832216
 20
4806966.9122628057
 30
0.0
  0
VERTEX
  5
54D
  8
RIVERS_AND_CHANNELS
 10
673114.19301014824
 20
4806991.9103306998
 30
0.0
  0
VERTEX
  5
54E
  8
RIVERS_AND_CHANNELS
 10
673043.18086235272
 20
4807008.0209679538
 30
0.0
  0
VERTEX
  5
54F
  8
RIVERS_AND_CHANNELS
 10
672981.94170135434
 20
4807006.0631209817
 30
0.0
  0
VERTEX
  5
550
  8
RIVERS_AND_CHANNELS
 10
672902.52643128019
 20
4806997.3971974179
 30
0.0
  0
VERTEX
  5
551
  8
RIVERS_AND_CHANNELS
 10
672800.40553921298
 20
4807027.830737913
 30
0.0
  0
VERTEX
  5
552
  8
RIVERS_AND_CHANNELS
 10
672763.07499495859
 20
4807045.0181930773
 30
0.0
  0
VERTEX
  5
553
  8
RIVERS_AND_CHANNELS
 10
672693.16808657185
 20
4807122.4339824039
 30
0.0
  0
VERTEX
  5
554
  8
RIVERS_AND_CHANNELS
 10
672640.42988840688
 20
4807142.1923582442
 30
0.0
  0
VERTEX
  5
555
  8
RIVERS_AND_CHANNELS
 10
672568.24364530027
 20
4807195.027322188
 30
0.0
  0
VERTEX
  5
556
  8
RIVERS_AND_CHANNELS
 10
672448.75835901755
 20
4807289.239042392
 30
0.0
  0
VERTEX
  5
557
  8
RIVERS_AND_CHANNELS
 10
672398.59293490776
 20
4807324.3970915098
 30
0.0
  0
VERTEX
  5
558
  8
RIVERS_AND_CHANNELS
 10
672365.72295957129
 20
4807393.8065271284
 30
0.0
  0
VERTEX
  5
559
  8
RIVERS_AND_CHANNELS
 10
672218.77778595849
 20
4807484.076784513
 30
0.0
  0
VERTEX
  5
55A
  8
RIVERS_AND_CHANNELS
 10
672207.14589941152
 20
4807560.2921897667
 30
0.0
  0
VERTEX
  5
55B
  8
RIVERS_AND_CHANNELS
 10
672161.44113231765
 20
4807647.672177
 30
0.0
  0
VERTEX
  5
55C
  8
RIVERS_AND_CHANNELS
 10
672098.92994735541
 20
4807685.4990370637
 30
0.0
  0
VERTEX
  5
55D
  8
RIVERS_AND_CHANNELS
 10
672058.24398549413
 20
4807711.769706184
 30
0.0
  0
VERTEX
  5
55E
  8
RIVERS_AND_CHANNELS
 10
672019.83709838567
 20
4807762.6211923743
 30
0.0
  0
VERTEX
  5
55F
  8
RIVERS_AND_CHANNELS
 10
671979.05329596926
 20
4807791.9521994991
 30
0.0
  0
VERTEX
  5
560
  8
RIVERS_AND_CHANNELS
 10
671914.65431470203
 20
4807792.956797489
 30
0.0
  0
VERTEX
  5
561
  8
RIVERS_AND_CHANNELS
 10
671873.87042418774
 20
4807822.2878469517
 30
0.0
  0
VERTEX
  5
562
  8
RIVERS_AND_CHANNELS
 10
671845.4322078703
 20
4807848.950082696
 30
0.0
  0
VERTEX
  5
563
  8
RIVERS_AND_CHANNELS
 10
671779.66344729811
 20
4807892.7997736027
 30
0.0
  0
VERTEX
  5
564
  8
RIVERS_AND_CHANNELS
 10
671704.12178658484
 20
4807954.7179515054
 30
0.0
  0
VERTEX
  5
565
  8
RIVERS_AND_CHANNELS
 10
671604.99393167323
 20
4808083.2788610393
 30
0.0
  0
VERTEX
  5
566
  8
RIVERS_AND_CHANNELS
 10
671594.04684812296
 20
4808138.071717063
 30
0.0
  0
VERTEX
  5
567
  8
RIVERS_AND_CHANNELS
 10
671573.32695108699
 20
4808210.9330628486
 30
0.0
  0
VERTEX
  5
568
  8
RIVERS_AND_CHANNELS
 10
671562.96691663458
 20
4808247.3637104193
 30
0.0
  0
VERTEX
  5
569
  8
RIVERS_AND_CHANNELS
 10
671548.95794002619
 20
4808302.058676173
 30
0.0
  0
VERTEX
  5
56A
  8
RIVERS_AND_CHANNELS
 10
671534.5575983139
 20
4808368.9950841581
 30
0.0
  0
VERTEX
  5
56B
  8
RIVERS_AND_CHANNELS
 10
671523.61060141935
 20
4808423.7879429515
 30
0.0
  0
VERTEX
  5
56C
  8
RIVERS_AND_CHANNELS
 10
671485.3016444057
 20
4808471.5790036917
 30
0.0
  0
VERTEX
  5
56D
  8
RIVERS_AND_CHANNELS
 10
671446.27889830002
 20
4808445.823518008
 30
0.0
  0
VERTEX
  5
56E
  8
RIVERS_AND_CHANNELS
 10
671404.90796013037
 20
4808493.516730817
 30
0.0
  0
VERTEX
  5
56F
  8
RIVERS_AND_CHANNELS
 10
671402.16840296239
 20
4808579.2068715421
 30
0.0
  0
VERTEX
  5
570
  8
RIVERS_AND_CHANNELS
 10
671360.01482124103
 20
4808651.382971582
 30
0.0
  0
VERTEX
  5
571
  8
RIVERS_AND_CHANNELS
 10
671333.07303756697
 20
4808727.1088665202
 30
0.0
  0
VERTEX
  5
572
  8
RIVERS_AND_CHANNELS
 10
671306.71838676184
 20
4808784.4726459906
 30
0.0
  0
VERTEX
  5
573
  8
RIVERS_AND_CHANNELS
 10
671290.56850701815
 20
4808791.30468906
 30
0.0
  0
VERTEX
  5
574
  8
RIVERS_AND_CHANNELS
 10
671275.91039853764
 20
4808835.8121266272
 30
0.0
  0
VERTEX
  5
575
  8
RIVERS_AND_CHANNELS
 10
671262.01275794685
 20
4808856.5330189457
 30
0.0
  0
VERTEX
  5
576
  8
RIVERS_AND_CHANNELS
 10
671258.94597662147
 20
4808869.6632267218
 30
0.0
  0
VERTEX
  5
577
  8
RIVERS_AND_CHANNELS
 10
671260.40732573427
 20
4808906.7490589116
 30
0.0
  0
VERTEX
  5
578
  8
RIVERS_AND_CHANNELS
 10
671250.13827814464
 20
4808938.1685626479
 30
0.0
  0
VERTEX
  5
579
  8
RIVERS_AND_CHANNELS
 10
671232.27414547978
 20
4808958.762644208
 30
0.0
  0
VERTEX
  5
57A
  8
RIVERS_AND_CHANNELS
 10
671203.8749769975
 20
4808977.6971124886
 30
0.0
  0
VERTEX
  5
57B
  8
RIVERS_AND_CHANNELS
 10
671202.86101981066
 20
4809009.4125061492
 30
0.0
  0
VERTEX
  5
57C
  8
RIVERS_AND_CHANNELS
 10
671209.94903963676
 20
4809036.0956223859
 30
0.0
  0
VERTEX
  5
57D
  8
RIVERS_AND_CHANNELS
 10
671192.56213555927
 20
4809083.1614698423
 30
0.0
  0
VERTEX
  5
57E
  8
RIVERS_AND_CHANNELS
 10
671172.31969195826
 20
4809136.7501288401
 30
0.0
  0
VERTEX
  5
57F
  8
RIVERS_AND_CHANNELS
 10
671180.51857623691
 20
4809170.0829097163
 30
0.0
  0
VERTEX
  5
580
  8
RIVERS_AND_CHANNELS
 10
671180.86906089704
 20
4809200.5190772628
 30
0.0
  0
VERTEX
  5
581
  8
RIVERS_AND_CHANNELS
 10
671149.53984347475
 20
4809267.6220582603
 30
0.0
  0
VERTEX
  5
582
  8
RIVERS_AND_CHANNELS
 10
671125.45873134211
 20
4809292.454763677
 30
0.0
  0
VERTEX
  5
583
  8
RIVERS_AND_CHANNELS
 10
671115.86701766273
 20
4809337.5344507853
 30
0.0
  0
VERTEX
  5
584
  8
RIVERS_AND_CHANNELS
 10
671149.79578560963
 20
4809368.876745089
 30
0.0
  0
VERTEX
  5
585
  8
RIVERS_AND_CHANNELS
 10
671163.9505857937
 20
4809399.586855635
 30
0.0
  0
VERTEX
  5
586
  8
RIVERS_AND_CHANNELS
 10
671169.81463136186
 20
4809434.6868902203
 30
0.0
  0
VERTEX
  5
587
  8
RIVERS_AND_CHANNELS
 10
671165.21005844255
 20
4809469.4522829298
 30
0.0
  0
VERTEX
  5
588
  8
RIVERS_AND_CHANNELS
 10
671176.47009149706
 20
4809481.4497761941
 30
0.0
  0
VERTEX
  5
589
  8
RIVERS_AND_CHANNELS
 10
671214.59458563686
 20
4809490.8149247058
 30
0.0
  0
VERTEX
  5
58A
  8
RIVERS_AND_CHANNELS
 10
671251.5929817271
 20
4809498.9803028032
 30
0.0
  0
VERTEX
  5
58B
  8
RIVERS_AND_CHANNELS
 10
671263.83035450778
 20
4809516.827839422
 30
0.0
  0
VERTEX
  5
58C
  8
RIVERS_AND_CHANNELS
 10
671251.90567281295
 20
4809570.5676385844
 30
0.0
  0
VERTEX
  5
58D
  8
RIVERS_AND_CHANNELS
 10
671245.76873816282
 20
4809586.4467773661
 30
0.0
  0
VERTEX
  5
58E
  8
RIVERS_AND_CHANNELS
 10
671229.47794460389
 20
4809618.0765866721
 30
0.0
  0
VERTEX
  5
58F
  8
RIVERS_AND_CHANNELS
 10
671228.99780051375
 20
4809658.249562867
 30
0.0
  0
VERTEX
  5
590
  8
RIVERS_AND_CHANNELS
 10
671228.27902345255
 20
4809680.7320677945
 30
0.0
  0
VERTEX
  5
591
  8
RIVERS_AND_CHANNELS
 10
671223.24295824207
 20
4809737.6384797506
 30
0.0
  0
VERTEX
  5
592
  8
RIVERS_AND_CHANNELS
 10
671221.95183121564
 20
4809752.8687902754
 30
0.0
  0
VERTEX
  5
593
  8
RIVERS_AND_CHANNELS
 10
671201.2516288464
 20
4809771.4973838916
 30
0.0
  0
VERTEX
  5
594
  8
RIVERS_AND_CHANNELS
 10
671175.49257076322
 20
4809772.2813561298
 30
0.0
  0
VERTEX
  5
595
  8
RIVERS_AND_CHANNELS
 10
671160.0489913926
 20
4809777.4140108079
 30
0.0
  0
VERTEX
  5
596
  8
RIVERS_AND_CHANNELS
 10
671151.32220777776
 20
4809798.8366993768
 30
0.0
  0
VERTEX
  5
597
  8
RIVERS_AND_CHANNELS
 10
671140.54474392894
 20
4809808.9410843663
 30
0.0
  0
VERTEX
  5
598
  8
RIVERS_AND_CHANNELS
 10
671121.42564030353
 20
4809828.424022845
 30
0.0
  0
VERTEX
  5
599
  8
RIVERS_AND_CHANNELS
 10
671117.46773924318
 20
4809851.6067225197
 30
0.0
  0
VERTEX
  5
59A
  8
RIVERS_AND_CHANNELS
 10
671120.56043758825
 20
4809880.6411819961
 30
0.0
  0
VERTEX
  5
59B
  8
RIVERS_AND_CHANNELS
 10
671112.68837930216
 20
4809900.4836942079
 30
0.0
  0
VERTEX
  5
59C
  8
RIVERS_AND_CHANNELS
 10
671079.80930644227
 20
4809922.7417693827
 30
0.0
  0
VERTEX
  5
59D
  8
RIVERS_AND_CHANNELS
 10
671051.44241231005
 20
4809954.7892508227
 30
0.0
  0
VERTEX
  5
59E
  8
RIVERS_AND_CHANNELS
 10
671044.37373916374
 20
4809974.6574476622
 30
0.0
  0
SEQEND
  5
59F
  8
RIVERS_AND_CHANNELS
  0
POLYLINE
  5
7D
  8
RIVERS_AND_CHANNELS
 66
     1
 10
0.0
 20
0.0
 30
0.0
  0
VERTEX
  5
5A0
  8
RIVERS_AND_CHANNELS
 10
680024.33194547892
 20
4795334.0647594789
 30
0.0
  0
VERTEX
  5
5A1
  8
RIVERS_AND_CHANNELS
 10
680005.32846414228
 20
4795377.473467933
 30
0.0
  0
VERTEX
  5
5A2
  8
RIVERS_AND_CHANNELS
 10
679977.33869690925
 20
4795426.4637088422
 30
0.0
  0
VERTEX
  5
5A3
  8
RIVERS_AND_CHANNELS
 10
679940.92495584791
 20
4795463.4470190741
 30
0.0
  0
VERTEX
  5
5A4
  8
RIVERS_AND_CHANNELS
 10
679892.87313773436
 20
4795497.123794659
 30
0.0
  0
VERTEX
  5
5A5
  8
RIVERS_AND_CHANNELS
 10
679864.03981213807
 20
4795572.4968402628
 30
0.0
  0
VERTEX
  5
5A6
  8
RIVERS_AND_CHANNELS
 10
679847.96928015456
 20
4795615.9993165927
 30
0.0
  0
VERTEX
  5
5A7
  8
RIVERS_AND_CHANNELS
 10
679839.85412308096
 20
4795686.1659491248
 30
0.0
  0
VERTEX
  5
5A8
  8
RIVERS_AND_CHANNELS
 10
679834.76563572115
 20
4795753.4948863834
 30
0.0
  0
VERTEX
  5
5A9
  8
RIVERS_AND_CHANNELS
 10
679829.39599160617
 20
4795829.6180777606
 30
0.0
  0
VERTEX
  5
5AA
  8
RIVERS_AND_CHANNELS
 10
679800.18787555012
 20
4795916.7168434048
 30
0.0
  0
VERTEX
  5
5AB
  8
RIVERS_AND_CHANNELS
 10
679781.0906752951
 20
4795963.0569698997
 30
0.0
  0
VERTEX
  5
5AC
  8
RIVERS_AND_CHANNELS
 10
679778.56026161497
 20
4796042.2053471906
 30
0.0
  0
VERTEX
  5
5AD
  8
RIVERS_AND_CHANNELS
 10
679749.82074015075
 20
4796114.6470226375
 30
0.0
  0
VERTEX
  5
5AE
  8
RIVERS_AND_CHANNELS
 10
679736.68315752025
 20
4796158.2432668433
 30
0.0
  0
VERTEX
  5
5AF
  8
RIVERS_AND_CHANNELS
 10
679726.47852424334
 20
4796201.9332789239
 30
0.0
  0
VERTEX
  5
5B0
  8
RIVERS_AND_CHANNELS
 10
679719.48799707426
 20
4796236.9228047598
 30
0.0
  0
VERTEX
  5
5B1
  8
RIVERS_AND_CHANNELS
 10
679688.65891130862
 20
4796282.8879020922
 30
0.0
  0
VERTEX
  5
5B2
  8
RIVERS_AND_CHANNELS
 10
679654.42836825363
 20
4796343.4163245186
 30
0.0
  0
VERTEX
  5
5B3
  8
RIVERS_AND_CHANNELS
 10
679632.21078080847
 20
4796395.5255192174
 30
0.0
  0
VERTEX
  5
5B4
  8
RIVERS_AND_CHANNELS
 10
679607.06024256814
 20
4796447.5409911517
 30
0.0
  0
VERTEX
  5
5B5
  8
RIVERS_AND_CHANNELS
 10
679567.90099143249
 20
4796478.5676523196
 30
0.0
  0
VERTEX
  5
5B6
  8
RIVERS_AND_CHANNELS
 10
679548.24138956924
 20
4796542.4963293923
 30
0.0
  0
VERTEX
  5
5B7
  8
RIVERS_AND_CHANNELS
 10
679498.87750515644
 20
4796617.2130026389
 30
0.0
  0
VERTEX
  5
5B8
  8
RIVERS_AND_CHANNELS
 10
679435.78606316145
 20
4796662.1466561174
 30
0.0
  0
VERTEX
  5
5B9
  8
RIVERS_AND_CHANNELS
 10
679389.54247928283
 20
4796731.0942583904
 30
0.0
  0
VERTEX
  5
5BA
  8
RIVERS_AND_CHANNELS
 10
679395.71728139953
 20
4796813.4553601183
 30
0.0
  0
VERTEX
  5
5BB
  8
RIVERS_AND_CHANNELS
 10
679375.30792674725
 20
4796900.8354266174
 30
0.0
  0
VERTEX
  5
5BC
  8
RIVERS_AND_CHANNELS
 10
679370.03200155066
 20
4796974.0271999547
 30
0.0
  0
VERTEX
  5
5BD
  8
RIVERS_AND_CHANNELS
 10
679368.53249597258
 20
4797020.9299788103
 30
0.0
  0
VERTEX
  5
5BE
  8
RIVERS_AND_CHANNELS
 10
679366.09580121073
 20
4797097.1469380641
 30
0.0
  0
VERTEX
  5
5BF
  8
RIVERS_AND_CHANNELS
 10
679364.6900159932
 20
4797141.1182537712
 30
0.0
  0
VERTEX
  5
5C0
  8
RIVERS_AND_CHANNELS
 10
679433.20650587382
 20
4797201.9971365603
 30
0.0
  0
VERTEX
  5
5C1
  8
RIVERS_AND_CHANNELS
 10
679509.95944364823
 20
4797280.7458284451
 30
0.0
  0
VERTEX
  5
5C2
  8
RIVERS_AND_CHANNELS
 10
679528.52207560604
 20
4797342.9620753936
 30
0.0
  0
VERTEX
  5
5C3
  8
RIVERS_AND_CHANNELS
 10
679529.58064370777
 20
4797401.6842942853
 30
0.0
  0
VERTEX
  5
5C4
  8
RIVERS_AND_CHANNELS
 10
679507.45668708324
 20
4797450.8621132802
 30
0.0
  0
VERTEX
  5
5C5
  8
RIVERS_AND_CHANNELS
 10
679462.24409940455
 20
4797487.5640747799
 30
0.0
  0
VERTEX
  5
5C6
  8
RIVERS_AND_CHANNELS
 10
679440.58882546972
 20
4797522.0847612387
 30
0.0
  0
VERTEX
  5
5C7
  8
RIVERS_AND_CHANNELS
 10
679449.9972780688
 20
4797577.1641322151
 30
0.0
  0
VERTEX
  5
5C8
  8
RIVERS_AND_CHANNELS
 10
679476.8135245397
 20
4797627.0708736656
 30
0.0
  0
VERTEX
  5
5C9
  8
RIVERS_AND_CHANNELS
 10
679504.70169658947
 20
4797643.4517512862
 30
0.0
  0
VERTEX
  5
5CA
  8
RIVERS_AND_CHANNELS
 10
679528.69042190409
 20
4797701.0127347764
 30
0.0
  0
VERTEX
  5
5CB
  8
RIVERS_AND_CHANNELS
 10
679537.36239564931
 20
4797752.9209260354
 30
0.0
  0
VERTEX
  5
5CC
  8
RIVERS_AND_CHANNELS
 10
679529.48114024114
 20
4797837.8600360118
 30
0.0
  0
VERTEX
  5
5CD
  8
RIVERS_AND_CHANNELS
 10
679512.59794051852
 20
4797881.2066212716
 30
0.0
  0
VERTEX
  5
5CE
  8
RIVERS_AND_CHANNELS
 10
679511.27875437355
 20
4797922.4692193791
 30
0.0
  0
VERTEX
  5
5CF
  8
RIVERS_AND_CHANNELS
 10
679509.38242519135
 20
4797981.784175965
 30
0.0
  0
VERTEX
  5
5D0
  8
RIVERS_AND_CHANNELS
 10
679492.00453246688
 20
4798040.6041791309
 30
0.0
  0
VERTEX
  5
5D1
  8
RIVERS_AND_CHANNELS
 10
679428.26448292367
 20
4798095.3604744431
 30
0.0
  0
VERTEX
  5
5D2
  8
RIVERS_AND_CHANNELS
 10
679372.59501385048
 20
4798140.0485292757
 30
0.0
  0
VERTEX
  5
5D3
  8
RIVERS_AND_CHANNELS
 10
679276.10677230405
 20
4798140.3066626433
 30
0.0
  0
VERTEX
  5
5D4
  8
RIVERS_AND_CHANNELS
 10
679233.46883444325
 20
4798212.4165151725
 30
0.0
  0
VERTEX
  5
5D5
  8
RIVERS_AND_CHANNELS
 10
679164.59213902708
 20
4798271.4154527374
 30
0.0
  0
VERTEX
  5
5D6
  8
RIVERS_AND_CHANNELS
 10
679138.35349658271
 20
4798314.0258065211
 30
0.0
  0
VERTEX
  5
5D7
  8
RIVERS_AND_CHANNELS
 10
679121.95420116629
 20
4798373.0248040091
 30
0.0
  0
VERTEX
  5
5D8
  8
RIVERS_AND_CHANNELS
 10
679112.11473902746
 20
4798448.4123253571
 30
0.0
  0
VERTEX
  5
5D9
  8
RIVERS_AND_CHANNELS
 10
679072.75666024978
 20
4798510.688991663
 30
0.0
  0
VERTEX
  5
5DA
  8
RIVERS_AND_CHANNELS
 10
679056.35736483335
 20
4798576.2433867119
 30
0.0
  0
VERTEX
  5
5DB
  8
RIVERS_AND_CHANNELS
 10
679056.35736483335
 20
4798612.2983429367
 30
0.0
  0
VERTEX
  5
5DC
  8
RIVERS_AND_CHANNELS
 10
679053.07762086112
 20
4798651.6309679803
 30
0.0
  0
VERTEX
  5
5DD
  8
RIVERS_AND_CHANNELS
 10
679052.73096270126
 20
4798692.599768905
 30
0.0
  0
VERTEX
  5
5DE
  8
RIVERS_AND_CHANNELS
 10
679018.11582275946
 20
4798725.0532391984
 30
0.0
  0
VERTEX
  5
5DF
  8
RIVERS_AND_CHANNELS
 10
678986.16330678784
 20
4798755.0102583794
 30
0.0
  0
VERTEX
  5
5E0
  8
RIVERS_AND_CHANNELS
 10
678937.41520321334
 20
4798779.1767164543
 30
0.0
  0
VERTEX
  5
5E1
  8
RIVERS_AND_CHANNELS
 10
678916.17078509275
 20
4798786.3737865221
 30
0.0
  0
VERTEX
  5
5E2
  8
RIVERS_AND_CHANNELS
 10
678905.22715112008
 20
4798800.0261165006
 30
0.0
  0
VERTEX
  5
5E3
  8
RIVERS_AND_CHANNELS
 10
678875.31955541181
 20
4798804.3207987752
 30
0.0
  0
VERTEX
  5
5E4
  8
RIVERS_AND_CHANNELS
 10
678853.93547335826
 20
4798815.889106418
 30
0.0
  0
VERTEX
  5
5E5
  8
RIVERS_AND_CHANNELS
 10
678844.88099412085
 20
4798825.2261760831
 30
0.0
  0
VERTEX
  5
5E6
  8
RIVERS_AND_CHANNELS
 10
678849.06710785034
 20
4798858.6153036542
 30
0.0
  0
VERTEX
  5
5E7
  8
RIVERS_AND_CHANNELS
 10
678848.42425658251
 20
4798878.7229386568
 30
0.0
  0
VERTEX
  5
5E8
  8
RIVERS_AND_CHANNELS
 10
678837.36882069614
 20
4798895.8723015888
 30
0.0
  0
VERTEX
  5
5E9
  8
RIVERS_AND_CHANNELS
 10
678793.60573087039
 20
4798895.3483140003
 30
0.0
  0
VERTEX
  5
5EA
  8
RIVERS_AND_CHANNELS
 10
678768.27555054135
 20
4798920.7926663831
 30
0.0
  0
VERTEX
  5
5EB
  8
RIVERS_AND_CHANNELS
 10
678765.77149321407
 20
4798944.34135985
 30
0.0
  0
VERTEX
  5
5EC
  8
RIVERS_AND_CHANNELS
 10
678755.96244745096
 20
4798977.2831002427
 30
0.0
  0
VERTEX
  5
5ED
  8
RIVERS_AND_CHANNELS
 10
678736.02023447608
 20
4798998.5240059653
 30
0.0
  0
VERTEX
  5
5EE
  8
RIVERS_AND_CHANNELS
 10
678706.17678958725
 20
4799028.199769699
 30
0.0
  0
VERTEX
  5
5EF
  8
RIVERS_AND_CHANNELS
 10
678681.58156146319
 20
4799058.0433215788
 30
0.0
  0
VERTEX
  5
5F0
  8
RIVERS_AND_CHANNELS
 10
678661.46348493779
 20
4799081.3663259707
 30
0.0
  0
VERTEX
  5
5F1
  8
RIVERS_AND_CHANNELS
 10
678658.15900875046
 20
4799109.0645106323
 30
0.0
  0
VERTEX
  5
5F2
  8
RIVERS_AND_CHANNELS
 10
678652.26422711427
 20
4799142.1197421513
 30
0.0
  0
VERTEX
  5
5F3
  8
RIVERS_AND_CHANNELS
 10
678654.10158242215
 20
4799160.3113808855
 30
0.0
  0
VERTEX
  5
5F4
  8
RIVERS_AND_CHANNELS
 10
678647.26881864457
 20
4799184.8746148124
 30
0.0
  0
VERTEX
  5
5F5
  8
RIVERS_AND_CHANNELS
 10
678635.11475556786
 20
4799205.6410904136
 30
0.0
  0
VERTEX
  5
5F6
  8
RIVERS_AND_CHANNELS
 10
678626.90001364076
 20
4799235.6000020336
 30
0.0
  0
VERTEX
  5
5F7
  8
RIVERS_AND_CHANNELS
 10
678625.93480223184
 20
4799265.7906848183
 30
0.0
  0
VERTEX
  5
5F8
  8
RIVERS_AND_CHANNELS
 10
678625.3421049465
 20
4799303.2464089952
 30
0.0
  0
VERTEX
  5
5F9
  8
RIVERS_AND_CHANNELS
 10
678601.18200702209
 20
4799331.0462240335
 30
0.0
  0
VERTEX
  5
5FA
  8
RIVERS_AND_CHANNELS
 10
678612.41271953634
 20
4799347.4256621832
 30
0.0
  0
VERTEX
  5
5FB
  8
RIVERS_AND_CHANNELS
 10
678646.19727329758
 20
4799360.2540850649
 30
0.0
  0
VERTEX
  5
5FC
  8
RIVERS_AND_CHANNELS
 10
678646.55855243385
 20
4799415.8029905679
 30
0.0
  0
VERTEX
  5
5FD
  8
RIVERS_AND_CHANNELS
 10
678645.43290582031
 20
4799451.0118987244
 30
0.0
  0
VERTEX
  5
5FE
  8
RIVERS_AND_CHANNELS
 10
678642.86453286884
 20
4799497.9229506329
 30
0.0
  0
VERTEX
  5
5FF
  8
RIVERS_AND_CHANNELS
 10
678637.9325349381
 20
4799585.3434908688
 30
0.0
  0
VERTEX
  5
600
  8
RIVERS_AND_CHANNELS
 10
678612.60565653862
 20
4799642.20721462
 30
0.0
  0
VERTEX
  5
601
  8
RIVERS_AND_CHANNELS
 10
678582.1801663416
 20
4799691.4317377117
 30
0.0
  0
VERTEX
  5
602
  8
RIVERS_AND_CHANNELS
 10
678572.96812243329
 20
4799745.606583559
 30
0.0
  0
VERTEX
  5
603
  8
RIVERS_AND_CHANNELS
 10
678551.45776759402
 20
4799783.3678595927
 30
0.0
  0
VERTEX
  5
604
  8
RIVERS_AND_CHANNELS
 10
678549.99101590225
 20
4799829.2461352237
 30
0.0
  0
VERTEX
  5
605
  8
RIVERS_AND_CHANNELS
 10
678550.18174177827
 20
4799890.1297470173
 30
0.0
  0
VERTEX
  5
606
  8
RIVERS_AND_CHANNELS
 10
678555.10595046228
 20
4800003.4980137059
 30
0.0
  0
VERTEX
  5
607
  8
RIVERS_AND_CHANNELS
 10
678579.61053017527
 20
4800038.4878234258
 30
0.0
  0
VERTEX
  5
608
  8
RIVERS_AND_CHANNELS
 10
678574.65365975443
 20
4800075.913116199
 30
0.0
  0
VERTEX
  5
609
  8
RIVERS_AND_CHANNELS
 10
678557.60824726475
 20
4800109.1935374578
 30
0.0
  0
VERTEX
  5
60A
  8
RIVERS_AND_CHANNELS
 10
678541.44199187565
 20
4800144.3812631695
 30
0.0
  0
VERTEX
  5
60B
  8
RIVERS_AND_CHANNELS
 10
678537.45421749773
 20
4800180.8979623308
 30
0.0
  0
VERTEX
  5
60C
  8
RIVERS_AND_CHANNELS
 10
678493.72318950994
 20
4800225.539946015
 30
0.0
  0
VERTEX
  5
60D
  8
RIVERS_AND_CHANNELS
 10
678456.44608754758
 20
4800274.1467048386
 30
0.0
  0
VERTEX
  5
60E
  8
RIVERS_AND_CHANNELS
 10
678430.55842463288
 20
4800319.3591499366
 30
0.0
  0
VERTEX
  5
60F
  8
RIVERS_AND_CHANNELS
 10
678391.16290463682
 20
4800375.4149261173
 30
0.0
  0
VERTEX
  5
610
  8
RIVERS_AND_CHANNELS
 10
678368.21262599959
 20
4800416.9629313257
 30
0.0
  0
VERTEX
  5
611
  8
RIVERS_AND_CHANNELS
 10
678343.56422401778
 20
4800452.8190546138
 30
0.0
  0
VERTEX
  5
612
  8
RIVERS_AND_CHANNELS
 10
678270.75034983922
 20
4800495.5916688861
 30
0.0
  0
VERTEX
  5
613
  8
RIVERS_AND_CHANNELS
 10
678248.07014799432
 20
4800528.6919882316
 30
0.0
  0
VERTEX
  5
614
  8
RIVERS_AND_CHANNELS
 10
678202.19438038778
 20
4800570.9486133028
 30
0.0
  0
VERTEX
  5
615
  8
RIVERS_AND_CHANNELS
 10
678173.37412376096
 20
4800642.0464816904
 30
0.0
  0
VERTEX
  5
616
  8
RIVERS_AND_CHANNELS
 10
678167.52751393768
 20
4800706.297875151
 30
0.0
  0
VERTEX
  5
617
  8
RIVERS_AND_CHANNELS
 10
678131.2510538866
 20
4800773.3669104949
 30
0.0
  0
VERTEX
  5
618
  8
RIVERS_AND_CHANNELS
 10
678049.26941969269
 20
4800846.5556823313
 30
0.0
  0
VERTEX
  5
619
  8
RIVERS_AND_CHANNELS
 10
678032.17801999708
 20
4800906.6570745697
 30
0.0
  0
VERTEX
  5
61A
  8
RIVERS_AND_CHANNELS
 10
678013.99716576375
 20
4801000.8380424641
 30
0.0
  0
VERTEX
  5
61B
  8
RIVERS_AND_CHANNELS
 10
677992.99620438123
 20
4801064.6049436321
 30
0.0
  0
VERTEX
  5
61C
  8
RIVERS_AND_CHANNELS
 10
677920.44337237673
 20
4801198.7429719828
 30
0.0
  0
VERTEX
  5
61D
  8
RIVERS_AND_CHANNELS
 10
677902.74667185801
 20
4801277.7774652811
 30
0.0
  0
VERTEX
  5
61E
  8
RIVERS_AND_CHANNELS
 10
677854.98347433971
 20
4801348.2697634129
 30
0.0
  0
VERTEX
  5
61F
  8
RIVERS_AND_CHANNELS
 10
677822.13242226152
 20
4801426.8197644204
 30
0.0
  0
VERTEX
  5
620
  8
RIVERS_AND_CHANNELS
 10
677804.43580984045
 20
4801505.8542153817
 30
0.0
  0
VERTEX
  5
621
  8
RIVERS_AND_CHANNELS
 10
677783.3137880048
 20
4801573.4077457841
 30
0.0
  0
VERTEX
  5
622
  8
RIVERS_AND_CHANNELS
 10
677811.32234972646
 20
4801646.3224602528
 30
0.0
  0
VERTEX
  5
623
  8
RIVERS_AND_CHANNELS
 10
677815.87302283279
 20
4801741.2301665787
 30
0.0
  0
VERTEX
  5
624
  8
RIVERS_AND_CHANNELS
 10
677802.57029768254
 20
4801801.4526846632
 30
0.0
  0
VERTEX
  5
625
  8
RIVERS_AND_CHANNELS
 10
677770.2035726303
 20
4801864.856216616
 30
0.0
  0
VERTEX
  5
626
  8
RIVERS_AND_CHANNELS
 10
677711.19558523968
 20
4801931.1985135283
 30
0.0
  0
VERTEX
  5
627
  8
RIVERS_AND_CHANNELS
 10
677655.97618573927
 20
4801997.6619335087
 30
0.0
  0
VERTEX
  5
628
  8
RIVERS_AND_CHANNELS
 10
677620.86538201675
 20
4802049.1491374709
 30
0.0
  0
VERTEX
  5
629
  8
RIVERS_AND_CHANNELS
 10
677641.24610853335
 20
4802113.3264133222
 30
0.0
  0
VERTEX
  5
62A
  8
RIVERS_AND_CHANNELS
 10
677647.64189424342
 20
4802147.1621420952
 30
0.0
  0
VERTEX
  5
62B
  8
RIVERS_AND_CHANNELS
 10
677642.59414589277
 20
4802188.1055917861
 30
0.0
  0
VERTEX
  5
62C
  8
RIVERS_AND_CHANNELS
 10
677600.31634848495
 20
4802224.1220122958
 30
0.0
  0
VERTEX
  5
62D
  8
RIVERS_AND_CHANNELS
 10
677598.76485519775
 20
4802272.6509058373
 30
0.0
  0
VERTEX
  5
62E
  8
RIVERS_AND_CHANNELS
 10
677619.98108716658
 20
4802310.6972626038
 30
0.0
  0
VERTEX
  5
62F
  8
RIVERS_AND_CHANNELS
 10
677624.94464012422
 20
4802389.3288417561
 30
0.0
  0
VERTEX
  5
630
  8
RIVERS_AND_CHANNELS
 10
677600.86419973231
 20
4802440.8742842777
 30
0.0
  0
VERTEX
  5
631
  8
RIVERS_AND_CHANNELS
 10
677643.41592276294
 20
4802513.233999759
 30
0.0
  0
VERTEX
  5
632
  8
RIVERS_AND_CHANNELS
 10
677689.82185288833
 20
4802581.9801253648
 30
0.0
  0
VERTEX
  5
633
  8
RIVERS_AND_CHANNELS
 10
677688.27036104293
 20
4802630.5089737969
 30
0.0
  0
VERTEX
  5
634
  8
RIVERS_AND_CHANNELS
 10
677657.54396606365
 20
4802740.7950589079
 30
0.0
  0
VERTEX
  5
635
  8
RIVERS_AND_CHANNELS
 10
677658.47496966855
 20
4802792.4426726094
 30
0.0
  0
VERTEX
  5
636
  8
RIVERS_AND_CHANNELS
 10
677632.65379678295
 20
4802884.66368296
 30
0.0
  0
VERTEX
  5
637
  8
RIVERS_AND_CHANNELS
 10
677637.22087189136
 20
4802951.9610286681
 30
0.0
  0
VERTEX
  5
638
  8
RIVERS_AND_CHANNELS
 10
677646.19101320696
 20
4803021.6374993613
 30
0.0
  0
VERTEX
  5
639
  8
RIVERS_AND_CHANNELS
 10
677645.11867962976
 20
4803055.1788381599
 30
0.0
  0
VERTEX
  5
63A
  8
RIVERS_AND_CHANNELS
 10
677642.47358696652
 20
4803137.9142397754
 30
0.0
  0
VERTEX
  5
63B
  8
RIVERS_AND_CHANNELS
 10
677640.11445050105
 20
4803211.7052663295
 30
0.0
  0
VERTEX
  5
63C
  8
RIVERS_AND_CHANNELS
 10
677628.52033542295
 20
4803294.1545631681
 30
0.0
  0
VERTEX
  5
63D
  8
RIVERS_AND_CHANNELS
 10
677626.87608945102
 20
4803345.5846520839
 30
0.0
  0
VERTEX
  5
63E
  8
RIVERS_AND_CHANNELS
 10
677632.51549957856
 20
4803379.340613883
 30
0.0
  0
VERTEX
  5
63F
  8
RIVERS_AND_CHANNELS
 10
677648.50446113967
 20
4803509.6776533211
 30
0.0
  0
VERTEX
  5
640
  8
RIVERS_AND_CHANNELS
 10
677658.04651484976
 20
4803561.465373897
 30
0.0
  0
VERTEX
  5
641
  8
RIVERS_AND_CHANNELS
 10
677681.15512216708
 20
4803609.2101106048
 30
0.0
  0
VERTEX
  5
642
  8
RIVERS_AND_CHANNELS
 10
677691.93352124025
 20
4803692.3746228889
 30
0.0
  0
VERTEX
  5
643
  8
RIVERS_AND_CHANNELS
 10
677728.10826098185
 20
4803751.7289644098
 30
0.0
  0
VERTEX
  5
644
  8
RIVERS_AND_CHANNELS
 10
677764.35440383817
 20
4803808.8471868439
 30
0.0
  0
VERTEX
  5
645
  8
RIVERS_AND_CHANNELS
 10
677745.190589807
 20
4803917.9149830854
 30
0.0
  0
VERTEX
  5
646
  8
RIVERS_AND_CHANNELS
 10
677714.9835408479
 20
4804022.1529629054
 30
0.0
  0
VERTEX
  5
647
  8
RIVERS_AND_CHANNELS
 10
677730.64637715765
 20
4804140.7215541238
 30
0.0
  0
VERTEX
  5
648
  8
RIVERS_AND_CHANNELS
 10
677727.73324400373
 20
4804231.8409484597
 30
0.0
  0
VERTEX
  5
649
  8
RIVERS_AND_CHANNELS
 10
677660.37539617647
 20
4804292.7793326648
 30
0.0
  0
VERTEX
  5
64A
  8
RIVERS_AND_CHANNELS
 10
677633.17800731957
 20
4804309.2141297441
 30
0.0
  0
VERTEX
  5
64B
  8
RIVERS_AND_CHANNELS
 10
677598.70009537297
 20
4804333.8344650296
 30
0.0
  0
VERTEX
  5
64C
  8
RIVERS_AND_CHANNELS
 10
677570.30784739845
 20
4804387.6457696119
 30
0.0
  0
VERTEX
  5
64D
  8
RIVERS_AND_CHANNELS
 10
677573.01674684742
 20
4804420.0025779959
 30
0.0
  0
VERTEX
  5
64E
  8
RIVERS_AND_CHANNELS
 10
677499.13510040496
 20
4804551.217759206
 30
0.0
  0
VERTEX
  5
64F
  8
RIVERS_AND_CHANNELS
 10
677494.76358524791
 20
4804635.2621306507
 30
0.0
  0
VERTEX
  5
650
  8
RIVERS_AND_CHANNELS
 10
677470.95876250567
 20
4804688.9473639922
 30
0.0
  0
VERTEX
  5
651
  8
RIVERS_AND_CHANNELS
 10
677463.43312268378
 20
4804737.5841842368
 30
0.0
  0
VERTEX
  5
652
  8
RIVERS_AND_CHANNELS
 10
677482.66058503417
 20
4804890.4416063763
 30
0.0
  0
VERTEX
  5
653
  8
RIVERS_AND_CHANNELS
 10
677480.380874436
 20
4804961.7482847888
 30
0.0
  0
VERTEX
  5
654
  8
RIVERS_AND_CHANNELS
 10
677478.39532004402
 20
4805023.8541014688
 30
0.0
  0
VERTEX
  5
655
  8
RIVERS_AND_CHANNELS
 10
677476.40976565215
 20
4805085.9599181516
 30
0.0
  0
VERTEX
  5
656
  8
RIVERS_AND_CHANNELS
 10
677471.60803684441
 20
4805164.0936207511
 30
0.0
  0
VERTEX
  5
657
  8
RIVERS_AND_CHANNELS
 10
677456.25521512248
 20
4805211.9566800492
 30
0.0
  0
VERTEX
  5
658
  8
RIVERS_AND_CHANNELS
 10
677474.56282745115
 20
4805359.9062405359
 30
0.0
  0
VERTEX
  5
659
  8
RIVERS_AND_CHANNELS
 10
677507.66722036689
 20
4805492.5793120572
 30
0.0
  0
VERTEX
  5
65A
  8
RIVERS_AND_CHANNELS
 10
677472.48887367966
 20
4805578.9363659183
 30
0.0
  0
VERTEX
  5
65B
  8
RIVERS_AND_CHANNELS
 10
677450.47113296867
 20
4805659.2339948537
 30
0.0
  0
VERTEX
  5
65C
  8
RIVERS_AND_CHANNELS
 10
677395.24117721908
 20
4805764.3903816417
 30
0.0
  0
VERTEX
  5
65D
  8
RIVERS_AND_CHANNELS
 10
677359.54542814975
 20
4805866.9311762471
 30
0.0
  0
VERTEX
  5
65E
  8
RIVERS_AND_CHANNELS
 10
677320.71457434096
 20
4805966.1317196172
 30
0.0
  0
VERTEX
  5
65F
  8
RIVERS_AND_CHANNELS
 10
677328.56732757925
 20
4806024.7039100034
 30
0.0
  0
VERTEX
  5
660
  8
RIVERS_AND_CHANNELS
 10
677375.07430826686
 20
4806090.9920266084
 30
0.0
  0
VERTEX
  5
661
  8
RIVERS_AND_CHANNELS
 10
677393.05630347366
 20
4806136.9277919764
 30
0.0
  0
VERTEX
  5
662
  8
RIVERS_AND_CHANNELS
 10
677254.17471394746
 20
4806323.6514516007
 30
0.0
  0
VERTEX
  5
663
  8
RIVERS_AND_CHANNELS
 10
677209.2809631381
 20
4806409.6978539247
 30
0.0
  0
VERTEX
  5
664
  8
RIVERS_AND_CHANNELS
 10
677154.77537274291
 20
4806492.1969405217
 30
0.0
  0
VERTEX
  5
665
  8
RIVERS_AND_CHANNELS
 10
677097.13485236152
 20
4806571.355736319
 30
0.0
  0
VERTEX
  5
666
  8
RIVERS_AND_CHANNELS
 10
677013.48321858456
 20
4806652.9230091581
 30
0.0
  0
VERTEX
  5
667
  8
RIVERS_AND_CHANNELS
 10
676968.79642786295
 20
4806732.495942248
 30
0.0
  0
VERTEX
  5
668
  8
RIVERS_AND_CHANNELS
 10
676946.89803679753
 20
4806806.9305450944
 30
0.0
  0
VERTEX
  5
669
  8
RIVERS_AND_CHANNELS
 10
676917.37188110349
 20
4806874.3755543111
 30
0.0
  0
VERTEX
  5
66A
  8
RIVERS_AND_CHANNELS
 10
676874.61167171248
 20
4806927.7196961548
 30
0.0
  0
VERTEX
  5
66B
  8
RIVERS_AND_CHANNELS
 10
676872.42747405497
 20
4806996.0388416089
 30
0.0
  0
VERTEX
  5
66C
  8
RIVERS_AND_CHANNELS
 10
676874.80024051853
 20
4807064.5036755139
 30
0.0
  0
VERTEX
  5
66D
  8
RIVERS_AND_CHANNELS
 10
676872.61604286102
 20
4807132.8228209689
 30
0.0
  0
VERTEX
  5
66E
  8
RIVERS_AND_CHANNELS
 10
676892.77991235559
 20
4807215.5342585752
 30
0.0
  0
VERTEX
  5
66F
  8
RIVERS_AND_CHANNELS
 10
676935.72877576575
 20
4807298.974143968
 30
0.0
  0
VERTEX
  5
670
  8
RIVERS_AND_CHANNELS
 10
676959.86715638405
 20
4807400.0497178324
 30
0.0
  0
VERTEX
  5
671
  8
RIVERS_AND_CHANNELS
 10
676955.64437395777
 20
4807532.1334080659
 30
0.0
  0
VERTEX
  5
672
  8
RIVERS_AND_CHANNELS
 10
676949.19443795714
 20
4807591.1976637226
 30
0.0
  0
VERTEX
  5
673
  8
RIVERS_AND_CHANNELS
 10
676937.16824617214
 20
4807681.9984807614
 30
0.0
  0
VERTEX
  5
674
  8
RIVERS_AND_CHANNELS
 10
676934.98404851451
 20
4807750.3176262164
 30
0.0
  0
VERTEX
  5
675
  8
RIVERS_AND_CHANNELS
 10
676944.72338422853
 20
4807873.7291804487
 30
0.0
  0
VERTEX
  5
676
  8
RIVERS_AND_CHANNELS
 10
676942.2479593514
 20
4807951.1575723616
 30
0.0
  0
VERTEX
  5
677
  8
RIVERS_AND_CHANNELS
 10
676995.76688421727
 20
4807989.3426925763
 30
0.0
  0
VERTEX
  5
678
  8
RIVERS_AND_CHANNELS
 10
677118.36868196342
 20
4808006.9401472341
 30
0.0
  0
VERTEX
  5
679
  8
RIVERS_AND_CHANNELS
 10
677179.86544842133
 20
4808042.7087083431
 30
0.0
  0
VERTEX
  5
67A
  8
RIVERS_AND_CHANNELS
 10
677185.7028581223
 20
4808095.5563429911
 30
0.0
  0
VERTEX
  5
67B
  8
RIVERS_AND_CHANNELS
 10
677178.44749201392
 20
4808165.5390498228
 30
0.0
  0
VERTEX
  5
67C
  8
RIVERS_AND_CHANNELS
 10
677151.5413075547
 20
4808222.3551722486
 30
0.0
  0
VERTEX
  5
67D
  8
RIVERS_AND_CHANNELS
 10
677137.99173590238
 20
4808332.2593220556
 30
0.0
  0
VERTEX
  5
67E
  8
RIVERS_AND_CHANNELS
 10
677131.93771145854
 20
4808364.6654681582
 30
0.0
  0
SEQEND
  5
67F
  8
RIVERS_AND_CHANNELS
  0
POLYLINE
  5
7E
  8
RIVERS_AND_CHANNELS
 66
     1
 10
0.0
 20
0.0
 30
0.0
  0
VERTEX
  5
680
  8
RIVERS_AND_CHANNELS
 10
674391.95824592945
 20
4800125.2025517421
 30
0.0
  0
VERTEX
  5
681
  8
RIVERS_AND_CHANNELS
 10
674403.30006494885
 20
4800177.6066824654
 30
0.0
  0
VERTEX
  5
682
  8
RIVERS_AND_CHANNELS
 10
674406.38809661765
 20
4800216.7366058473
 30
0.0
  0
VERTEX
  5
683
  8
RIVERS_AND_CHANNELS
 10
674427.36867989576
 20
4800239.0913527003
 30
0.0
  0
VERTEX
  5
684
  8
RIVERS_AND_CHANNELS
 10
674452.26844419097
 20
4800274.5817795107
 30
0.0
  0
VERTEX
  5
685
  8
RIVERS_AND_CHANNELS
 10
674450.74485645222
 20
4800322.2378201419
 30
0.0
  0
VERTEX
  5
686
  8
RIVERS_AND_CHANNELS
 10
674406.15193640348
 20
4800359.8433593642
 30
0.0
  0
VERTEX
  5
687
  8
RIVERS_AND_CHANNELS
 10
674370.08982011187
 20
4800402.0583570553
 30
0.0
  0
VERTEX
  5
688
  8
RIVERS_AND_CHANNELS
 10
674362.70803830179
 20
4800497.2319109319
 30
0.0
  0
VERTEX
  5
689
  8
RIVERS_AND_CHANNELS
 10
674360.76892678638
 20
4800557.8850488141
 30
0.0
  0
VERTEX
  5
68A
  8
RIVERS_AND_CHANNELS
 10
674323.46023583028
 20
4800639.0914425021
 30
0.0
  0
VERTEX
  5
68B
  8
RIVERS_AND_CHANNELS
 10
674251.89003272832
 20
4800706.1920443736
 30
0.0
  0
VERTEX
  5
68C
  8
RIVERS_AND_CHANNELS
 10
674196.6888919574
 20
4800804.1735656718
 30
0.0
  0
VERTEX
  5
68D
  8
RIVERS_AND_CHANNELS
 10
674136.46050787426
 20
4800923.6782982675
 30
0.0
  0
VERTEX
  5
68E
  8
RIVERS_AND_CHANNELS
 10
674087.25596675172
 20
4800969.8100068597
 30
0.0
  0
VERTEX
  5
68F
  8
RIVERS_AND_CHANNELS
 10
674001.29686928063
 20
4801079.8185624722
 30
0.0
  0
VERTEX
  5
690
  8
RIVERS_AND_CHANNELS
 10
673886.10330272035
 20
4801154.198108566
 30
0.0
  0
VERTEX
  5
691
  8
RIVERS_AND_CHANNELS
 10
673840.26391313365
 20
4801230.7948906226
 30
0.0
  0
VERTEX
  5
692
  8
RIVERS_AND_CHANNELS
 10
673830.62514720892
 20
4801260.8443266172
 30
0.0
  0
VERTEX
  5
693
  8
RIVERS_AND_CHANNELS
 10
673756.65945095511
 20
4801267.1532111019
 30
0.0
  0
VERTEX
  5
694
  8
RIVERS_AND_CHANNELS
 10
673711.23548335198
 20
4801330.752944828
 30
0.0
  0
VERTEX
  5
695
  8
RIVERS_AND_CHANNELS
 10
673660.36894724786
 20
4801428.8730456298
 30
0.0
  0
VERTEX
  5
696
  8
RIVERS_AND_CHANNELS
 10
673642.33788993536
 20
4801449.9805184128
 30
0.0
  0
VERTEX
  5
697
  8
RIVERS_AND_CHANNELS
 10
673526.86740709527
 20
4801533.0248165857
 30
0.0
  0
VERTEX
  5
698
  8
RIVERS_AND_CHANNELS
 10
673398.94704294112
 20
4801598.3238752894
 30
0.0
  0
VERTEX
  5
699
  8
RIVERS_AND_CHANNELS
 10
673311.28489237558
 20
4801625.878864184
 30
0.0
  0
VERTEX
  5
69A
  8
RIVERS_AND_CHANNELS
 10
673160.07016417675
 20
4801876.9154679328
 30
0.0
  0
VERTEX
  5
69B
  8
RIVERS_AND_CHANNELS
 10
673008.95308882266
 20
4801989.1776665421
 30
0.0
  0
VERTEX
  5
69C
  8
RIVERS_AND_CHANNELS
 10
672839.05887741526
 20
4802204.4624277083
 30
0.0
  0
VERTEX
  5
69D
  8
RIVERS_AND_CHANNELS
 10
672803.36678951723
 20
4802270.4511865675
 30
0.0
  0
VERTEX
  5
69E
  8
RIVERS_AND_CHANNELS
 10
672807.93242798652
 20
4802337.7269531377
 30
0.0
  0
VERTEX
  5
69F
  8
RIVERS_AND_CHANNELS
 10
672816.71042070969
 20
4802378.285439183
 30
0.0
  0
VERTEX
  5
6A0
  8
RIVERS_AND_CHANNELS
 10
672740.2246133656
 20
4802459.7524262974
 30
0.0
  0
VERTEX
  5
6A1
  8
RIVERS_AND_CHANNELS
 10
672705.95770237991
 20
4802586.2035486326
 30
0.0
  0
VERTEX
  5
6A2
  8
RIVERS_AND_CHANNELS
 10
672677.40403306135
 20
4802638.9945244491
 30
0.0
  0
VERTEX
  5
6A3
  8
RIVERS_AND_CHANNELS
 10
672612.26899688412
 20
4802680.5465001138
 30
0.0
  0
VERTEX
  5
6A4
  8
RIVERS_AND_CHANNELS
 10
672575.39771921316
 20
4802783.4189344654
 30
0.0
  0
VERTEX
  5
6A5
  8
RIVERS_AND_CHANNELS
 10
672464.07731943624
 20
4802904.0500912061
 30
0.0
  0
VERTEX
  5
6A6
  8
RIVERS_AND_CHANNELS
 10
672406.64838328538
 20
4803019.6912365379
 30
0.0
  0
VERTEX
  5
6A7
  8
RIVERS_AND_CHANNELS
 10
672343.90341502207
 20
4803091.5280498955
 30
0.0
  0
VERTEX
  5
6A8
  8
RIVERS_AND_CHANNELS
 10
672277.160391276
 20
4803183.3759940686
 30
0.0
  0
VERTEX
  5
6A9
  8
RIVERS_AND_CHANNELS
 10
672262.24036242231
 20
4803229.8898433186
 30
0.0
  0
VERTEX
  5
6AA
  8
RIVERS_AND_CHANNELS
 10
672231.11381453311
 20
4803363.1543134302
 30
0.0
  0
VERTEX
  5
6AB
  8
RIVERS_AND_CHANNELS
 10
672185.57174442185
 20
4803422.1151624229
 30
0.0
  0
VERTEX
  5
6AC
  8
RIVERS_AND_CHANNELS
 10
672085.92381178564
 20
4803492.772169333
 30
0.0
  0
VERTEX
  5
6AD
  8
RIVERS_AND_CHANNELS
 10
672001.08870938746
 20
4803520.2683741841
 30
0.0
  0
VERTEX
  5
6AE
  8
RIVERS_AND_CHANNELS
 10
671868.6746547186
 20
4803670.4335821113
 30
0.0
  0
VERTEX
  5
6AF
  8
RIVERS_AND_CHANNELS
 10
671783.94675260247
 20
4803694.5766876508
 30
0.0
  0
VERTEX
  5
6B0
  8
RIVERS_AND_CHANNELS
 10
671735.80021567887
 20
4803729.958845458
 30
0.0
  0
VERTEX
  5
6B1
  8
RIVERS_AND_CHANNELS
 10
671565.88715016562
 20
4803931.531191363
 30
0.0
  0
VERTEX
  5
6B2
  8
RIVERS_AND_CHANNELS
 10
671425.1095826258
 20
4804089.1692212997
 30
0.0
  0
VERTEX
  5
6B3
  8
RIVERS_AND_CHANNELS
 10
671350.9826537862
 20
4804118.4256073497
 30
0.0
  0
VERTEX
  5
6B4
  8
RIVERS_AND_CHANNELS
 10
671227.72733653651
 20
4804198.5608636886
 30
0.0
  0
VERTEX
  5
6B5
  8
RIVERS_AND_CHANNELS
 10
671125.42531960644
 20
4804195.290216432
 30
0.0
  0
VERTEX
  5
6B6
  8
RIVERS_AND_CHANNELS
 10
671062.49620623805
 20
4804218.8666319139
 30
0.0
  0
VERTEX
  5
6B7
  8
RIVERS_AND_CHANNELS
 10
670715.819270532
 20
4804423.455926531
 30
0.0
  0
VERTEX
  5
6B8
  8
RIVERS_AND_CHANNELS
 10
670689.54330439924
 20
4804444.5486766202
 30
0.0
  0
VERTEX
  5
6B9
  8
RIVERS_AND_CHANNELS
 10
670677.9986461869
 20
4804462.4569090176
 30
0.0
  0
VERTEX
  5
6BA
  8
RIVERS_AND_CHANNELS
 10
670634.38846264558
 20
4804453.7517514275
 30
0.0
  0
VERTEX
  5
6BB
  8
RIVERS_AND_CHANNELS
 10
670463.28548328718
 20
4804543.3236968052
 30
0.0
  0
VERTEX
  5
6BC
  8
RIVERS_AND_CHANNELS
 10
670432.4218935814
 20
4804593.5135543961
 30
0.0
  0
VERTEX
  5
6BD
  8
RIVERS_AND_CHANNELS
 10
670177.16834834428
 20
4804684.0506486529
 30
0.0
  0
VERTEX
  5
6BE
  8
RIVERS_AND_CHANNELS
 10
670125.20015463326
 20
4804707.9774902863
 30
0.0
  0
SEQEND
  5
6BF
  8
RIVERS_AND_CHANNELS
  0
POLYLINE
  5
7F
  8
RIVERS_AND_CHANNELS
 66
     1
 10
0.0
 20
0.0
 30
0.0
  0
VERTEX
  5
6C0
  8
RIVERS_AND_CHANNELS
 10
671413.56162381591
 20
4804105.8044006191
 30
0.0
  0
VERTEX
  5
6C1
  8
RIVERS_AND_CHANNELS
 10
671362.09477700258
 20
4804228.4449498532
 30
0.0
  0
VERTEX
  5
6C2
  8
RIVERS_AND_CHANNELS
 10
671360.34355800576
 20
4804283.2210297314
 30
0.0
  0
VERTEX
  5
6C3
  8
RIVERS_AND_CHANNELS
 10
671330.18045689852
 20
4804311.5004240973
 30
0.0
  0
VERTEX
  5
6C4
  8
RIVERS_AND_CHANNELS
 10
671299.31686719286
 20
4804361.6902816892
 30
0.0
  0
VERTEX
  5
6C5
  8
RIVERS_AND_CHANNELS
 10
671186.32188087492
 20
4804464.0864241999
 30
0.0
  0
VERTEX
  5
6C6
  8
RIVERS_AND_CHANNELS
 10
671113.28353833989
 20
4804575.0709187854
 30
0.0
  0
VERTEX
  5
6C7
  8
RIVERS_AND_CHANNELS
 10
671110.71508569992
 20
4804655.4091102034
 30
0.0
  0
VERTEX
  5
6C8
  8
RIVERS_AND_CHANNELS
 10
671058.78134717012
 20
4804792.6566207474
 30
0.0
  0
VERTEX
  5
6C9
  8
RIVERS_AND_CHANNELS
 10
671078.71847239987
 20
4804855.4370059175
 30
0.0
  0
VERTEX
  5
6CA
  8
RIVERS_AND_CHANNELS
 10
670796.70858635288
 20
4805325.2875676649
 30
0.0
  0
VERTEX
  5
6CB
  8
RIVERS_AND_CHANNELS
 10
670685.96636618394
 20
4805471.6213442972
 30
0.0
  0
VERTEX
  5
6CC
  8
RIVERS_AND_CHANNELS
 10
670683.39791187784
 20
4805551.9595878366
 30
0.0
  0
VERTEX
  5
6CD
  8
RIVERS_AND_CHANNELS
 10
670598.54686073354
 20
4805574.8350957008
 30
0.0
  0
VERTEX
  5
6CE
  8
RIVERS_AND_CHANNELS
 10
670473.27227242372
 20
4805603.7292649206
 30
0.0
  0
VERTEX
  5
6CF
  8
RIVERS_AND_CHANNELS
 10
670248.06518170994
 20
4805669.6386684477
 30
0.0
  0
VERTEX
  5
6D0
  8
RIVERS_AND_CHANNELS
 10
670216.96809691563
 20
4805727.1319790361
 30
0.0
  0
VERTEX
  5
6D1
  8
RIVERS_AND_CHANNELS
 10
670212.38047334296
 20
4805756.2290865378
 30
0.0
  0
VERTEX
  5
6D2
  8
RIVERS_AND_CHANNELS
 10
670196.36493993504
 20
4805799.5826738793
 30
0.0
  0
VERTEX
  5
6D3
  8
RIVERS_AND_CHANNELS
 10
670174.32625211542
 20
4805802.5335709378
 30
0.0
  0
VERTEX
  5
6D4
  8
RIVERS_AND_CHANNELS
 10
670138.20251345925
 20
4805857.6926494259
 30
0.0
  0
VERTEX
  5
6D5
  8
RIVERS_AND_CHANNELS
 10
670099.42571294704
 20
4805862.884717186
 30
0.0
  0
VERTEX
  5
6D6
  8
RIVERS_AND_CHANNELS
 10
670094.36267314455
 20
4805920.6089366889
 30
0.0
  0
VERTEX
  5
6D7
  8
RIVERS_AND_CHANNELS
 10
670042.8314544243
 20
4805922.1773223076
 30
0.0
  0
VERTEX
  5
6D8
  8
RIVERS_AND_CHANNELS
 10
669949.1339461864
 20
4806034.9538882701
 30
0.0
  0
VERTEX
  5
6D9
  8
RIVERS_AND_CHANNELS
 10
669877.39265695168
 20
4806064.8191914316
 30
0.0
  0
VERTEX
  5
6DA
  8
RIVERS_AND_CHANNELS
 10
669863.91927716427
 20
4806083.6837857515
 30
0.0
  0
VERTEX
  5
6DB
  8
RIVERS_AND_CHANNELS
 10
669858.65082167182
 20
4806147.8331675362
 30
0.0
  0
VERTEX
  5
6DC
  8
RIVERS_AND_CHANNELS
 10
669885.73060283286
 20
4806206.5849571181
 30
0.0
  0
SEQEND
  5
6DD
  8
RIVERS_AND_CHANNELS
  0
POLYLINE
  5
80
  8
RIVERS_AND_CHANNELS
 66
     1
 10
0.0
 20
0.0
 30
0.0
  0
VERTEX
  5
6DE
  8
RIVERS_AND_CHANNELS
 10
677663.74574787263
 20
4799588.079911381
 30
0.0
  0
VERTEX
  5
6DF
  8
RIVERS_AND_CHANNELS
 10
677622.67327455117
 20
4799600.3201107122
 30
0.0
  0
VERTEX
  5
6E0
  8
RIVERS_AND_CHANNELS
 10
677607.48188782821
 20
4799651.3370535029
 30
0.0
  0
VERTEX
  5
6E1
  8
RIVERS_AND_CHANNELS
 10
677600.67804276943
 20
4799694.4901138199
 30
0.0
  0
VERTEX
  5
6E2
  8
RIVERS_AND_CHANNELS
 10
677563.29279454984
 20
4799761.0614761347
 30
0.0
  0
VERTEX
  5
6E3
  8
RIVERS_AND_CHANNELS
 10
677529.30937039852
 20
4799806.0562529694
 30
0.0
  0
VERTEX
  5
6E4
  8
RIVERS_AND_CHANNELS
 10
677454.25347125961
 20
4799863.2912812568
 30
0.0
  0
VERTEX
  5
6E5
  8
RIVERS_AND_CHANNELS
 10
677451.91600587533
 20
4799936.4044617629
 30
0.0
  0
VERTEX
  5
6E6
  8
RIVERS_AND_CHANNELS
 10
677444.15986078326
 20
4800009.3443521634
 30
0.0
  0
VERTEX
  5
6E7
  8
RIVERS_AND_CHANNELS
 10
677390.51876869542
 20
4800075.3960069232
 30
0.0
  0
VERTEX
  5
6E8
  8
RIVERS_AND_CHANNELS
 10
677340.01978248567
 20
4800127.9947571335
 30
0.0
  0
VERTEX
  5
6E9
  8
RIVERS_AND_CHANNELS
 10
677308.05301538575
 20
4800194.7393510342
 30
0.0
  0
VERTEX
  5
6EA
  8
RIVERS_AND_CHANNELS
 10
677278.53597090894
 20
4800269.6942480579
 30
0.0
  0
VERTEX
  5
6EB
  8
RIVERS_AND_CHANNELS
 10
677249.45169162308
 20
4800331.1096215406
 30
0.0
  0
VERTEX
  5
6EC
  8
RIVERS_AND_CHANNELS
 10
677190.91135454294
 20
4800380.7406764524
 30
0.0
  0
VERTEX
  5
6ED
  8
RIVERS_AND_CHANNELS
 10
677118.56479609141
 20
4800438.0623237323
 30
0.0
  0
VERTEX
  5
6EE
  8
RIVERS_AND_CHANNELS
 10
677074.00382751005
 20
4800474.5869468627
 30
0.0
  0
VERTEX
  5
6EF
  8
RIVERS_AND_CHANNELS
 10
677024.54371406371
 20
4800494.6909733489
 30
0.0
  0
VERTEX
  5
6F0
  8
RIVERS_AND_CHANNELS
 10
677012.32128609158
 20
4800537.6708509997
 30
0.0
  0
VERTEX
  5
6F1
  8
RIVERS_AND_CHANNELS
 10
677002.37533682131
 20
4800594.2767637437
 30
0.0
  0
VERTEX
  5
6F2
  8
RIVERS_AND_CHANNELS
 10
676970.32209711825
 20
4800663.7292544879
 30
0.0
  0
VERTEX
  5
6F3
  8
RIVERS_AND_CHANNELS
 10
676889.67437281099
 20
4800726.2067799577
 30
0.0
  0
VERTEX
  5
6F4
  8
RIVERS_AND_CHANNELS
 10
676790.6675715216
 20
4800769.1227786914
 30
0.0
  0
VERTEX
  5
6F5
  8
RIVERS_AND_CHANNELS
 10
676704.77451155509
 20
4800826.0112852883
 30
0.0
  0
VERTEX
  5
6F6
  8
RIVERS_AND_CHANNELS
 10
676656.81161877816
 20
4800884.1124906978
 30
0.0
  0
VERTEX
  5
6F7
  8
RIVERS_AND_CHANNELS
 10
676607.98309882532
 20
4800969.29263575
 30
0.0
  0
VERTEX
  5
6F8
  8
RIVERS_AND_CHANNELS
 10
676575.21327531745
 20
4801052.9890591931
 30
0.0
  0
VERTEX
  5
6F9
  8
RIVERS_AND_CHANNELS
 10
676461.85548402893
 20
4801083.4033872019
 30
0.0
  0
VERTEX
  5
6FA
  8
RIVERS_AND_CHANNELS
 10
676369.78020721476
 20
4801087.26739123
 30
0.0
  0
VERTEX
  5
6FB
  8
RIVERS_AND_CHANNELS
 10
676239.62903660408
 20
4801110.3371291757
 30
0.0
  0
VERTEX
  5
6FC
  8
RIVERS_AND_CHANNELS
 10
676159.53166876349
 20
4801165.6417500563
 30
0.0
  0
VERTEX
  5
6FD
  8
RIVERS_AND_CHANNELS
 10
676095.4666002529
 20
4801252.0935170129
 30
0.0
  0
VERTEX
  5
6FE
  8
RIVERS_AND_CHANNELS
 10
676047.86867599504
 20
4801356.0909899771
 30
0.0
  0
VERTEX
  5
6FF
  8
RIVERS_AND_CHANNELS
 10
676011.34690646036
 20
4801433.2117843004
 30
0.0
  0
VERTEX
  5
700
  8
RIVERS_AND_CHANNELS
 10
675961.86958333035
 20
4801498.8547793636
 30
0.0
  0
VERTEX
  5
701
  8
RIVERS_AND_CHANNELS
 10
675894.30146413099
 20
4801550.59607956
 30
0.0
  0
VERTEX
  5
702
  8
RIVERS_AND_CHANNELS
 10
675879.9383922905
 20
4801625.0000064289
 30
0.0
  0
VERTEX
  5
703
  8
RIVERS_AND_CHANNELS
 10
675842.49186115456
 20
4801671.7152259257
 30
0.0
  0
VERTEX
  5
704
  8
RIVERS_AND_CHANNELS
 10
675823.00343564851
 20
4801719.004575151
 30
0.0
  0
VERTEX
  5
705
  8
RIVERS_AND_CHANNELS
 10
675829.87848658115
 20
4801785.1039230525
 30
0.0
  0
VERTEX
  5
706
  8
RIVERS_AND_CHANNELS
 10
675815.13285938685
 20
4801871.4737334894
 30
0.0
  0
VERTEX
  5
707
  8
RIVERS_AND_CHANNELS
 10
675704.22774801136
 20
4801966.7473384319
 30
0.0
  0
VERTEX
  5
708
  8
RIVERS_AND_CHANNELS
 10
675678.65768141591
 20
4802016.8367960677
 30
0.0
  0
VERTEX
  5
709
  8
RIVERS_AND_CHANNELS
 10
675656.36753350287
 20
4802058.0474896943
 30
0.0
  0
VERTEX
  5
70A
  8
RIVERS_AND_CHANNELS
 10
675601.05843586475
 20
4802101.1970923403
 30
0.0
  0
VERTEX
  5
70B
  8
RIVERS_AND_CHANNELS
 10
675539.09386327327
 20
4802165.0956548164
 30
0.0
  0
VERTEX
  5
70C
  8
RIVERS_AND_CHANNELS
 10
675520.37054847495
 20
4802188.4532369031
 30
0.0
  0
VERTEX
  5
70D
  8
RIVERS_AND_CHANNELS
 10
675501.07349993987
 20
4802229.7596736019
 30
0.0
  0
VERTEX
  5
70E
  8
RIVERS_AND_CHANNELS
 10
675469.70860989322
 20
4802273.6747846836
 30
0.0
  0
VERTEX
  5
70F
  8
RIVERS_AND_CHANNELS
 10
675453.59584078542
 20
4802309.0939412974
 30
0.0
  0
VERTEX
  5
710
  8
RIVERS_AND_CHANNELS
 10
675442.99087890284
 20
4802359.6618409054
 30
0.0
  0
VERTEX
  5
711
  8
RIVERS_AND_CHANNELS
 10
675423.31117655325
 20
4802412.9341058508
 30
0.0
  0
VERTEX
  5
712
  8
RIVERS_AND_CHANNELS
 10
675410.2870476176
 20
4802445.457466295
 30
0.0
  0
VERTEX
  5
713
  8
RIVERS_AND_CHANNELS
 10
675381.53270326136
 20
4802501.4341518991
 30
0.0
  0
VERTEX
  5
714
  8
RIVERS_AND_CHANNELS
 10
675321.19398967363
 20
4802514.4777483009
 30
0.0
  0
VERTEX
  5
715
  8
RIVERS_AND_CHANNELS
 10
675308.18710704381
 20
4802579.1290031774
 30
0.0
  0
VERTEX
  5
716
  8
RIVERS_AND_CHANNELS
 10
675260.90012131829
 20
4802656.6500504073
 30
0.0
  0
VERTEX
  5
717
  8
RIVERS_AND_CHANNELS
 10
675228.12486473739
 20
4802692.4841399174
 30
0.0
  0
VERTEX
  5
718
  8
RIVERS_AND_CHANNELS
 10
675205.71380561998
 20
4802733.9184998889
 30
0.0
  0
VERTEX
  5
719
  8
RIVERS_AND_CHANNELS
 10
675196.63654229022
 20
4802770.5102784084
 30
0.0
  0
VERTEX
  5
71A
  8
RIVERS_AND_CHANNELS
 10
675174.14134662272
 20
4802814.5763311451
 30
0.0
  0
VERTEX
  5
71B
  8
RIVERS_AND_CHANNELS
 10
675146.88469074073
 20
4802842.6836008038
 30
0.0
  0
VERTEX
  5
71C
  8
RIVERS_AND_CHANNELS
 10
675135.6792112455
 20
4802863.4007823914
 30
0.0
  0
VERTEX
  5
71D
  8
RIVERS_AND_CHANNELS
 10
675118.19778864714
 20
4802915.5304324701
 30
0.0
  0
VERTEX
  5
71E
  8
RIVERS_AND_CHANNELS
 10
675124.24608453456
 20
4802973.6812092094
 30
0.0
  0
VERTEX
  5
71F
  8
RIVERS_AND_CHANNELS
 10
675122.3109122332
 20
4803034.2111330852
 30
0.0
  0
VERTEX
  5
720
  8
RIVERS_AND_CHANNELS
 10
675103.0377245401
 20
4803059.939255611
 30
0.0
  0
VERTEX
  5
721
  8
RIVERS_AND_CHANNELS
 10
675074.85565174231
 20
4803116.9956179662
 30
0.0
  0
VERTEX
  5
722
  8
RIVERS_AND_CHANNELS
 10
675077.34528666502
 20
4803204.0113012549
 30
0.0
  0
VERTEX
  5
723
  8
RIVERS_AND_CHANNELS
 10
675038.12590901041
 20
4803276.5214043483
 30
0.0
  0
VERTEX
  5
724
  8
RIVERS_AND_CHANNELS
 10
675025.23757173435
 20
4803349.8732719533
 30
0.0
  0
VERTEX
  5
725
  8
RIVERS_AND_CHANNELS
 10
675028.23203428648
 20
4803421.0985380542
 30
0.0
  0
VERTEX
  5
726
  8
RIVERS_AND_CHANNELS
 10
675007.61274026404
 20
4803488.9344255803
 30
0.0
  0
VERTEX
  5
727
  8
RIVERS_AND_CHANNELS
 10
674976.12441781675
 20
4803566.9605640722
 30
0.0
  0
VERTEX
  5
728
  8
RIVERS_AND_CHANNELS
 10
674964.16159758356
 20
4803611.3633421827
 30
0.0
  0
VERTEX
  5
729
  8
RIVERS_AND_CHANNELS
 10
674925.27877279255
 20
4803673.3464657338
 30
0.0
  0
VERTEX
  5
72A
  8
RIVERS_AND_CHANNELS
 10
674908.97528188501
 20
4803688.6317916624
 30
0.0
  0
VERTEX
  5
72B
  8
RIVERS_AND_CHANNELS
 10
674878.94109559397
 20
4803871.2465028083
 30
0.0
  0
VERTEX
  5
72C
  8
RIVERS_AND_CHANNELS
 10
674869.79250013526
 20
4803950.3487343322
 30
0.0
  0
VERTEX
  5
72D
  8
RIVERS_AND_CHANNELS
 10
674854.55927801039
 20
4804012.7158408398
 30
0.0
  0
VERTEX
  5
72E
  8
RIVERS_AND_CHANNELS
 10
674815.75814550172
 20
4804087.5619568992
 30
0.0
  0
VERTEX
  5
72F
  8
RIVERS_AND_CHANNELS
 10
674826.97651351744
 20
4804150.7747863056
 30
0.0
  0
VERTEX
  5
730
  8
RIVERS_AND_CHANNELS
 10
674832.32166284253
 20
4804190.6430318113
 30
0.0
  0
VERTEX
  5
731
  8
RIVERS_AND_CHANNELS
 10
674817.40530236252
 20
4804243.0959419953
 30
0.0
  0
VERTEX
  5
732
  8
RIVERS_AND_CHANNELS
 10
674806.11240269383
 20
4804285.7403695034
 30
0.0
  0
VERTEX
  5
733
  8
RIVERS_AND_CHANNELS
 10
674814.97525877925
 20
4804319.1048601735
 30
0.0
  0
VERTEX
  5
734
  8
RIVERS_AND_CHANNELS
 10
674826.19372692227
 20
4804382.3176927818
 30
0.0
  0
VERTEX
  5
735
  8
RIVERS_AND_CHANNELS
 10
674824.29195295856
 20
4804441.8029557569
 30
0.0
  0
VERTEX
  5
736
  8
RIVERS_AND_CHANNELS
 10
674794.98760174552
 20
4804530.1851241207
 30
0.0
  0
VERTEX
  5
737
  8
RIVERS_AND_CHANNELS
 10
674783.4833942285
 20
4804579.4390137112
 30
0.0
  0
VERTEX
  5
738
  8
RIVERS_AND_CHANNELS
 10
674788.61713557865
 20
4804625.9167180974
 30
0.0
  0
VERTEX
  5
739
  8
RIVERS_AND_CHANNELS
 10
674824.14299144619
 20
4804653.5174206672
 30
0.0
  0
VERTEX
  5
73A
  8
RIVERS_AND_CHANNELS
 10
674837.05182557786
 20
4804663.8544491772
 30
0.0
  0
VERTEX
  5
73B
  8
RIVERS_AND_CHANNELS
 10
674811.26527958584
 20
4804745.7329180278
 30
0.0
  0
VERTEX
  5
73C
  8
RIVERS_AND_CHANNELS
 10
674809.68046906008
 20
4804795.3039357606
 30
0.0
  0
VERTEX
  5
73D
  8
RIVERS_AND_CHANNELS
 10
674876.79175821203
 20
4804870.2280166941
 30
0.0
  0
VERTEX
  5
73E
  8
RIVERS_AND_CHANNELS
 10
674874.78433199076
 20
4804933.0179585917
 30
0.0
  0
VERTEX
  5
73F
  8
RIVERS_AND_CHANNELS
 10
674860.18493161607
 20
4804975.5567277716
 30
0.0
  0
VERTEX
  5
740
  8
RIVERS_AND_CHANNELS
 10
674845.47997911111
 20
4805021.400179076
 30
0.0
  0
VERTEX
  5
741
  8
RIVERS_AND_CHANNELS
 10
674860.21615568071
 20
4805078.1092047263
 30
0.0
  0
VERTEX
  5
742
  8
RIVERS_AND_CHANNELS
 10
674864.50466397288
 20
4805151.0248095598
 30
0.0
  0
VERTEX
  5
743
  8
RIVERS_AND_CHANNELS
 10
674833.05610701058
 20
4805202.9492292302
 30
0.0
  0
VERTEX
  5
744
  8
RIVERS_AND_CHANNELS
 10
674802.03006728343
 20
4805241.6546694143
 30
0.0
  0
VERTEX
  5
745
  8
RIVERS_AND_CHANNELS
 10
674796.92754999769
 20
4805297.7294419799
 30
0.0
  0
VERTEX
  5
746
  8
RIVERS_AND_CHANNELS
 10
674821.37171391712
 20
4805361.3651067764
 30
0.0
  0
VERTEX
  5
747
  8
RIVERS_AND_CHANNELS
 10
674789.91014311579
 20
4805402.0529664559
 30
0.0
  0
VERTEX
  5
748
  8
RIVERS_AND_CHANNELS
 10
674797.61428593402
 20
4805434.3126662821
 30
0.0
  0
VERTEX
  5
749
  8
RIVERS_AND_CHANNELS
 10
674808.13427627366
 20
4805469.5726181325
 30
0.0
  0
VERTEX
  5
74A
  8
RIVERS_AND_CHANNELS
 10
674788.91508084431
 20
4805524.2540149456
 30
0.0
  0
VERTEX
  5
74B
  8
RIVERS_AND_CHANNELS
 10
674784.89090103051
 20
4805559.0489823176
 30
0.0
  0
VERTEX
  5
74C
  8
RIVERS_AND_CHANNELS
 10
674780.7736696318
 20
4805596.7513592578
 30
0.0
  0
VERTEX
  5
74D
  8
RIVERS_AND_CHANNELS
 10
674778.91469213099
 20
4805654.897998983
 30
0.0
  0
VERTEX
  5
74E
  8
RIVERS_AND_CHANNELS
 10
674777.42750879726
 20
4805701.4153524591
 30
0.0
  0
VERTEX
  5
74F
  8
RIVERS_AND_CHANNELS
 10
674769.56494362676
 20
4805765.1907190559
 30
0.0
  0
VERTEX
  5
750
  8
RIVERS_AND_CHANNELS
 10
674779.15544271655
 20
4805829.5240689488
 30
0.0
  0
VERTEX
  5
751
  8
RIVERS_AND_CHANNELS
 10
674797.751371708
 20
4805885.4143822556
 30
0.0
  0
VERTEX
  5
752
  8
RIVERS_AND_CHANNELS
 10
674822.81563066179
 20
4805921.1393739078
 30
0.0
  0
VERTEX
  5
753
  8
RIVERS_AND_CHANNELS
 10
674832.31328175357
 20
4805988.3800355364
 30
0.0
  0
VERTEX
  5
754
  8
RIVERS_AND_CHANNELS
 10
674827.3595122291
 20
4806052.2483456274
 30
0.0
  0
VERTEX
  5
755
  8
RIVERS_AND_CHANNELS
 10
674855.14676737285
 20
4806093.8810052834
 30
0.0
  0
VERTEX
  5
756
  8
RIVERS_AND_CHANNELS
 10
674888.19391672651
 20
4806153.143663723
 30
0.0
  0
VERTEX
  5
757
  8
RIVERS_AND_CHANNELS
 10
674894.41087787785
 20
4806231.9206649009
 30
0.0
  0
VERTEX
  5
758
  8
RIVERS_AND_CHANNELS
 10
674891.90125683555
 20
4806310.4186728308
 30
0.0
  0
VERTEX
  5
759
  8
RIVERS_AND_CHANNELS
 10
674870.33096117619
 20
4806347.563066477
 30
0.0
  0
VERTEX
  5
75A
  8
RIVERS_AND_CHANNELS
 10
674854.95015110355
 20
4806373.2640640652
 30
0.0
  0
VERTEX
  5
75B
  8
RIVERS_AND_CHANNELS
 10
674852.16168401926
 20
4806460.4840497123
 30
0.0
  0
VERTEX
  5
75C
  8
RIVERS_AND_CHANNELS
 10
674800.4805102176
 20
4806528.6791256461
 30
0.0
  0
VERTEX
  5
75D
  8
RIVERS_AND_CHANNELS
 10
674763.06466052751
 20
4806606.0611637812
 30
0.0
  0
VERTEX
  5
75E
  8
RIVERS_AND_CHANNELS
 10
674732.58188475785
 20
4806648.7412333591
 30
0.0
  0
VERTEX
  5
75F
  8
RIVERS_AND_CHANNELS
 10
674664.28418815439
 20
4806690.2122886069
 30
0.0
  0
VERTEX
  5
760
  8
RIVERS_AND_CHANNELS
 10
674641.78440457827
 20
4806756.4299760526
 30
0.0
  0
VERTEX
  5
761
  8
RIVERS_AND_CHANNELS
 10
674616.29161224468
 20
4806842.4504550146
 30
0.0
  0
VERTEX
  5
762
  8
RIVERS_AND_CHANNELS
 10
674599.49502913526
 20
4806880.8180824462
 30
0.0
  0
VERTEX
  5
763
  8
RIVERS_AND_CHANNELS
 10
674581.34437919513
 20
4806900.6627147663
 30
0.0
  0
VERTEX
  5
764
  8
RIVERS_AND_CHANNELS
 10
674571.69443475839
 20
4806928.5600226121
 30
0.0
  0
VERTEX
  5
765
  8
RIVERS_AND_CHANNELS
 10
674564.89866789756
 20
4806958.4937928338
 30
0.0
  0
VERTEX
  5
766
  8
RIVERS_AND_CHANNELS
 10
674576.35601415578
 20
4806995.8194476403
 30
0.0
  0
VERTEX
  5
767
  8
RIVERS_AND_CHANNELS
 10
674573.66622711055
 20
4807019.0762169687
 30
0.0
  0
VERTEX
  5
768
  8
RIVERS_AND_CHANNELS
 10
674546.08297423099
 20
4807060.0168345058
 30
0.0
  0
VERTEX
  5
769
  8
RIVERS_AND_CHANNELS
 10
674527.27999608545
 20
4807100.2655293476
 30
0.0
  0
VERTEX
  5
76A
  8
RIVERS_AND_CHANNELS
 10
674547.70389643777
 20
4807131.069526108
 30
0.0
  0
VERTEX
  5
76B
  8
RIVERS_AND_CHANNELS
 10
674582.64758727385
 20
4807164.2829929655
 30
0.0
  0
VERTEX
  5
76C
  8
RIVERS_AND_CHANNELS
 10
674603.98149456747
 20
4807197.0613481561
 30
0.0
  0
VERTEX
  5
76D
  8
RIVERS_AND_CHANNELS
 10
674620.67207228497
 20
4807222.8829304278
 30
0.0
  0
VERTEX
  5
76E
  8
RIVERS_AND_CHANNELS
 10
674653.04502379068
 20
4807299.4904450066
 30
0.0
  0
VERTEX
  5
76F
  8
RIVERS_AND_CHANNELS
 10
674652.40317826159
 20
4807353.1932891281
 30
0.0
  0
VERTEX
  5
770
  8
RIVERS_AND_CHANNELS
 10
674654.57122955075
 20
4807419.8795828382
 30
0.0
  0
VERTEX
  5
771
  8
RIVERS_AND_CHANNELS
 10
674650.18268583028
 20
4807456.2712249979
 30
0.0
  0
VERTEX
  5
772
  8
RIVERS_AND_CHANNELS
 10
674636.75662223285
 20
4807506.3419733429
 30
0.0
  0
VERTEX
  5
773
  8
RIVERS_AND_CHANNELS
 10
674593.46636883495
 20
4807549.0111405402
 30
0.0
  0
VERTEX
  5
774
  8
RIVERS_AND_CHANNELS
 10
674582.77150979952
 20
4807580.9032077268
 30
0.0
  0
VERTEX
  5
775
  8
RIVERS_AND_CHANNELS
 10
674575.02391032816
 20
4807621.4853137052
 30
0.0
  0
VERTEX
  5
776
  8
RIVERS_AND_CHANNELS
 10
674580.09435756179
 20
4807754.6772206249
 30
0.0
  0
VERTEX
  5
777
  8
RIVERS_AND_CHANNELS
 10
674576.80282009335
 20
4807824.4825207517
 30
0.0
  0
VERTEX
  5
778
  8
RIVERS_AND_CHANNELS
 10
674578.0845616213
 20
4807883.841560821
 30
0.0
  0
VERTEX
  5
779
  8
RIVERS_AND_CHANNELS
 10
674570.42282645975
 20
4807957.7441106867
 30
0.0
  0
VERTEX
  5
77A
  8
RIVERS_AND_CHANNELS
 10
674552.36301325576
 20
4808091.6915326733
 30
0.0
  0
VERTEX
  5
77B
  8
RIVERS_AND_CHANNELS
 10
674509.83116756252
 20
4808162.3608360458
 30
0.0
  0
VERTEX
  5
77C
  8
RIVERS_AND_CHANNELS
 10
674477.20986516064
 20
4808254.5319247097
 30
0.0
  0
VERTEX
  5
77D
  8
RIVERS_AND_CHANNELS
 10
674474.15523891326
 20
4808316.9300542828
 30
0.0
  0
VERTEX
  5
77E
  8
RIVERS_AND_CHANNELS
 10
674481.27152560093
 20
4808377.9103676463
 30
0.0
  0
VERTEX
  5
77F
  8
RIVERS_AND_CHANNELS
 10
674476.76870572777
 20
4808425.4632824026
 30
0.0
  0
VERTEX
  5
780
  8
RIVERS_AND_CHANNELS
 10
674493.31308797083
 20
4808467.7270300156
 30
0.0
  0
VERTEX
  5
781
  8
RIVERS_AND_CHANNELS
 10
674489.0958944537
 20
4808506.3458867716
 30
0.0
  0
VERTEX
  5
782
  8
RIVERS_AND_CHANNELS
 10
674429.18534672877
 20
4808561.0705780508
 30
0.0
  0
VERTEX
  5
783
  8
RIVERS_AND_CHANNELS
 10
674371.19312893786
 20
4808602.4418670489
 30
0.0
  0
VERTEX
  5
784
  8
RIVERS_AND_CHANNELS
 10
674349.96936754033
 20
4808659.8939086786
 30
0.0
  0
VERTEX
  5
785
  8
RIVERS_AND_CHANNELS
 10
674338.03164762584
 20
4808753.4154838966
 30
0.0
  0
VERTEX
  5
786
  8
RIVERS_AND_CHANNELS
 10
674297.91673285107
 20
4808795.3583193189
 30
0.0
  0
VERTEX
  5
787
  8
RIVERS_AND_CHANNELS
 10
674279.19651362707
 20
4808867.795646931
 30
0.0
  0
VERTEX
  5
788
  8
RIVERS_AND_CHANNELS
 10
674274.07473707735
 20
4808934.7056667879
 30
0.0
  0
VERTEX
  5
789
  8
RIVERS_AND_CHANNELS
 10
674251.31368003064
 20
4808993.599074509
 30
0.0
  0
VERTEX
  5
78A
  8
RIVERS_AND_CHANNELS
 10
674242.506921147
 20
4809082.3179852543
 30
0.0
  0
VERTEX
  5
78B
  8
RIVERS_AND_CHANNELS
 10
674229.9720352185
 20
4809120.007212433
 30
0.0
  0
VERTEX
  5
78C
  8
RIVERS_AND_CHANNELS
 10
674222.28597179684
 20
4809167.116668066
 30
0.0
  0
VERTEX
  5
78D
  8
RIVERS_AND_CHANNELS
 10
674224.59336923214
 20
4809223.8106723223
 30
0.0
  0
VERTEX
  5
78E
  8
RIVERS_AND_CHANNELS
 10
674222.86056193605
 20
4809310.2298806841
 30
0.0
  0
VERTEX
  5
78F
  8
RIVERS_AND_CHANNELS
 10
674205.94681664475
 20
4809356.0148723638
 30
0.0
  0
VERTEX
  5
790
  8
RIVERS_AND_CHANNELS
 10
674219.20125486201
 20
4809392.4696967052
 30
0.0
  0
VERTEX
  5
791
  8
RIVERS_AND_CHANNELS
 10
674206.21032611013
 20
4809467.7106447592
 30
0.0
  0
VERTEX
  5
792
  8
RIVERS_AND_CHANNELS
 10
674154.59021785879
 20
4809586.2947542891
 30
0.0
  0
VERTEX
  5
793
  8
RIVERS_AND_CHANNELS
 10
674113.6004908731
 20
4809644.3771720016
 30
0.0
  0
VERTEX
  5
794
  8
RIVERS_AND_CHANNELS
 10
674041.64996481233
 20
4809718.8530723462
 30
0.0
  0
VERTEX
  5
795
  8
RIVERS_AND_CHANNELS
 10
673996.50168146624
 20
4809771.0081701232
 30
0.0
  0
VERTEX
  5
796
  8
RIVERS_AND_CHANNELS
 10
673960.24992588325
 20
4809796.5228553321
 30
0.0
  0
VERTEX
  5
797
  8
RIVERS_AND_CHANNELS
 10
673927.68501114647
 20
4809857.9277518056
 30
0.0
  0
VERTEX
  5
798
  8
RIVERS_AND_CHANNELS
 10
673911.78927004174
 20
4809876.5357356062
 30
0.0
  0
VERTEX
  5
799
  8
RIVERS_AND_CHANNELS
 10
673907.7884263685
 20
4809961.7931917058
 30
0.0
  0
VERTEX
  5
79A
  8
RIVERS_AND_CHANNELS
 10
673898.31423445651
 20
4810018.838728711
 30
0.0
  0
VERTEX
  5
79B
  8
RIVERS_AND_CHANNELS
 10
673864.47550038784
 20
4810080.2029527109
 30
0.0
  0
VERTEX
  5
79C
  8
RIVERS_AND_CHANNELS
 10
673819.29501527024
 20
4810137.3812977122
 30
0.0
  0
VERTEX
  5
79D
  8
RIVERS_AND_CHANNELS
 10
673792.51710124826
 20
4810177.3063163189
 30
0.0
  0
VERTEX
  5
79E
  8
RIVERS_AND_CHANNELS
 10
673793.72147438943
 20
4810219.4002990676
 30
0.0
  0
VERTEX
  5
79F
  8
RIVERS_AND_CHANNELS
 10
673769.28758783487
 20
4810265.7722474178
 30
0.0
  0
VERTEX
  5
7A0
  8
RIVERS_AND_CHANNELS
 10
673749.77400326368
 20
4810277.8925247602
 30
0.0
  0
VERTEX
  5
7A1
  8
RIVERS_AND_CHANNELS
 10
673725.66573175497
 20
4810314.0796157122
 30
0.0
  0
VERTEX
  5
7A2
  8
RIVERS_AND_CHANNELS
 10
673706.2049100945
 20
4810364.4337807633
 30
0.0
  0
VERTEX
  5
7A3
  8
RIVERS_AND_CHANNELS
 10
673691.05376207945
 20
4810399.6328792283
 30
0.0
  0
VERTEX
  5
7A4
  8
RIVERS_AND_CHANNELS
 10
673663.85687168036
 20
4810412.7818736546
 30
0.0
  0
VERTEX
  5
7A5
  8
RIVERS_AND_CHANNELS
 10
673574.39484748407
 20
4810491.0732036689
 30
0.0
  0
VERTEX
  5
7A6
  8
RIVERS_AND_CHANNELS
 10
673539.35515174619
 20
4810569.5552328164
 30
0.0
  0
VERTEX
  5
7A7
  8
RIVERS_AND_CHANNELS
 10
673543.56167745369
 20
4810613.4149286924
 30
0.0
  0
VERTEX
  5
7A8
  8
RIVERS_AND_CHANNELS
 10
673521.24241706834
 20
4810679.9708941048
 30
0.0
  0
VERTEX
  5
7A9
  8
RIVERS_AND_CHANNELS
 10
673481.56660646515
 20
4810728.0334083177
 30
0.0
  0
VERTEX
  5
7AA
  8
RIVERS_AND_CHANNELS
 10
673462.96718887927
 20
4810783.4967291364
 30
0.0
  0
VERTEX
  5
7AB
  8
RIVERS_AND_CHANNELS
 10
673456.88405751321
 20
4810868.510273139
 30
0.0
  0
VERTEX
  5
7AC
  8
RIVERS_AND_CHANNELS
 10
673454.59238299425
 20
4810940.1911689844
 30
0.0
  0
VERTEX
  5
7AD
  8
RIVERS_AND_CHANNELS
 10
673457.24859796464
 20
4810997.4551635962
 30
0.0
  0
VERTEX
  5
7AE
  8
RIVERS_AND_CHANNELS
 10
673466.54624125711
 20
4811022.4179511117
 30
0.0
  0
VERTEX
  5
7AF
  8
RIVERS_AND_CHANNELS
 10
673450.47453109815
 20
4811068.992755088
 30
0.0
  0
VERTEX
  5
7B0
  8
RIVERS_AND_CHANNELS
 10
673414.23210377188
 20
4811114.9227432031
 30
0.0
  0
VERTEX
  5
7B1
  8
RIVERS_AND_CHANNELS
 10
673335.43937138468
 20
4811158.9114161627
 30
0.0
  0
VERTEX
  5
7B2
  8
RIVERS_AND_CHANNELS
 10
673284.51235292177
 20
4811172.4238581592
 30
0.0
  0
VERTEX
  5
7B3
  8
RIVERS_AND_CHANNELS
 10
673197.06609876594
 20
4811222.6201948244
 30
0.0
  0
VERTEX
  5
7B4
  8
RIVERS_AND_CHANNELS
 10
673183.08520215494
 20
4811265.0715719573
 30
0.0
  0
VERTEX
  5
7B5
  8
RIVERS_AND_CHANNELS
 10
673201.40888581623
 20
4811323.6963474229
 30
0.0
  0
VERTEX
  5
7B6
  8
RIVERS_AND_CHANNELS
 10
673202.72219333681
 20
4811361.5898198206
 30
0.0
  0
VERTEX
  5
7B7
  8
RIVERS_AND_CHANNELS
 10
673163.92253137962
 20
4811390.6305840909
 30
0.0
  0
VERTEX
  5
7B8
  8
RIVERS_AND_CHANNELS
 10
673138.62020916096
 20
4811392.3450640487
 30
0.0
  0
VERTEX
  5
7B9
  8
RIVERS_AND_CHANNELS
 10
673079.80430936255
 20
4811415.6990308836
 30
0.0
  0
SEQEND
  5
7BA
  8
RIVERS_AND_CHANNELS
  0
POLYLINE
  5
81
  8
RIVERS_AND_CHANNELS
 66
     1
 10
0.0
 20
0.0
 30
0.0
  0
VERTEX
  5
7BB
  8
RIVERS_AND_CHANNELS
 10
677630.9798287556
 20
4802057.1862099003
 30
0.0
  0
VERTEX
  5
7BC
  8
RIVERS_AND_CHANNELS
 10
677546.28637635568
 20
4802140.3739159023
 30
0.0
  0
VERTEX
  5
7BD
  8
RIVERS_AND_CHANNELS
 10
677442.20578437857
 20
4802219.0375161488
 30
0.0
  0
VERTEX
  5
7BE
  8
RIVERS_AND_CHANNELS
 10
677393.38198342116
 20
4802279.9459875934
 30
0.0
  0
VERTEX
  5
7BF
  8
RIVERS_AND_CHANNELS
 10
677334.25961222185
 20
4802418.6119385827
 30
0.0
  0
VERTEX
  5
7C0
  8
RIVERS_AND_CHANNELS
 10
677218.47174639965
 20
4802496.9012513608
 30
0.0
  0
VERTEX
  5
7C1
  8
RIVERS_AND_CHANNELS
 10
677126.59712740756
 20
4802560.3377006091
 30
0.0
  0
VERTEX
  5
7C2
  8
RIVERS_AND_CHANNELS
 10
677105.71354811522
 20
4802602.6177638574
 30
0.0
  0
VERTEX
  5
7C3
  8
RIVERS_AND_CHANNELS
 10
677040.90610485885
 20
4802674.7282328997
 30
0.0
  0
VERTEX
  5
7C4
  8
RIVERS_AND_CHANNELS
 10
676996.85763001966
 20
4802708.4590342222
 30
0.0
  0
VERTEX
  5
7C5
  8
RIVERS_AND_CHANNELS
 10
676946.00190498435
 20
4802710.7374851992
 30
0.0
  0
VERTEX
  5
7C6
  8
RIVERS_AND_CHANNELS
 10
676912.41356979613
 20
4802783.8460449288
 30
0.0
  0
VERTEX
  5
7C7
  8
RIVERS_AND_CHANNELS
 10
676867.49222233891
 20
4802844.8792797858
 30
0.0
  0
VERTEX
  5
7C8
  8
RIVERS_AND_CHANNELS
 10
676820.41425471578
 20
4802851.1828418234
 30
0.0
  0
VERTEX
  5
7C9
  8
RIVERS_AND_CHANNELS
 10
676789.07045055926
 20
4802854.0850987853
 30
0.0
  0
VERTEX
  5
7CA
  8
RIVERS_AND_CHANNELS
 10
676756.70718495327
 20
4802948.2030541431
 30
0.0
  0
VERTEX
  5
7CB
  8
RIVERS_AND_CHANNELS
 10
676754.87350666488
 20
4803005.5583641278
 30
0.0
  0
VERTEX
  5
7CC
  8
RIVERS_AND_CHANNELS
 10
676751.3991690065
 20
4803114.2315783054
 30
0.0
  0
VERTEX
  5
7CD
  8
RIVERS_AND_CHANNELS
 10
676728.61659474624
 20
4803164.8735647742
 30
0.0
  0
VERTEX
  5
7CE
  8
RIVERS_AND_CHANNELS
 10
676699.60040493764
 20
4803221.359836109
 30
0.0
  0
VERTEX
  5
7CF
  8
RIVERS_AND_CHANNELS
 10
676675.94924698363
 20
4803299.1701035667
 30
0.0
  0
VERTEX
  5
7D0
  8
RIVERS_AND_CHANNELS
 10
676624.92264380457
 20
4803382.1487860521
 30
0.0
  0
VERTEX
  5
7D1
  8
RIVERS_AND_CHANNELS
 10
676510.79426231096
 20
4803564.161238349
 30
0.0
  0
VERTEX
  5
7D2
  8
RIVERS_AND_CHANNELS
 10
676454.18602280819
 20
4803663.8016858883
 30
0.0
  0
VERTEX
  5
7D3
  8
RIVERS_AND_CHANNELS
 10
676397.57778474689
 20
4803763.442088319
 30
0.0
  0
VERTEX
  5
7D4
  8
RIVERS_AND_CHANNELS
 10
676395.36087214085
 20
4803832.7845190698
 30
0.0
  0
VERTEX
  5
7D5
  8
RIVERS_AND_CHANNELS
 10
676361.97568571137
 20
4803874.4330309434
 30
0.0
  0
VERTEX
  5
7D6
  8
RIVERS_AND_CHANNELS
 10
676349.93778677646
 20
4803916.7640715512
 30
0.0
  0
VERTEX
  5
7D7
  8
RIVERS_AND_CHANNELS
 10
676330.1756661433
 20
4804033.600907946
 30
0.0
  0
VERTEX
  5
7D8
  8
RIVERS_AND_CHANNELS
 10
676290.25997796922
 20
4804112.4170530559
 30
0.0
  0
VERTEX
  5
7D9
  8
RIVERS_AND_CHANNELS
 10
676231.43482730188
 20
4804281.3998862384
 30
0.0
  0
VERTEX
  5
7DA
  8
RIVERS_AND_CHANNELS
 10
676239.89155916427
 20
4804351.0835588053
 30
0.0
  0
VERTEX
  5
7DB
  8
RIVERS_AND_CHANNELS
 10
676259.83178189886
 20
4804436.6174117019
 30
0.0
  0
VERTEX
  5
7DC
  8
RIVERS_AND_CHANNELS
 10
676229.24619324645
 20
4804500.8235699022
 30
0.0
  0
VERTEX
  5
7DD
  8
RIVERS_AND_CHANNELS
 10
676157.55065306788
 20
4804575.9374070894
 30
0.0
  0
VERTEX
  5
7DE
  8
RIVERS_AND_CHANNELS
 10
676126.44460469566
 20
4804656.4229359571
 30
0.0
  0
VERTEX
  5
7DF
  8
RIVERS_AND_CHANNELS
 10
676130.29480499006
 20
4804790.9880437944
 30
0.0
  0
VERTEX
  5
7E0
  8
RIVERS_AND_CHANNELS
 10
676125.18193347089
 20
4804823.4166027568
 30
0.0
  0
VERTEX
  5
7E1
  8
RIVERS_AND_CHANNELS
 10
676041.14033474505
 20
4804902.2097552884
 30
0.0
  0
VERTEX
  5
7E2
  8
RIVERS_AND_CHANNELS
 10
676026.84264106944
 20
4804966.9366457351
 30
0.0
  0
VERTEX
  5
7E3
  8
RIVERS_AND_CHANNELS
 10
676020.68876489799
 20
4805031.9238981484
 30
0.0
  0
VERTEX
  5
7E4
  8
RIVERS_AND_CHANNELS
 10
675925.34220037493
 20
4805081.8376302328
 30
0.0
  0
VERTEX
  5
7E5
  8
RIVERS_AND_CHANNELS
 10
675844.07140587305
 20
4805201.4593466884
 30
0.0
  0
VERTEX
  5
7E6
  8
RIVERS_AND_CHANNELS
 10
675790.09502273588
 20
4805232.3257144541
 30
0.0
  0
VERTEX
  5
7E7
  8
RIVERS_AND_CHANNELS
 10
675735.33786480618
 20
4805287.6110903379
 30
0.0
  0
VERTEX
  5
7E8
  8
RIVERS_AND_CHANNELS
 10
675770.16391260817
 20
4805345.7604866484
 30
0.0
  0
VERTEX
  5
7E9
  8
RIVERS_AND_CHANNELS
 10
675768.60253344965
 20
4805394.5985986469
 30
0.0
  0
VERTEX
  5
7EA
  8
RIVERS_AND_CHANNELS
 10
675682.83384932985
 20
4805485.05897542
 30
0.0
  0
VERTEX
  5
7EB
  8
RIVERS_AND_CHANNELS
 10
675630.74262487004
 20
4805572.1023912095
 30
0.0
  0
VERTEX
  5
7EC
  8
RIVERS_AND_CHANNELS
 10
675549.66332283535
 20
4805640.4772747327
 30
0.0
  0
VERTEX
  5
7ED
  8
RIVERS_AND_CHANNELS
 10
675519.13334169425
 20
4805679.4933910174
 30
0.0
  0
VERTEX
  5
7EE
  8
RIVERS_AND_CHANNELS
 10
675493.53669648408
 20
4805720.2970824149
 30
0.0
  0
VERTEX
  5
7EF
  8
RIVERS_AND_CHANNELS
 10
675470.63127587526
 20
4805785.4663757551
 30
0.0
  0
VERTEX
  5
7F0
  8
RIVERS_AND_CHANNELS
 10
675454.32710794848
 20
4805861.2522669137
 30
0.0
  0
VERTEX
  5
7F1
  8
RIVERS_AND_CHANNELS
 10
675437.61888724635
 20
4805895.4031208903
 30
0.0
  0
VERTEX
  5
7F2
  8
RIVERS_AND_CHANNELS
 10
675373.16761220433
 20
4805957.5099210218
 30
0.0
  0
VERTEX
  5
7F3
  8
RIVERS_AND_CHANNELS
 10
675348.23553820734
 20
4805977.5238897046
 30
0.0
  0
VERTEX
  5
7F4
  8
RIVERS_AND_CHANNELS
 10
675283.15874250035
 20
4806004.925622222
 30
0.0
  0
VERTEX
  5
7F5
  8
RIVERS_AND_CHANNELS
 10
675240.39434455533
 20
4806039.9777433928
 30
0.0
  0
VERTEX
  5
7F6
  8
RIVERS_AND_CHANNELS
 10
675231.74372278061
 20
4806093.4630113766
 30
0.0
  0
VERTEX
  5
7F7
  8
RIVERS_AND_CHANNELS
 10
675210.62715138448
 20
4806156.955243919
 30
0.0
  0
VERTEX
  5
7F8
  8
RIVERS_AND_CHANNELS
 10
675179.99637484795
 20
4806192.3952379506
 30
0.0
  0
SEQEND
  5
7F9
  8
RIVERS_AND_CHANNELS
  0
POLYLINE
  5
82
  8
RIVERS_AND_CHANNELS
 66
     1
 10
0.0
 20
0.0
 30
0.0
  0
VERTEX
  5
7FA
  8
RIVERS_AND_CHANNELS
 10
677902.09977435286
 20
4798161.86560064
 30
0.0
  0
VERTEX
  5
7FB
  8
RIVERS_AND_CHANNELS
 10
677848.04712264158
 20
4798190.4860257125
 30
0.0
  0
VERTEX
  5
7FC
  8
RIVERS_AND_CHANNELS
 10
677786.53238632681
 20
4798215.0743592102
 30
0.0
  0
VERTEX
  5
7FD
  8
RIVERS_AND_CHANNELS
 10
677758.53679448576
 20
4798259.702076951
 30
0.0
  0
VERTEX
  5
7FE
  8
RIVERS_AND_CHANNELS
 10
677750.46883207583
 20
4798274.6184205376
 30
0.0
  0
VERTEX
  5
7FF
  8
RIVERS_AND_CHANNELS
 10
677722.83671434817
 20
4798307.877093561
 30
0.0
  0
VERTEX
  5
800
  8
RIVERS_AND_CHANNELS
 10
677680.40141550498
 20
4798329.2817910695
 30
0.0
  0
VERTEX
  5
801
  8
RIVERS_AND_CHANNELS
 10
677600.65517947904
 20
4798330.5258336514
 30
0.0
  0
VERTEX
  5
802
  8
RIVERS_AND_CHANNELS
 10
677573.8711699394
 20
4798337.2566755256
 30
0.0
  0
VERTEX
  5
803
  8
RIVERS_AND_CHANNELS
 10
677542.81090692757
 20
4798359.0250386884
 30
0.0
  0
VERTEX
  5
804
  8
RIVERS_AND_CHANNELS
 10
677513.84604693775
 20
4798433.9703292912
 30
0.0
  0
VERTEX
  5
805
  8
RIVERS_AND_CHANNELS
 10
677413.68763261952
 20
4798480.0845803367
 30
0.0
  0
VERTEX
  5
806
  8
RIVERS_AND_CHANNELS
 10
677290.17335548857
 20
4798544.4199380083
 30
0.0
  0
VERTEX
  5
807
  8
RIVERS_AND_CHANNELS
 10
677258.99193395826
 20
4798569.9779977771
 30
0.0
  0
VERTEX
  5
808
  8
RIVERS_AND_CHANNELS
 10
677212.03797650803
 20
4798613.9996521249
 30
0.0
  0
VERTEX
  5
809
  8
RIVERS_AND_CHANNELS
 10
677149.91736238636
 20
4798657.5364207858
 30
0.0
  0
VERTEX
  5
80A
  8
RIVERS_AND_CHANNELS
 10
677095.74355215661
 20
4798689.9465424689
 30
0.0
  0
VERTEX
  5
80B
  8
RIVERS_AND_CHANNELS
 10
677038.26275371888
 20
4798707.0767027866
 30
0.0
  0
VERTEX
  5
80C
  8
RIVERS_AND_CHANNELS
 10
676944.35492691619
 20
4798795.119969151
 30
0.0
  0
VERTEX
  5
80D
  8
RIVERS_AND_CHANNELS
 10
676862.91247451433
 20
4798849.4196740296
 30
0.0
  0
VERTEX
  5
80E
  8
RIVERS_AND_CHANNELS
 10
676844.71685776289
 20
4798943.6771133291
 30
0.0
  0
VERTEX
  5
80F
  8
RIVERS_AND_CHANNELS
 10
676771.5882095024
 20
4799025.8103319723
 30
0.0
  0
VERTEX
  5
810
  8
RIVERS_AND_CHANNELS
 10
676706.39768350427
 20
4799080.4615990426
 30
0.0
  0
VERTEX
  5
811
  8
RIVERS_AND_CHANNELS
 10
676658.95158221736
 20
4799102.306428547
 30
0.0
  0
VERTEX
  5
812
  8
RIVERS_AND_CHANNELS
 10
676620.65986101888
 20
4799151.142916861
 30
0.0
  0
VERTEX
  5
813
  8
RIVERS_AND_CHANNELS
 10
676557.28134371166
 20
4799149.116673585
 30
0.0
  0
VERTEX
  5
814
  8
RIVERS_AND_CHANNELS
 10
676482.82985049009
 20
4799180.1102026282
 30
0.0
  0
VERTEX
  5
815
  8
RIVERS_AND_CHANNELS
 10
676450.67663376254
 20
4799245.8299002489
 30
0.0
  0
VERTEX
  5
816
  8
RIVERS_AND_CHANNELS
 10
676398.08279866504
 20
4799324.2455952782
 30
0.0
  0
VERTEX
  5
817
  8
RIVERS_AND_CHANNELS
 10
676325.82249062555
 20
4799398.0644507296
 30
0.0
  0
VERTEX
  5
818
  8
RIVERS_AND_CHANNELS
 10
676285.32569299487
 20
4799434.8036598563
 30
0.0
  0
VERTEX
  5
819
  8
RIVERS_AND_CHANNELS
 10
676283.08674899186
 20
4799465.1592094777
 30
0.0
  0
VERTEX
  5
81A
  8
RIVERS_AND_CHANNELS
 10
676251.82453290594
 20
4799490.7835017527
 30
0.0
  0
VERTEX
  5
81B
  8
RIVERS_AND_CHANNELS
 10
676212.99980860518
 20
4799514.8982122149
 30
0.0
  0
VERTEX
  5
81C
  8
RIVERS_AND_CHANNELS
 10
676187.95186705305
 20
4799544.5245466428
 30
0.0
  0
VERTEX
  5
81D
  8
RIVERS_AND_CHANNELS
 10
676159.68133551732
 20
4799595.6004411345
 30
0.0
  0
VERTEX
  5
81E
  8
RIVERS_AND_CHANNELS
 10
676137.37026708177
 20
4799618.9752969323
 30
0.0
  0
VERTEX
  5
81F
  8
RIVERS_AND_CHANNELS
 10
676081.00766475336
 20
4799636.1903347084
 30
0.0
  0
VERTEX
  5
820
  8
RIVERS_AND_CHANNELS
 10
676057.87482755526
 20
4799645.5931578483
 30
0.0
  0
VERTEX
  5
821
  8
RIVERS_AND_CHANNELS
 10
675983.99825464271
 20
4799734.5127209583
 30
0.0
  0
VERTEX
  5
822
  8
RIVERS_AND_CHANNELS
 10
675889.63069340715
 20
4799939.432042704
 30
0.0
  0
VERTEX
  5
823
  8
RIVERS_AND_CHANNELS
 10
675878.43256296823
 20
4800010.4558976032
 30
0.0
  0
VERTEX
  5
824
  8
RIVERS_AND_CHANNELS
 10
675879.27288400684
 20
4800053.9810996521
 30
0.0
  0
VERTEX
  5
825
  8
RIVERS_AND_CHANNELS
 10
675793.60856841155
 20
4800150.5078514684
 30
0.0
  0
VERTEX
  5
826
  8
RIVERS_AND_CHANNELS
 10
675763.64735065505
 20
4800182.6274529081
 30
0.0
  0
VERTEX
  5
827
  8
RIVERS_AND_CHANNELS
 10
675765.23075559852
 20
4800231.3312563738
 30
0.0
  0
VERTEX
  5
828
  8
RIVERS_AND_CHANNELS
 10
675756.28470891889
 20
4800265.5732685775
 30
0.0
  0
VERTEX
  5
829
  8
RIVERS_AND_CHANNELS
 10
675733.1704123792
 20
4800300.9318420347
 30
0.0
  0
VERTEX
  5
82A
  8
RIVERS_AND_CHANNELS
 10
675716.68164657685
 20
4800325.5159969842
 30
0.0
  0
VERTEX
  5
82B
  8
RIVERS_AND_CHANNELS
 10
675709.36912930536
 20
4800406.893978091
 30
0.0
  0
VERTEX
  5
82C
  8
RIVERS_AND_CHANNELS
 10
675704.42725388263
 20
4800463.2364858324
 30
0.0
  0
VERTEX
  5
82D
  8
RIVERS_AND_CHANNELS
 10
675695.33074426989
 20
4800502.1820891667
 30
0.0
  0
VERTEX
  5
82E
  8
RIVERS_AND_CHANNELS
 10
675663.22027514433
 20
4800573.3505544979
 30
0.0
  0
VERTEX
  5
82F
  8
RIVERS_AND_CHANNELS
 10
675603.33953822067
 20
4800678.1592121534
 30
0.0
  0
VERTEX
  5
830
  8
RIVERS_AND_CHANNELS
 10
675530.64401737973
 20
4800741.7523142649
 30
0.0
  0
VERTEX
  5
831
  8
RIVERS_AND_CHANNELS
 10
675488.95621302526
 20
4800768.6697624857
 30
0.0
  0
VERTEX
  5
832
  8
RIVERS_AND_CHANNELS
 10
675456.17926737538
 20
4800811.5666918019
 30
0.0
  0
VERTEX
  5
833
  8
RIVERS_AND_CHANNELS
 10
675384.23562359635
 20
4800851.6419597343
 30
0.0
  0
VERTEX
  5
834
  8
RIVERS_AND_CHANNELS
 10
675216.83635039115
 20
4800950.6941022864
 30
0.0
  0
VERTEX
  5
835
  8
RIVERS_AND_CHANNELS
 10
675167.26180522388
 20
4800982.0515984297
 30
0.0
  0
VERTEX
  5
836
  8
RIVERS_AND_CHANNELS
 10
675110.86615710042
 20
4801009.7234211266
 30
0.0
  0
VERTEX
  5
837
  8
RIVERS_AND_CHANNELS
 10
675096.00589393231
 20
4801040.4569056146
 30
0.0
  0
VERTEX
  5
838
  8
RIVERS_AND_CHANNELS
 10
675085.6245864518
 20
4801093.873206025
 30
0.0
  0
VERTEX
  5
839
  8
RIVERS_AND_CHANNELS
 10
675060.53271217737
 20
4801119.078181725
 30
0.0
  0
VERTEX
  5
83A
  8
RIVERS_AND_CHANNELS
 10
675024.08549061813
 20
4801119.6467452729
 30
0.0
  0
VERTEX
  5
83B
  8
RIVERS_AND_CHANNELS
 10
674976.74225402786
 20
4801135.4712901693
 30
0.0
  0
VERTEX
  5
83C
  8
RIVERS_AND_CHANNELS
 10
674892.91276199976
 20
4801207.3451012596
 30
0.0
  0
VERTEX
  5
83D
  8
RIVERS_AND_CHANNELS
 10
674786.66569655237
 20
4801275.0346570006
 30
0.0
  0
VERTEX
  5
83E
  8
RIVERS_AND_CHANNELS
 10
674632.96464824793
 20
4801362.0127712032
 30
0.0
  0
VERTEX
  5
83F
  8
RIVERS_AND_CHANNELS
 10
674536.32365199155
 20
4801400.5345725752
 30
0.0
  0
VERTEX
  5
840
  8
RIVERS_AND_CHANNELS
 10
674522.91945622675
 20
4801439.9837420722
 30
0.0
  0
VERTEX
  5
841
  8
RIVERS_AND_CHANNELS
 10
674476.31242548954
 20
4801487.0403984636
 30
0.0
  0
VERTEX
  5
842
  8
RIVERS_AND_CHANNELS
 10
674453.45185979188
 20
4801496.7124229204
 30
0.0
  0
VERTEX
  5
843
  8
RIVERS_AND_CHANNELS
 10
674423.21653636498
 20
4801520.0191602828
 30
0.0
  0
VERTEX
  5
844
  8
RIVERS_AND_CHANNELS
 10
674395.90612078574
 20
4801528.2083270326
 30
0.0
  0
VERTEX
  5
845
  8
RIVERS_AND_CHANNELS
 10
674370.23227352707
 20
4801519.76091584
 30
0.0
  0
VERTEX
  5
846
  8
RIVERS_AND_CHANNELS
 10
674328.7770424668
 20
4801527.5874974839
 30
0.0
  0
VERTEX
  5
847
  8
RIVERS_AND_CHANNELS
 10
674299.03110471577
 20
4801551.0415514521
 30
0.0
  0
VERTEX
  5
848
  8
RIVERS_AND_CHANNELS
 10
674265.60271088069
 20
4801594.207049218
 30
0.0
  0
VERTEX
  5
849
  8
RIVERS_AND_CHANNELS
 10
674197.06080092001
 20
4801637.7752260081
 30
0.0
  0
VERTEX
  5
84A
  8
RIVERS_AND_CHANNELS
 10
674164.07084652677
 20
4801667.2268513618
 30
0.0
  0
VERTEX
  5
84B
  8
RIVERS_AND_CHANNELS
 10
674116.32253081247
 20
4801680.9535241453
 30
0.0
  0
VERTEX
  5
84C
  8
RIVERS_AND_CHANNELS
 10
674071.42842402041
 20
4801700.872641365
 30
0.0
  0
VERTEX
  5
84D
  8
RIVERS_AND_CHANNELS
 10
674031.40638417786
 20
4801747.4933454031
 30
0.0
  0
VERTEX
  5
84E
  8
RIVERS_AND_CHANNELS
 10
674003.69461460691
 20
4801816.3859027596
 30
0.0
  0
VERTEX
  5
84F
  8
RIVERS_AND_CHANNELS
 10
673996.13135744329
 20
4801842.9819856761
 30
0.0
  0
VERTEX
  5
850
  8
RIVERS_AND_CHANNELS
 10
673978.96518725948
 20
4801875.9805296203
 30
0.0
  0
VERTEX
  5
851
  8
RIVERS_AND_CHANNELS
 10
673959.41667725262
 20
4801899.5096314652
 30
0.0
  0
VERTEX
  5
852
  8
RIVERS_AND_CHANNELS
 10
673938.79664835043
 20
4801956.5518765589
 30
0.0
  0
VERTEX
  5
853
  8
RIVERS_AND_CHANNELS
 10
673930.2048179094
 20
4802015.3205273217
 30
0.0
  0
VERTEX
  5
854
  8
RIVERS_AND_CHANNELS
 10
673912.73873318115
 20
4802057.7027603369
 30
0.0
  0
VERTEX
  5
855
  8
RIVERS_AND_CHANNELS
 10
673879.91916527646
 20
4802118.3806445431
 30
0.0
  0
SEQEND
  5
856
  8
RIVERS_AND_CHANNELS
  0
POLYLINE
  5
83
  8
RIVERS_AND_CHANNELS
 66
     1
 10
0.0
 20
0.0
 30
0.0
  0
VERTEX
  5
857
  8
RIVERS_AND_CHANNELS
 10
674904.96620807541
 20
4796804.7210707553
 30
0.0
  0
VERTEX
  5
858
  8
RIVERS_AND_CHANNELS
 10
674660.02362966957
 20
4796921.3714506691
 30
0.0
  0
VERTEX
  5
859
  8
RIVERS_AND_CHANNELS
 10
674466.88536628219
 20
4797110.9415183458
 30
0.0
  0
VERTEX
  5
85A
  8
RIVERS_AND_CHANNELS
 10
674432.24485767668
 20
4797188.7162739858
 30
0.0
  0
VERTEX
  5
85B
  8
RIVERS_AND_CHANNELS
 10
674386.11056778545
 20
4797260.2804481294
 30
0.0
  0
VERTEX
  5
85C
  8
RIVERS_AND_CHANNELS
 10
674341.65583232976
 20
4797279.3101259684
 30
0.0
  0
VERTEX
  5
85D
  8
RIVERS_AND_CHANNELS
 10
674218.45174475794
 20
4797292.9006459452
 30
0.0
  0
VERTEX
  5
85E
  8
RIVERS_AND_CHANNELS
 10
674153.55622850975
 20
4797311.2768216776
 30
0.0
  0
VERTEX
  5
85F
  8
RIVERS_AND_CHANNELS
 10
674114.94174636004
 20
4797330.493273898
 30
0.0
  0
VERTEX
  5
860
  8
RIVERS_AND_CHANNELS
 10
674049.3931819594
 20
4797369.29954811
 30
0.0
  0
VERTEX
  5
861
  8
RIVERS_AND_CHANNELS
 10
673985.21741261263
 20
4797424.1091052433
 30
0.0
  0
VERTEX
  5
862
  8
RIVERS_AND_CHANNELS
 10
673957.23077862104
 20
4797423.2143583903
 30
0.0
  0
VERTEX
  5
863
  8
RIVERS_AND_CHANNELS
 10
673925.63400305936
 20
4797425.7042474626
 30
0.0
  0
VERTEX
  5
864
  8
RIVERS_AND_CHANNELS
 10
673866.06710054679
 20
4797481.5512515772
 30
0.0
  0
VERTEX
  5
865
  8
RIVERS_AND_CHANNELS
 10
673818.0571182709
 20
4797504.5169015806
 30
0.0
  0
VERTEX
  5
866
  8
RIVERS_AND_CHANNELS
 10
673754.86356527801
 20
4797509.4967381954
 30
0.0
  0
VERTEX
  5
867
  8
RIVERS_AND_CHANNELS
 10
673686.774341663
 20
4797558.0710543767
 30
0.0
  0
VERTEX
  5
868
  8
RIVERS_AND_CHANNELS
 10
673622.91007761646
 20
4797584.0299474774
 30
0.0
  0
VERTEX
  5
869
  8
RIVERS_AND_CHANNELS
 10
673598.70126436045
 20
4797574.5057567209
 30
0.0
  0
VERTEX
  5
86A
  8
RIVERS_AND_CHANNELS
 10
673543.4709952058
 20
4797604.2407955127
 30
0.0
  0
VERTEX
  5
86B
  8
RIVERS_AND_CHANNELS
 10
673513.28804184683
 20
4797617.276164189
 30
0.0
  0
VERTEX
  5
86C
  8
RIVERS_AND_CHANNELS
 10
673495.5170183063
 20
4797625.458179784
 30
0.0
  0
VERTEX
  5
86D
  8
RIVERS_AND_CHANNELS
 10
673434.18442821898
 20
4797626.9974583434
 30
0.0
  0
VERTEX
  5
86E
  8
RIVERS_AND_CHANNELS
 10
673380.59155348805
 20
4797660.2848994434
 30
0.0
  0
VERTEX
  5
86F
  8
RIVERS_AND_CHANNELS
 10
673348.4358529828
 20
4797680.2573063513
 30
0.0
  0
VERTEX
  5
870
  8
RIVERS_AND_CHANNELS
 10
673266.11323124135
 20
4797681.1255229758
 30
0.0
  0
VERTEX
  5
871
  8
RIVERS_AND_CHANNELS
 10
673193.83854265441
 20
4797696.3152515516
 30
0.0
  0
VERTEX
  5
872
  8
RIVERS_AND_CHANNELS
 10
673158.4639463569
 20
4797707.4345845217
 30
0.0
  0
VERTEX
  5
873
  8
RIVERS_AND_CHANNELS
 10
673128.50456334953
 20
4797713.4769343697
 30
0.0
  0
VERTEX
  5
874
  8
RIVERS_AND_CHANNELS
 10
673079.52789770369
 20
4797711.9111255798
 30
0.0
  0
VERTEX
  5
875
  8
RIVERS_AND_CHANNELS
 10
673030.77491473022
 20
4797703.3523015566
 30
0.0
  0
VERTEX
  5
876
  8
RIVERS_AND_CHANNELS
 10
672978.29989175545
 20
4797701.6746485122
 30
0.0
  0
VERTEX
  5
877
  8
RIVERS_AND_CHANNELS
 10
672940.14135445084
 20
4797676.4690212402
 30
0.0
  0
VERTEX
  5
878
  8
RIVERS_AND_CHANNELS
 10
672907.65075107163
 20
4797675.4302802058
 30
0.0
  0
VERTEX
  5
879
  8
RIVERS_AND_CHANNELS
 10
672873.11420502933
 20
4797695.9974222491
 30
0.0
  0
VERTEX
  5
87A
  8
RIVERS_AND_CHANNELS
 10
672805.46852880379
 20
4797692.4802926211
 30
0.0
  0
VERTEX
  5
87B
  8
RIVERS_AND_CHANNELS
 10
672740.96305307397
 20
4797675.518984098
 30
0.0
  0
VERTEX
  5
87C
  8
RIVERS_AND_CHANNELS
 10
672688.98757700273
 20
4797648.1226780862
 30
0.0
  0
VERTEX
  5
87D
  8
RIVERS_AND_CHANNELS
 10
672595.57696592645
 20
4797645.1362935742
 30
0.0
  0
VERTEX
  5
87E
  8
RIVERS_AND_CHANNELS
 10
672540.99330071989
 20
4797656.9357988667
 30
0.0
  0
VERTEX
  5
87F
  8
RIVERS_AND_CHANNELS
 10
672389.71625280823
 20
4797641.2637486318
 30
0.0
  0
VERTEX
  5
880
  8
RIVERS_AND_CHANNELS
 10
672272.62968355778
 20
4797615.849138855
 30
0.0
  0
VERTEX
  5
881
  8
RIVERS_AND_CHANNELS
 10
672167.51086749404
 20
4797597.589459816
 30
0.0
  0
VERTEX
  5
882
  8
RIVERS_AND_CHANNELS
 10
672118.81816492102
 20
4797594.6782663483
 30
0.0
  0
VERTEX
  5
883
  8
RIVERS_AND_CHANNELS
 10
672024.05363362201
 20
4797591.6485963203
 30
0.0
  0
VERTEX
  5
884
  8
RIVERS_AND_CHANNELS
 10
671985.83230520145
 20
4797557.9197017578
 30
0.0
  0
VERTEX
  5
885
  8
RIVERS_AND_CHANNELS
 10
671890.75228046568
 20
4797522.3730058977
 30
0.0
  0
VERTEX
  5
886
  8
RIVERS_AND_CHANNELS
 10
671845.1564055417
 20
4797507.370768535
 30
0.0
  0
VERTEX
  5
887
  8
RIVERS_AND_CHANNELS
 10
671789.78129309672
 20
4797501.5370087968
 30
0.0
  0
SEQEND
  5
888
  8
RIVERS_AND_CHANNELS
  0
POLYLINE
  5
84
  8
RIVERS_AND_CHANNELS
 66
     1
 10
0.0
 20
0.0
 30
0.0
  0
VERTEX
  5
889
  8
RIVERS_AND_CHANNELS
 10
674389.05604112765
 20
4797266.400227298
 30
0.0
  0
VERTEX
  5
88A
  8
RIVERS_AND_CHANNELS
 10
674374.58998760488
 20
4797307.2742667776
 30
0.0
  0
VERTEX
  5
88B
  8
RIVERS_AND_CHANNELS
 10
674342.021652041
 20
4797385.1482223021
 30
0.0
  0
VERTEX
  5
88C
  8
RIVERS_AND_CHANNELS
 10
674265.59941064776
 20
4797482.2883802643
 30
0.0
  0
VERTEX
  5
88D
  8
RIVERS_AND_CHANNELS
 10
674220.54532104637
 20
4797539.0949259084
 30
0.0
  0
VERTEX
  5
88E
  8
RIVERS_AND_CHANNELS
 10
674190.5150976833
 20
4797596.3817336354
 30
0.0
  0
VERTEX
  5
88F
  8
RIVERS_AND_CHANNELS
 10
674188.83484227175
 20
4797648.9381556557
 30
0.0
  0
VERTEX
  5
890
  8
RIVERS_AND_CHANNELS
 10
674187.15458872938
 20
4797701.4945192132
 30
0.0
  0
VERTEX
  5
891
  8
RIVERS_AND_CHANNELS
 10
674191.52843101742
 20
4797741.0919440128
 30
0.0
  0
VERTEX
  5
892
  8
RIVERS_AND_CHANNELS
 10
674173.45774977887
 20
4797787.7173310826
 30
0.0
  0
VERTEX
  5
893
  8
RIVERS_AND_CHANNELS
 10
674109.26797442371
 20
4797837.795184046
 30
0.0
  0
VERTEX
  5
894
  8
RIVERS_AND_CHANNELS
 10
674071.5465547964
 20
4797875.6867355937
 30
0.0
  0
VERTEX
  5
895
  8
RIVERS_AND_CHANNELS
 10
674048.20762914151
 20
4797953.1356271822
 30
0.0
  0
VERTEX
  5
896
  8
RIVERS_AND_CHANNELS
 10
674015.11384455254
 20
4798009.4206379633
 30
0.0
  0
VERTEX
  5
897
  8
RIVERS_AND_CHANNELS
 10
673986.12366840325
 20
4798018.9198138742
 30
0.0
  0
VERTEX
  5
898
  8
RIVERS_AND_CHANNELS
 10
673979.74775503739
 20
4798055.2069369648
 30
0.0
  0
VERTEX
  5
899
  8
RIVERS_AND_CHANNELS
 10
673975.56090050854
 20
4798104.5966120483
 30
0.0
  0
VERTEX
  5
89A
  8
RIVERS_AND_CHANNELS
 10
673940.52790580224
 20
4798139.9676122721
 30
0.0
  0
VERTEX
  5
89B
  8
RIVERS_AND_CHANNELS
 10
673893.99188428675
 20
4798208.8553760787
 30
0.0
  0
VERTEX
  5
89C
  8
RIVERS_AND_CHANNELS
 10
673863.25354026188
 20
4798273.0351963742
 30
0.0
  0
VERTEX
  5
89D
  8
RIVERS_AND_CHANNELS
 10
673834.62101085403
 20
4798352.9213503981
 30
0.0
  0
VERTEX
  5
89E
  8
RIVERS_AND_CHANNELS
 10
673791.27289079537
 20
4798403.6655216292
 30
0.0
  0
VERTEX
  5
89F
  8
RIVERS_AND_CHANNELS
 10
673708.59712721908
 20
4798460.9718145477
 30
0.0
  0
VERTEX
  5
8A0
  8
RIVERS_AND_CHANNELS
 10
673629.60862744495
 20
4798484.5115285181
 30
0.0
  0
VERTEX
  5
8A1
  8
RIVERS_AND_CHANNELS
 10
673600.11908708105
 20
4798509.6337492699
 30
0.0
  0
VERTEX
  5
8A2
  8
RIVERS_AND_CHANNELS
 10
673541.22302779974
 20
4798557.2743433872
 30
0.0
  0
VERTEX
  5
8A3
  8
RIVERS_AND_CHANNELS
 10
673523.51069025497
 20
4798621.8706117002
 30
0.0
  0
VERTEX
  5
8A4
  8
RIVERS_AND_CHANNELS
 10
673515.19556490239
 20
4798637.2437827056
 30
0.0
  0
VERTEX
  5
8A5
  8
RIVERS_AND_CHANNELS
 10
673473.26262836228
 20
4798643.7226703856
 30
0.0
  0
VERTEX
  5
8A6
  8
RIVERS_AND_CHANNELS
 10
673450.83940968977
 20
4798692.5293196756
 30
0.0
  0
VERTEX
  5
8A7
  8
RIVERS_AND_CHANNELS
 10
673391.11088951537
 20
4798766.208315881
 30
0.0
  0
VERTEX
  5
8A8
  8
RIVERS_AND_CHANNELS
 10
673390.1119364436
 20
4798797.4543983852
 30
0.0
  0
VERTEX
  5
8A9
  8
RIVERS_AND_CHANNELS
 10
673279.44494792039
 20
4798833.0138431778
 30
0.0
  0
VERTEX
  5
8AA
  8
RIVERS_AND_CHANNELS
 10
673220.2159061511
 20
4798891.0697396621
 30
0.0
  0
VERTEX
  5
8AB
  8
RIVERS_AND_CHANNELS
 10
673208.92346588965
 20
4798986.525772349
 30
0.0
  0
VERTEX
  5
8AC
  8
RIVERS_AND_CHANNELS
 10
673132.98021152464
 20
4799108.4736195654
 30
0.0
  0
VERTEX
  5
8AD
  8
RIVERS_AND_CHANNELS
 10
673095.32207578234
 20
4799159.6383810937
 30
0.0
  0
VERTEX
  5
8AE
  8
RIVERS_AND_CHANNELS
 10
673008.2793207916
 20
4799219.0434759092
 30
0.0
  0
VERTEX
  5
8AF
  8
RIVERS_AND_CHANNELS
 10
672950.67922002147
 20
4799279.3898672834
 30
0.0
  0
VERTEX
  5
8B0
  8
RIVERS_AND_CHANNELS
 10
672914.69362895016
 20
4799278.239389725
 30
0.0
  0
VERTEX
  5
8B1
  8
RIVERS_AND_CHANNELS
 10
672897.91848855489
 20
4799290.7952285279
 30
0.0
  0
VERTEX
  5
8B2
  8
RIVERS_AND_CHANNELS
 10
672848.63829219528
 20
4799295.7658192404
 30
0.0
  0
VERTEX
  5
8B3
  8
RIVERS_AND_CHANNELS
 10
672712.10615997214
 20
4799366.6809206819
 30
0.0
  0
VERTEX
  5
8B4
  8
RIVERS_AND_CHANNELS
 10
672682.03630196711
 20
4799385.3578241654
 30
0.0
  0
VERTEX
  5
8B5
  8
RIVERS_AND_CHANNELS
 10
672673.08919190301
 20
4799460.3518833369
 30
0.0
  0
VERTEX
  5
8B6
  8
RIVERS_AND_CHANNELS
 10
672675.00160522817
 20
4799502.9626093162
 30
0.0
  0
VERTEX
  5
8B7
  8
RIVERS_AND_CHANNELS
 10
672664.97835604358
 20
4799509.1882644957
 30
0.0
  0
VERTEX
  5
8B8
  8
RIVERS_AND_CHANNELS
 10
672618.5513805548
 20
4799527.3422226543
 30
0.0
  0
VERTEX
  5
8B9
  8
RIVERS_AND_CHANNELS
 10
672525.27940292715
 20
4799576.7290400388
 30
0.0
  0
VERTEX
  5
8BA
  8
RIVERS_AND_CHANNELS
 10
672484.87258152408
 20
4799611.4406951349
 30
0.0
  0
VERTEX
  5
8BB
  8
RIVERS_AND_CHANNELS
 10
672317.09354325617
 20
4799683.1058199182
 30
0.0
  0
VERTEX
  5
8BC
  8
RIVERS_AND_CHANNELS
 10
672268.47818355926
 20
4799699.9246654687
 30
0.0
  0
VERTEX
  5
8BD
  8
RIVERS_AND_CHANNELS
 10
672235.9882541073
 20
4799698.8859459804
 30
0.0
  0
VERTEX
  5
8BE
  8
RIVERS_AND_CHANNELS
 10
672144.42112681654
 20
4799776.5172734549
 30
0.0
  0
VERTEX
  5
8BF
  8
RIVERS_AND_CHANNELS
 10
672115.2211763087
 20
4799805.2632879773
 30
0.0
  0
VERTEX
  5
8C0
  8
RIVERS_AND_CHANNELS
 10
672063.91590370797
 20
4799817.7561662458
 30
0.0
  0
VERTEX
  5
8C1
  8
RIVERS_AND_CHANNELS
 10
672014.47467741533
 20
4799816.175505219
 30
0.0
  0
VERTEX
  5
8C2
  8
RIVERS_AND_CHANNELS
 10
671906.39447740675
 20
4799835.333140607
 30
0.0
  0
VERTEX
  5
8C3
  8
RIVERS_AND_CHANNELS
 10
671864.66155093815
 20
4799858.0252160262
 30
0.0
  0
VERTEX
  5
8C4
  8
RIVERS_AND_CHANNELS
 10
671830.18554034736
 20
4799919.1087892447
 30
0.0
  0
SEQEND
  5
8C5
  8
RIVERS_AND_CHANNELS
  0
POLYLINE
  5
85
  8
RIVERS_AND_CHANNELS
 66
     1
 10
0.0
 20
0.0
 30
0.0
  0
VERTEX
  5
8C6
  8
RIVERS_AND_CHANNELS
 10
674188.99199870182
 20
4797695.6008702116
 30
0.0
  0
VERTEX
  5
8C7
  8
RIVERS_AND_CHANNELS
 10
674114.79238212388
 20
4797747.2155154524
 30
0.0
  0
VERTEX
  5
8C8
  8
RIVERS_AND_CHANNELS
 10
674044.41410073079
 20
4797795.2473689727
 30
0.0
  0
VERTEX
  5
8C9
  8
RIVERS_AND_CHANNELS
 10
674028.97617265652
 20
4797814.3372215983
 30
0.0
  0
VERTEX
  5
8CA
  8
RIVERS_AND_CHANNELS
 10
674012.51398426073
 20
4797832.3358428515
 30
0.0
  0
VERTEX
  5
8CB
  8
RIVERS_AND_CHANNELS
 10
673992.17463328596
 20
4797839.0955069857
 30
0.0
  0
VERTEX
  5
8CC
  8
RIVERS_AND_CHANNELS
 10
673965.16092507076
 20
4797839.2904673656
 30
0.0
  0
VERTEX
  5
8CD
  8
RIVERS_AND_CHANNELS
 10
673948.37255499419
 20
4797850.9272221969
 30
0.0
  0
VERTEX
  5
8CE
  8
RIVERS_AND_CHANNELS
 10
673940.01937251876
 20
4797873.0544603569
 30
0.0
  0
VERTEX
  5
8CF
  8
RIVERS_AND_CHANNELS
 10
673929.09812490235
 20
4797888.3457169933
 30
0.0
  0
VERTEX
  5
8D0
  8
RIVERS_AND_CHANNELS
 10
673878.72325561976
 20
4797902.3756213794
 30
0.0
  0
VERTEX
  5
8D1
  8
RIVERS_AND_CHANNELS
 10
673819.72459362843
 20
4797906.447649057
 30
0.0
  0
VERTEX
  5
8D2
  8
RIVERS_AND_CHANNELS
 10
673787.64359039895
 20
4797907.656322985
 30
0.0
  0
VERTEX
  5
8D3
  8
RIVERS_AND_CHANNELS
 10
673765.53247724264
 20
4797923.334607237
 30
0.0
  0
VERTEX
  5
8D4
  8
RIVERS_AND_CHANNELS
 10
673743.23095629679
 20
4797944.9651073478
 30
0.0
  0
VERTEX
  5
8D5
  8
RIVERS_AND_CHANNELS
 10
673728.00976171962
 20
4797954.9054210205
 30
0.0
  0
VERTEX
  5
8D6
  8
RIVERS_AND_CHANNELS
 10
673711.78244896827
 20
4797973.0061331866
 30
0.0
  0
VERTEX
  5
8D7
  8
RIVERS_AND_CHANNELS
 10
673700.09306016099
 20
4797989.0176637694
 30
0.0
  0
VERTEX
  5
8D8
  8
RIVERS_AND_CHANNELS
 10
673698.58742058882
 20
4798012.8025067616
 30
0.0
  0
VERTEX
  5
8D9
  8
RIVERS_AND_CHANNELS
 10
673688.03004908096
 20
4798040.0219447557
 30
0.0
  0
VERTEX
  5
8DA
  8
RIVERS_AND_CHANNELS
 10
673657.78491845028
 20
4798077.0388395656
 30
0.0
  0
VERTEX
  5
8DB
  8
RIVERS_AND_CHANNELS
 10
673620.99970504758
 20
4798085.5449673636
 30
0.0
  0
VERTEX
  5
8DC
  8
RIVERS_AND_CHANNELS
 10
673579.24132845434
 20
4798086.4442507681
 30
0.0
  0
VERTEX
  5
8DD
  8
RIVERS_AND_CHANNELS
 10
673545.82130323723
 20
4798106.2296815831
 30
0.0
  0
VERTEX
  5
8DE
  8
RIVERS_AND_CHANNELS
 10
673514.4680540947
 20
4798131.2946597571
 30
0.0
  0
VERTEX
  5
8DF
  8
RIVERS_AND_CHANNELS
 10
673492.20703070424
 20
4798128.3486437341
 30
0.0
  0
VERTEX
  5
8E0
  8
RIVERS_AND_CHANNELS
 10
673452.0565167946
 20
4798125.5754649248
 30
0.0
  0
VERTEX
  5
8E1
  8
RIVERS_AND_CHANNELS
 10
673425.84271520202
 20
4798153.0390736749
 30
0.0
  0
VERTEX
  5
8E2
  8
RIVERS_AND_CHANNELS
 10
673407.23254597269
 20
4798152.4440971473
 30
0.0
  0
VERTEX
  5
8E3
  8
RIVERS_AND_CHANNELS
 10
673377.47985949391
 20
4798150.7481154241
 30
0.0
  0
VERTEX
  5
8E4
  8
RIVERS_AND_CHANNELS
 10
673340.98705048021
 20
4798173.4144594306
 30
0.0
  0
VERTEX
  5
8E5
  8
RIVERS_AND_CHANNELS
 10
673295.03106235899
 20
4798189.0751842391
 30
0.0
  0
VERTEX
  5
8E6
  8
RIVERS_AND_CHANNELS
 10
673269.67347057525
 20
4798189.754035756
 30
0.0
  0
VERTEX
  5
8E7
  8
RIVERS_AND_CHANNELS
 10
673249.39115277177
 20
4798218.1521088528
 30
0.0
  0
VERTEX
  5
8E8
  8
RIVERS_AND_CHANNELS
 10
673239.07164966466
 20
4798237.9313017717
 30
0.0
  0
VERTEX
  5
8E9
  8
RIVERS_AND_CHANNELS
 10
673200.84508071106
 20
4798244.9017436169
 30
0.0
  0
VERTEX
  5
8EA
  8
RIVERS_AND_CHANNELS
 10
673172.58464551799
 20
4798250.9815535201
 30
0.0
  0
VERTEX
  5
8EB
  8
RIVERS_AND_CHANNELS
 10
673146.36381430749
 20
4798251.1912689479
 30
0.0
  0
VERTEX
  5
8EC
  8
RIVERS_AND_CHANNELS
 10
673100.3506357827
 20
4798280.112865502
 30
0.0
  0
VERTEX
  5
8ED
  8
RIVERS_AND_CHANNELS
 10
673070.48520797794
 20
4798295.9263669802
 30
0.0
  0
VERTEX
  5
8EE
  8
RIVERS_AND_CHANNELS
 10
673039.47174276318
 20
4798314.8473081952
 30
0.0
  0
VERTEX
  5
8EF
  8
RIVERS_AND_CHANNELS
 10
673020.51641208387
 20
4798317.3853226909
 30
0.0
  0
VERTEX
  5
8F0
  8
RIVERS_AND_CHANNELS
 10
672999.56647911202
 20
4798316.7155427318
 30
0.0
  0
VERTEX
  5
8F1
  8
RIVERS_AND_CHANNELS
 10
672969.6339929346
 20
4798334.6230347222
 30
0.0
  0
VERTEX
  5
8F2
  8
RIVERS_AND_CHANNELS
 10
672953.21869760694
 20
4798356.1066456279
 30
0.0
  0
VERTEX
  5
8F3
  8
RIVERS_AND_CHANNELS
 10
672930.48476964817
 20
4798378.4363138517
 30
0.0
  0
VERTEX
  5
8F4
  8
RIVERS_AND_CHANNELS
 10
672899.80613205605
 20
4798386.8877559053
 30
0.0
  0
VERTEX
  5
8F5
  8
RIVERS_AND_CHANNELS
 10
672865.58331507794
 20
4798407.8020513318
 30
0.0
  0
VERTEX
  5
8F6
  8
RIVERS_AND_CHANNELS
 10
672823.48830618325
 20
4798438.6509431833
 30
0.0
  0
VERTEX
  5
8F7
  8
RIVERS_AND_CHANNELS
 10
672793.20420649869
 20
4798462.5766091468
 30
0.0
  0
VERTEX
  5
8F8
  8
RIVERS_AND_CHANNELS
 10
672772.1942838314
 20
4798484.9547809903
 30
0.0
  0
VERTEX
  5
8F9
  8
RIVERS_AND_CHANNELS
 10
672739.3516354746
 20
4798502.3446689537
 30
0.0
  0
VERTEX
  5
8FA
  8
RIVERS_AND_CHANNELS
 10
672724.25375462347
 20
4798512.925947614
 30
0.0
  0
VERTEX
  5
8FB
  8
RIVERS_AND_CHANNELS
 10
672698.78342314996
 20
4798530.5515322797
 30
0.0
  0
VERTEX
  5
8FC
  8
RIVERS_AND_CHANNELS
 10
672686.02921400988
 20
4798525.5337881139
 30
0.0
  0
VERTEX
  5
8FD
  8
RIVERS_AND_CHANNELS
 10
672652.02075488598
 20
4798521.6805876037
 30
0.0
  0
VERTEX
  5
8FE
  8
RIVERS_AND_CHANNELS
 10
672617.57060024468
 20
4798531.6431057472
 30
0.0
  0
VERTEX
  5
8FF
  8
RIVERS_AND_CHANNELS
 10
672581.15969223541
 20
4798545.230926129
 30
0.0
  0
VERTEX
  5
900
  8
RIVERS_AND_CHANNELS
 10
672545.40524625278
 20
4798567.1377666248
 30
0.0
  0
VERTEX
  5
901
  8
RIVERS_AND_CHANNELS
 10
672520.67971852678
 20
4798590.319145821
 30
0.0
  0
VERTEX
  5
902
  8
RIVERS_AND_CHANNELS
 10
672476.86704701651
 20
4798604.5923252068
 30
0.0
  0
VERTEX
  5
903
  8
RIVERS_AND_CHANNELS
 10
672434.95634796121
 20
4798617.082317356
 30
0.0
  0
VERTEX
  5
904
  8
RIVERS_AND_CHANNELS
 10
672391.80013847805
 20
4798639.6745168567
 30
0.0
  0
VERTEX
  5
905
  8
RIVERS_AND_CHANNELS
 10
672359.39918937685
 20
4798643.2485692324
 30
0.0
  0
VERTEX
  5
906
  8
RIVERS_AND_CHANNELS
 10
672323.01772611518
 20
4798655.9153923783
 30
0.0
  0
VERTEX
  5
907
  8
RIVERS_AND_CHANNELS
 10
672269.6474100037
 20
4798651.8346211184
 30
0.0
  0
VERTEX
  5
908
  8
RIVERS_AND_CHANNELS
 10
672197.72751599678
 20
4798691.2150424961
 30
0.0
  0
VERTEX
  5
909
  8
RIVERS_AND_CHANNELS
 10
672143.86807766301
 20
4798709.1752773207
 30
0.0
  0
VERTEX
  5
90A
  8
RIVERS_AND_CHANNELS
 10
672088.77744152094
 20
4798729.4116487913
 30
0.0
  0
VERTEX
  5
90B
  8
RIVERS_AND_CHANNELS
 10
671992.8153463651
 20
4798759.9190664543
 30
0.0
  0
VERTEX
  5
90C
  8
RIVERS_AND_CHANNELS
 10
671930.70761884958
 20
4798782.2466551522
 30
0.0
  0
SEQEND
  5
90D
  8
RIVERS_AND_CHANNELS
  0
POLYLINE
  5
86
  8
RIVERS_AND_CHANNELS
 66
     1
 10
0.0
 20
0.0
 30
0.0
  0
VERTEX
  5
90E
  8
RIVERS_AND_CHANNELS
 10
675389.43403689365
 20
4797757.8160419576
 30
0.0
  0
VERTEX
  5
90F
  8
RIVERS_AND_CHANNELS
 10
675259.61588776135
 20
4797797.466903992
 30
0.0
  0
VERTEX
  5
910
  8
RIVERS_AND_CHANNELS
 10
675174.2299054875
 20
4797818.0976676438
 30
0.0
  0
VERTEX
  5
911
  8
RIVERS_AND_CHANNELS
 10
675111.35346219747
 20
4797865.7288244432
 30
0.0
  0
VERTEX
  5
912
  8
RIVERS_AND_CHANNELS
 10
675030.40578529856
 20
4797930.3026969312
 30
0.0
  0
VERTEX
  5
913
  8
RIVERS_AND_CHANNELS
 10
674961.22581504355
 20
4797992.3326924164
 30
0.0
  0
VERTEX
  5
914
  8
RIVERS_AND_CHANNELS
 10
674939.02352017688
 20
4798047.1043568719
 30
0.0
  0
VERTEX
  5
915
  8
RIVERS_AND_CHANNELS
 10
674847.24063510739
 20
4798085.0511290086
 30
0.0
  0
VERTEX
  5
916
  8
RIVERS_AND_CHANNELS
 10
674629.79823741934
 20
4798215.3431034163
 30
0.0
  0
VERTEX
  5
917
  8
RIVERS_AND_CHANNELS
 10
674526.74152729369
 20
4798331.7715254463
 30
0.0
  0
VERTEX
  5
918
  8
RIVERS_AND_CHANNELS
 10
674459.9205441568
 20
4798411.3974596439
 30
0.0
  0
VERTEX
  5
919
  8
RIVERS_AND_CHANNELS
 10
674416.72834826959
 20
4798483.0185285173
 30
0.0
  0
VERTEX
  5
91A
  8
RIVERS_AND_CHANNELS
 10
674412.4108779215
 20
4798526.6816522377
 30
0.0
  0
VERTEX
  5
91B
  8
RIVERS_AND_CHANNELS
 10
674269.70588993852
 20
4798603.881536399
 30
0.0
  0
VERTEX
  5
91C
  8
RIVERS_AND_CHANNELS
 10
674160.22481595224
 20
4798647.1026230277
 30
0.0
  0
VERTEX
  5
91D
  8
RIVERS_AND_CHANNELS
 10
674162.33159527427
 20
4798763.9731370267
 30
0.0
  0
VERTEX
  5
91E
  8
RIVERS_AND_CHANNELS
 10
674103.98672086885
 20
4798852.6302292719
 30
0.0
  0
VERTEX
  5
91F
  8
RIVERS_AND_CHANNELS
 10
674065.51261340757
 20
4798959.4431206957
 30
0.0
  0
VERTEX
  5
920
  8
RIVERS_AND_CHANNELS
 10
673961.61655225814
 20
4799102.1254600352
 30
0.0
  0
VERTEX
  5
921
  8
RIVERS_AND_CHANNELS
 10
673684.65582630353
 20
4799184.9036342287
 30
0.0
  0
VERTEX
  5
922
  8
RIVERS_AND_CHANNELS
 10
673606.0398785139
 20
4799221.9851994757
 30
0.0
  0
VERTEX
  5
923
  8
RIVERS_AND_CHANNELS
 10
673529.68271570117
 20
4799244.7407705188
 30
0.0
  0
VERTEX
  5
924
  8
RIVERS_AND_CHANNELS
 10
673475.37174413714
 20
4799253.803019274
 30
0.0
  0
VERTEX
  5
925
  8
RIVERS_AND_CHANNELS
 10
673350.5600421729
 20
4799271.4099219972
 30
0.0
  0
VERTEX
  5
926
  8
RIVERS_AND_CHANNELS
 10
673315.11700925685
 20
4799309.8717471883
 30
0.0
  0
VERTEX
  5
927
  8
RIVERS_AND_CHANNELS
 10
673286.52450500871
 20
4799359.3511267183
 30
0.0
  0
VERTEX
  5
928
  8
RIVERS_AND_CHANNELS
 10
673243.65602857713
 20
4799404.7745440183
 30
0.0
  0
VERTEX
  5
929
  8
RIVERS_AND_CHANNELS
 10
673171.94808952115
 20
4799451.0757544544
 30
0.0
  0
VERTEX
  5
92A
  8
RIVERS_AND_CHANNELS
 10
673117.00494020944
 20
4799479.9152998729
 30
0.0
  0
VERTEX
  5
92B
  8
RIVERS_AND_CHANNELS
 10
673020.917624678
 20
4799500.2403411232
 30
0.0
  0
SEQEND
  5
92C
  8
RIVERS_AND_CHANNELS
  0
POLYLINE
  5
87
  8
RIVERS_AND_CHANNELS
 66
     1
 10
0.0
 20
0.0
 30
0.0
  0
VERTEX
  5
92D
  8
RIVERS_AND_CHANNELS
 10
674753.97065667436
 20
4796876.5605986658
 30
0.0
  0
VERTEX
  5
92E
  8
RIVERS_AND_CHANNELS
 10
674628.50592255592
 20
4796872.5494276164
 30
0.0
  0
VERTEX
  5
92F
  8
RIVERS_AND_CHANNELS
 10
674496.78470873425
 20
4796910.180737881
 30
0.0
  0
VERTEX
  5
930
  8
RIVERS_AND_CHANNELS
 10
674483.69808963151
 20
4796934.3756310828
 30
0.0
  0
VERTEX
  5
931
  8
RIVERS_AND_CHANNELS
 10
674377.36390618468
 20
4796948.2052985178
 30
0.0
  0
VERTEX
  5
932
  8
RIVERS_AND_CHANNELS
 10
674300.7079940429
 20
4796958.061209728
 30
0.0
  0
VERTEX
  5
933
  8
RIVERS_AND_CHANNELS
 10
674230.64616763173
 20
4796992.7411577133
 30
0.0
  0
VERTEX
  5
934
  8
RIVERS_AND_CHANNELS
 10
674163.75199854211
 20
4797005.3704495775
 30
0.0
  0
VERTEX
  5
935
  8
RIVERS_AND_CHANNELS
 10
674054.4074888227
 20
4797036.3331589801
 30
0.0
  0
VERTEX
  5
936
  8
RIVERS_AND_CHANNELS
 10
673873.16985549266
 20
4797082.2266924549
 30
0.0
  0
VERTEX
  5
937
  8
RIVERS_AND_CHANNELS
 10
673756.13050430373
 20
4797122.7886820827
 30
0.0
  0
VERTEX
  5
938
  8
RIVERS_AND_CHANNELS
 10
673695.90914169559
 20
4797157.7832346754
 30
0.0
  0
VERTEX
  5
939
  8
RIVERS_AND_CHANNELS
 10
673626.94795870152
 20
4797158.0398620684
 30
0.0
  0
VERTEX
  5
93A
  8
RIVERS_AND_CHANNELS
 10
673525.84833229135
 20
4797162.1915927324
 30
0.0
  0
VERTEX
  5
93B
  8
RIVERS_AND_CHANNELS
 10
673411.34776164347
 20
4797200.3734556772
 30
0.0
  0
VERTEX
  5
93C
  8
RIVERS_AND_CHANNELS
 10
673360.88814021868
 20
4797238.1414473886
 30
0.0
  0
VERTEX
  5
93D
  8
RIVERS_AND_CHANNELS
 10
673278.84034186043
 20
4797262.5928510483
 30
0.0
  0
VERTEX
  5
93E
  8
RIVERS_AND_CHANNELS
 10
673227.90906425146
 20
4797315.113695981
 30
0.0
  0
VERTEX
  5
93F
  8
RIVERS_AND_CHANNELS
 10
673150.62427719752
 20
4797344.6400781563
 30
0.0
  0
VERTEX
  5
940
  8
RIVERS_AND_CHANNELS
 10
673086.50471767597
 20
4797347.5127874883
 30
0.0
  0
VERTEX
  5
941
  8
RIVERS_AND_CHANNELS
 10
672930.41828569397
 20
4797376.9811339779
 30
0.0
  0
VERTEX
  5
942
  8
RIVERS_AND_CHANNELS
 10
672878.99218519917
 20
4797367.9530200968
 30
0.0
  0
VERTEX
  5
943
  8
RIVERS_AND_CHANNELS
 10
672803.35819572432
 20
4797345.8443867657
 30
0.0
  0
VERTEX
  5
944
  8
RIVERS_AND_CHANNELS
 10
672711.7058730413
 20
4797362.6047920333
 30
0.0
  0
VERTEX
  5
945
  8
RIVERS_AND_CHANNELS
 10
672652.1133853452
 20
4797377.9288736647
 30
0.0
  0
VERTEX
  5
946
  8
RIVERS_AND_CHANNELS
 10
672599.82258091145
 20
4797395.9476865921
 30
0.0
  0
VERTEX
  5
947
  8
RIVERS_AND_CHANNELS
 10
672574.82859829138
 20
4797407.455255839
 30
0.0
  0
VERTEX
  5
948
  8
RIVERS_AND_CHANNELS
 10
672524.22680317925
 20
4797407.5452310918
 30
0.0
  0
VERTEX
  5
949
  8
RIVERS_AND_CHANNELS
 10
672475.42378616973
 20
4797405.9849739391
 30
0.0
  0
VERTEX
  5
94A
  8
RIVERS_AND_CHANNELS
 10
672400.95976688457
 20
4797443.0418371772
 30
0.0
  0
VERTEX
  5
94B
  8
RIVERS_AND_CHANNELS
 10
672375.95841502433
 20
4797461.0223480295
 30
0.0
  0
VERTEX
  5
94C
  8
RIVERS_AND_CHANNELS
 10
672304.27118815365
 20
4797469.9982909057
 30
0.0
  0
VERTEX
  5
94D
  8
RIVERS_AND_CHANNELS
 10
672266.43050453591
 20
4797478.1783841969
 30
0.0
  0
VERTEX
  5
94E
  8
RIVERS_AND_CHANNELS
 10
672191.34892262565
 20
4797475.7779880231
 30
0.0
  0
VERTEX
  5
94F
  8
RIVERS_AND_CHANNELS
 10
672073.2754831569
 20
4797466.3692397689
 30
0.0
  0
VERTEX
  5
950
  8
RIVERS_AND_CHANNELS
 10
672013.33019865386
 20
4797460.6967602223
 30
0.0
  0
VERTEX
  5
951
  8
RIVERS_AND_CHANNELS
 10
671898.29101763852
 20
4797473.9207168752
 30
0.0
  0
VERTEX
  5
952
  8
RIVERS_AND_CHANNELS
 10
671813.82432223088
 20
4797471.2202738728
 30
0.0
  0
VERTEX
  5
953
  8
RIVERS_AND_CHANNELS
 10
671585.74303131772
 20
4797493.9760360923
 30
0.0
  0
VERTEX
  5
954
  8
RIVERS_AND_CHANNELS
 10
671486.08006109216
 20
4797496.4236996584
 30
0.0
  0
VERTEX
  5
955
  8
RIVERS_AND_CHANNELS
 10
671414.75259197387
 20
4797494.1433243686
 30
0.0
  0
VERTEX
  5
956
  8
RIVERS_AND_CHANNELS
 10
671363.29285343224
 20
4797516.9118278464
 30
0.0
  0
VERTEX
  5
957
  8
RIVERS_AND_CHANNELS
 10
671304.32500162756
 20
4797539.4402931379
 30
0.0
  0
VERTEX
  5
958
  8
RIVERS_AND_CHANNELS
 10
671257.65656321403
 20
4797588.6536734952
 30
0.0
  0
VERTEX
  5
959
  8
RIVERS_AND_CHANNELS
 10
671211.16817309335
 20
4797632.2388709243
 30
0.0
  0
VERTEX
  5
95A
  8
RIVERS_AND_CHANNELS
 10
671191.25824053597
 20
4797667.28391599
 30
0.0
  0
VERTEX
  5
95B
  8
RIVERS_AND_CHANNELS
 10
671148.64380757709
 20
4797707.2370258551
 30
0.0
  0
VERTEX
  5
95C
  8
RIVERS_AND_CHANNELS
 10
671111.60062255606
 20
4797749.2461920381
 30
0.0
  0
VERTEX
  5
95D
  8
RIVERS_AND_CHANNELS
 10
671076.85428712389
 20
4797778.1829706337
 30
0.0
  0
VERTEX
  5
95E
  8
RIVERS_AND_CHANNELS
 10
671037.07662399032
 20
4797788.1791369403
 30
0.0
  0
SEQEND
  5
95F
  8
RIVERS_AND_CHANNELS
  0
POLYLINE
  5
88
  8
RIVERS_AND_CHANNELS
 66
     1
 10
0.0
 20
0.0
 30
0.0
  0
VERTEX
  5
960
  8
RIVERS_AND_CHANNELS
 10
672940.85160955018
 20
4797031.9608940724
 30
0.0
  0
VERTEX
  5
961
  8
RIVERS_AND_CHANNELS
 10
672868.78463702695
 20
4797072.1048564231
 30
0.0
  0
VERTEX
  5
962
  8
RIVERS_AND_CHANNELS
 10
672820.66463521693
 20
4797101.2232937524
 30
0.0
  0
VERTEX
  5
963
  8
RIVERS_AND_CHANNELS
 10
672768.28252129676
 20
4797116.0561815724
 30
0.0
  0
VERTEX
  5
964
  8
RIVERS_AND_CHANNELS
 10
672682.90177503042
 20
4797129.8340864172
 30
0.0
  0
VERTEX
  5
965
  8
RIVERS_AND_CHANNELS
 10
672626.63402176904
 20
4797118.6022804314
 30
0.0
  0
VERTEX
  5
966
  8
RIVERS_AND_CHANNELS
 10
672584.50852346711
 20
4797107.8226094916
 30
0.0
  0
VERTEX
  5
967
  8
RIVERS_AND_CHANNELS
 10
672539.42343079834
 20
4797115.8141137008
 30
0.0
  0
VERTEX
  5
968
  8
RIVERS_AND_CHANNELS
 10
672506.04832755285
 20
4797126.5382165536
 30
0.0
  0
VERTEX
  5
969
  8
RIVERS_AND_CHANNELS
 10
672432.15151032549
 20
4797150.1161073288
 30
0.0
  0
VERTEX
  5
96A
  8
RIVERS_AND_CHANNELS
 10
672396.72050012206
 20
4797151.3415843593
 30
0.0
  0
VERTEX
  5
96B
  8
RIVERS_AND_CHANNELS
 10
672311.71644939773
 20
4797153.3404105539
 30
0.0
  0
VERTEX
  5
96C
  8
RIVERS_AND_CHANNELS
 10
672252.79036834615
 20
4797151.4565139189
 30
0.0
  0
VERTEX
  5
96D
  8
RIVERS_AND_CHANNELS
 10
672128.01776821224
 20
4797142.751022025
 30
0.0
  0
VERTEX
  5
96E
  8
RIVERS_AND_CHANNELS
 10
672073.80580958771
 20
4797141.0178382704
 30
0.0
  0
VERTEX
  5
96F
  8
RIVERS_AND_CHANNELS
 10
672048.78215874254
 20
4797111.9191857092
 30
0.0
  0
VERTEX
  5
970
  8
RIVERS_AND_CHANNELS
 10
671974.81002487126
 20
4797137.8528929278
 30
0.0
  0
VERTEX
  5
971
  8
RIVERS_AND_CHANNELS
 10
671903.57153356425
 20
4797152.0829328233
 30
0.0
  0
VERTEX
  5
972
  8
RIVERS_AND_CHANNELS
 10
671844.64545251278
 20
4797150.1990361884
 30
0.0
  0
VERTEX
  5
973
  8
RIVERS_AND_CHANNELS
 10
671790.73476046475
 20
4797139.0425866423
 30
0.0
  0
VERTEX
  5
974
  8
RIVERS_AND_CHANNELS
 10
671757.73612811859
 20
4797137.9876036625
 30
0.0
  0
VERTEX
  5
975
  8
RIVERS_AND_CHANNELS
 10
671688.77938325075
 20
4797154.6487579774
 30
0.0
  0
VERTEX
  5
976
  8
RIVERS_AND_CHANNELS
 10
671589.40701531328
 20
4797163.2628948763
 30
0.0
  0
VERTEX
  5
977
  8
RIVERS_AND_CHANNELS
 10
671539.53259589477
 20
4797173.4595062397
 30
0.0
  0
VERTEX
  5
978
  8
RIVERS_AND_CHANNELS
 10
671480.53119819937
 20
4797173.9314260539
 30
0.0
  0
VERTEX
  5
979
  8
RIVERS_AND_CHANNELS
 10
671435.74737210711
 20
4797172.4996644659
 30
0.0
  0
SEQEND
  5
97A
  8
RIVERS_AND_CHANNELS
  0
POLYLINE
  5
89
  8
RIVERS_AND_CHANNELS
 66
     1
 10
0.0
 20
0.0
 30
0.0
  0
VERTEX
  5
97B
  8
RIVERS_AND_CHANNELS
 10
676411.02561041224
 20
4796447.8485618718
 30
0.0
  0
VERTEX
  5
97C
  8
RIVERS_AND_CHANNELS
 10
676415.81035477028
 20
4796483.5368459113
 30
0.0
  0
VERTEX
  5
97D
  8
RIVERS_AND_CHANNELS
 10
676417.6352098221
 20
4796519.130500786
 30
0.0
  0
VERTEX
  5
97E
  8
RIVERS_AND_CHANNELS
 10
676410.67531152465
 20
4796551.482002154
 30
0.0
  0
VERTEX
  5
97F
  8
RIVERS_AND_CHANNELS
 10
676395.21427663811
 20
4796571.7166329473
 30
0.0
  0
VERTEX
  5
980
  8
RIVERS_AND_CHANNELS
 10
676394.17393044208
 20
4796604.2574439207
 30
0.0
  0
VERTEX
  5
981
  8
RIVERS_AND_CHANNELS
 10
676439.44989819499
 20
4796670.8529652022
 30
0.0
  0
VERTEX
  5
982
  8
RIVERS_AND_CHANNELS
 10
676465.42607806611
 20
4796692.4123647241
 30
0.0
  0
VERTEX
  5
983
  8
RIVERS_AND_CHANNELS
 10
676478.23896239744
 20
4796755.0087828282
 30
0.0
  0
VERTEX
  5
984
  8
RIVERS_AND_CHANNELS
 10
676452.47983134957
 20
4796819.3333345791
 30
0.0
  0
VERTEX
  5
985
  8
RIVERS_AND_CHANNELS
 10
676406.09683901176
 20
4796880.0372305466
 30
0.0
  0
VERTEX
  5
986
  8
RIVERS_AND_CHANNELS
 10
676383.77048156527
 20
4796929.6651443718
 30
0.0
  0
VERTEX
  5
987
  8
RIVERS_AND_CHANNELS
 10
676377.1888899561
 20
4796950.1836554604
 30
0.0
  0
VERTEX
  5
988
  8
RIVERS_AND_CHANNELS
 10
676302.65445148619
 20
4797057.3679337241
 30
0.0
  0
VERTEX
  5
989
  8
RIVERS_AND_CHANNELS
 10
676250.73009954463
 20
4797106.0495846849
 30
0.0
  0
VERTEX
  5
98A
  8
RIVERS_AND_CHANNELS
 10
676234.03956698731
 20
4797164.741463121
 30
0.0
  0
VERTEX
  5
98B
  8
RIVERS_AND_CHANNELS
 10
676232.62091410288
 20
4797209.1152643738
 30
0.0
  0
VERTEX
  5
98C
  8
RIVERS_AND_CHANNELS
 10
676210.19998091925
 20
4797261.7013965352
 30
0.0
  0
VERTEX
  5
98D
  8
RIVERS_AND_CHANNELS
 10
676185.48130838899
 20
4797293.4851409039
 30
0.0
  0
VERTEX
  5
98E
  8
RIVERS_AND_CHANNELS
 10
676184.44096219295
 20
4797326.0259518763
 30
0.0
  0
VERTEX
  5
98F
  8
RIVERS_AND_CHANNELS
 10
676182.45484927646
 20
4797388.149238551
 30
0.0
  0
VERTEX
  5
990
  8
RIVERS_AND_CHANNELS
 10
676180.84704304824
 20
4797438.4395349436
 30
0.0
  0
VERTEX
  5
991
  8
RIVERS_AND_CHANNELS
 10
676116.79974176257
 20
4797495.6173935169
 30
0.0
  0
VERTEX
  5
992
  8
RIVERS_AND_CHANNELS
 10
676069.28182749113
 20
4797591.8203187929
 30
0.0
  0
VERTEX
  5
993
  8
RIVERS_AND_CHANNELS
 10
676061.28319906024
 20
4797652.7794604907
 30
0.0
  0
VERTEX
  5
994
  8
RIVERS_AND_CHANNELS
 10
676050.64266797912
 20
4797741.0152073344
 30
0.0
  0
VERTEX
  5
995
  8
RIVERS_AND_CHANNELS
 10
676038.31343326496
 20
4797800.5400796412
 30
0.0
  0
VERTEX
  5
996
  8
RIVERS_AND_CHANNELS
 10
676037.39819173061
 20
4797829.1677632602
 30
0.0
  0
VERTEX
  5
997
  8
RIVERS_AND_CHANNELS
 10
676044.98481258214
 20
4797917.9862999003
 30
0.0
  0
VERTEX
  5
998
  8
RIVERS_AND_CHANNELS
 10
676047.94597411808
 20
4797988.4206943503
 30
0.0
  0
VERTEX
  5
999
  8
RIVERS_AND_CHANNELS
 10
676042.76282660034
 20
4798069.0154500781
 30
0.0
  0
VERTEX
  5
99A
  8
RIVERS_AND_CHANNELS
 10
676031.62307133456
 20
4798172.8663449138
 30
0.0
  0
VERTEX
  5
99B
  8
RIVERS_AND_CHANNELS
 10
676032.23001305119
 20
4798235.4099488053
 30
0.0
  0
VERTEX
  5
99C
  8
RIVERS_AND_CHANNELS
 10
676011.50685999473
 20
4798312.9026686838
 30
0.0
  0
VERTEX
  5
99D
  8
RIVERS_AND_CHANNELS
 10
675924.93797396135
 20
4798411.7369005578
 30
0.0
  0
VERTEX
  5
99E
  8
RIVERS_AND_CHANNELS
 10
675840.11636790005
 20
4798455.9182606284
 30
0.0
  0
VERTEX
  5
99F
  8
RIVERS_AND_CHANNELS
 10
675789.06192304869
 20
4798503.7843294051
 30
0.0
  0
VERTEX
  5
9A0
  8
RIVERS_AND_CHANNELS
 10
675778.83740931726
 20
4798579.0075406218
 30
0.0
  0
VERTEX
  5
9A1
  8
RIVERS_AND_CHANNELS
 10
675742.15811731282
 20
4798666.4108736282
 30
0.0
  0
VERTEX
  5
9A2
  8
RIVERS_AND_CHANNELS
 10
675697.41760889872
 20
4798761.3720104229
 30
0.0
  0
VERTEX
  5
9A3
  8
RIVERS_AND_CHANNELS
 10
675676.27832430205
 20
4798851.8773208056
 30
0.0
  0
SEQEND
  5
9A4
  8
RIVERS_AND_CHANNELS
  0
POLYLINE
  5
8A
  8
RIVERS_AND_CHANNELS
 66
     1
 10
0.0
 20
0.0
 30
0.0
  0
VERTEX
  5
9A5
  8
RIVERS_AND_CHANNELS
 10
676082.75518745871
 20
4797551.8640478542
 30
0.0
  0
VERTEX
  5
9A6
  8
RIVERS_AND_CHANNELS
 10
676023.47311626701
 20
4797612.4930282198
 30
0.0
  0
VERTEX
  5
9A7
  8
RIVERS_AND_CHANNELS
 10
675956.04662743909
 20
4797683.2822493399
 30
0.0
  0
VERTEX
  5
9A8
  8
RIVERS_AND_CHANNELS
 10
675933.80117881089
 20
4797726.8590453556
 30
0.0
  0
VERTEX
  5
9A9
  8
RIVERS_AND_CHANNELS
 10
675880.39239994972
 20
4797766.8343784567
 30
0.0
  0
VERTEX
  5
9AA
  8
RIVERS_AND_CHANNELS
 10
675862.68909708923
 20
4797831.3977500359
 30
0.0
  0
VERTEX
  5
9AB
  8
RIVERS_AND_CHANNELS
 10
675861.77385555499
 20
4797860.0254336558
 30
0.0
  0
VERTEX
  5
9AC
  8
RIVERS_AND_CHANNELS
 10
675837.09098401142
 20
4797898.313934545
 30
0.0
  0
VERTEX
  5
9AD
  8
RIVERS_AND_CHANNELS
 10
675794.18095866567
 20
4797936.0197041053
 30
0.0
  0
VERTEX
  5
9AE
  8
RIVERS_AND_CHANNELS
 10
675741.02179096185
 20
4797968.1874924423
 30
0.0
  0
VERTEX
  5
9AF
  8
RIVERS_AND_CHANNELS
 10
675709.5257587966
 20
4797974.9960733112
 30
0.0
  0
VERTEX
  5
9B0
  8
RIVERS_AND_CHANNELS
 10
675675.50898642908
 20
4797979.1189093627
 30
0.0
  0
VERTEX
  5
9B1
  8
RIVERS_AND_CHANNELS
 10
675630.32794622937
 20
4798006.3313344652
 30
0.0
  0
VERTEX
  5
9B2
  8
RIVERS_AND_CHANNELS
 10
675598.93951927475
 20
4798091.2986636274
 30
0.0
  0
VERTEX
  5
9B3
  8
RIVERS_AND_CHANNELS
 10
675581.56903066789
 20
4798145.4519950161
 30
0.0
  0
VERTEX
  5
9B4
  8
RIVERS_AND_CHANNELS
 10
675574.19795907126
 20
4798212.9509072658
 30
0.0
  0
VERTEX
  5
9B5
  8
RIVERS_AND_CHANNELS
 10
675563.97344533959
 20
4798288.1741184806
 30
0.0
  0
VERTEX
  5
9B6
  8
RIVERS_AND_CHANNELS
 10
675554.16495082714
 20
4798350.3847356066
 30
0.0
  0
VERTEX
  5
9B7
  8
RIVERS_AND_CHANNELS
 10
675420.77546402311
 20
4798609.2429578016
 30
0.0
  0
VERTEX
  5
9B8
  8
RIVERS_AND_CHANNELS
 10
675398.19720114127
 20
4798663.2297940124
 30
0.0
  0
VERTEX
  5
9B9
  8
RIVERS_AND_CHANNELS
 10
675357.39189677848
 20
4798716.633902479
 30
0.0
  0
VERTEX
  5
9BA
  8
RIVERS_AND_CHANNELS
 10
675319.10710610601
 20
4798772.7238070508
 30
0.0
  0
VERTEX
  5
9BB
  8
RIVERS_AND_CHANNELS
 10
675282.42781410168
 20
4798860.1271400563
 30
0.0
  0
VERTEX
  5
9BC
  8
RIVERS_AND_CHANNELS
 10
675168.70756805921
 20
4799045.7566266209
 30
0.0
  0
VERTEX
  5
9BD
  8
RIVERS_AND_CHANNELS
 10
675123.17088328674
 20
4799139.1708647441
 30
0.0
  0
VERTEX
  5
9BE
  8
RIVERS_AND_CHANNELS
 10
675038.60631884378
 20
4799224.7945943857
 30
0.0
  0
VERTEX
  5
9BF
  8
RIVERS_AND_CHANNELS
 10
675017.42062682565
 20
4799273.1880326979
 30
0.0
  0
SEQEND
  5
9C0
  8
RIVERS_AND_CHANNELS
  0
POLYLINE
  5
8B
  8
RIVERS_AND_CHANNELS
 66
     1
 10
0.0
 20
0.0
 30
0.0
  0
VERTEX
  5
9C1
  8
RIVERS_AND_CHANNELS
 10
673614.64555298886
 20
4806258.0406125169
 30
0.0
  0
VERTEX
  5
9C2
  8
RIVERS_AND_CHANNELS
 10
673669.01977950393
 20
4806315.9761518082
 30
0.0
  0
VERTEX
  5
9C3
  8
RIVERS_AND_CHANNELS
 10
673668.01019402198
 20
4806347.5548036564
 30
0.0
  0
VERTEX
  5
9C4
  8
RIVERS_AND_CHANNELS
 10
673638.13091271138
 20
4806402.7966571311
 30
0.0
  0
VERTEX
  5
9C5
  8
RIVERS_AND_CHANNELS
 10
673575.53469067439
 20
4806492.1158071905
 30
0.0
  0
VERTEX
  5
9C6
  8
RIVERS_AND_CHANNELS
 10
673562.64730437391
 20
4806565.4625662854
 30
0.0
  0
VERTEX
  5
9C7
  8
RIVERS_AND_CHANNELS
 10
673608.20562700252
 20
4806679.313365886
 30
0.0
  0
VERTEX
  5
9C8
  8
RIVERS_AND_CHANNELS
 10
673606.41080961411
 20
4806735.4531524153
 30
0.0
  0
VERTEX
  5
9C9
  8
RIVERS_AND_CHANNELS
 10
673600.43233676255
 20
4806812.5330793681
 30
0.0
  0
VERTEX
  5
9CA
  8
RIVERS_AND_CHANNELS
 10
673584.48305539915
 20
4806871.7326269262
 30
0.0
  0
VERTEX
  5
9CB
  8
RIVERS_AND_CHANNELS
 10
673576.00367813732
 20
4806917.1217284249
 30
0.0
  0
VERTEX
  5
9CC
  8
RIVERS_AND_CHANNELS
 10
673590.86422913405
 20
4807001.8925793851
 30
0.0
  0
SEQEND
  5
9CD
  8
RIVERS_AND_CHANNELS
  0
POLYLINE
  5
8C
  8
RIVERS_AND_CHANNELS
 66
     1
 10
0.0
 20
0.0
 30
0.0
  0
VERTEX
  5
9CE
  8
RIVERS_AND_CHANNELS
 10
676650.40386666497
 20
4807978.4728305973
 30
0.0
  0
VERTEX
  5
9CF
  8
RIVERS_AND_CHANNELS
 10
676555.54077821039
 20
4808048.525650424
 30
0.0
  0
VERTEX
  5
9D0
  8
RIVERS_AND_CHANNELS
 10
676499.48159539397
 20
4808124.6914775334
 30
0.0
  0
VERTEX
  5
9D1
  8
RIVERS_AND_CHANNELS
 10
676468.86137787264
 20
4808167.5639649713
 30
0.0
  0
VERTEX
  5
9D2
  8
RIVERS_AND_CHANNELS
 10
676427.72327125526
 20
4808234.4620314129
 30
0.0
  0
VERTEX
  5
9D3
  8
RIVERS_AND_CHANNELS
 10
676376.53400042537
 20
4808310.7835520711
 30
0.0
  0
VERTEX
  5
9D4
  8
RIVERS_AND_CHANNELS
 10
676286.69643698132
 20
4808376.1246722303
 30
0.0
  0
VERTEX
  5
9D5
  8
RIVERS_AND_CHANNELS
 10
676207.06564890535
 20
4808427.1750034168
 30
0.0
  0
VERTEX
  5
9D6
  8
RIVERS_AND_CHANNELS
 10
676179.7593217059
 20
4808518.8772371449
 30
0.0
  0
VERTEX
  5
9D7
  8
RIVERS_AND_CHANNELS
 10
676138.46560206381
 20
4808590.6426968081
 30
0.0
  0
VERTEX
  5
9D8
  8
RIVERS_AND_CHANNELS
 10
676106.75609150028
 20
4808667.5869952599
 30
0.0
  0
VERTEX
  5
9D9
  8
RIVERS_AND_CHANNELS
 10
676076.29148887296
 20
4808705.5920310076
 30
0.0
  0
VERTEX
  5
9DA
  8
RIVERS_AND_CHANNELS
 10
676063.9062378722
 20
4808788.0265040686
 30
0.0
  0
VERTEX
  5
9DB
  8
RIVERS_AND_CHANNELS
 10
676051.67648757505
 20
4808865.5935803177
 30
0.0
  0
VERTEX
  5
9DC
  8
RIVERS_AND_CHANNELS
 10
676029.8625263297
 20
4808937.9818762429
 30
0.0
  0
VERTEX
  5
9DD
  8
RIVERS_AND_CHANNELS
 10
675940.33618893544
 20
4808993.5882099587
 30
0.0
  0
VERTEX
  5
9DE
  8
RIVERS_AND_CHANNELS
 10
675746.20693911344
 20
4809118.9359764038
 30
0.0
  0
VERTEX
  5
9DF
  8
RIVERS_AND_CHANNELS
 10
675571.71294839215
 20
4809240.0391822979
 30
0.0
  0
VERTEX
  5
9E0
  8
RIVERS_AND_CHANNELS
 10
675517.20989956183
 20
4809267.530960259
 30
0.0
  0
VERTEX
  5
9E1
  8
RIVERS_AND_CHANNELS
 10
675453.12263978366
 20
4809289.8439578973
 30
0.0
  0
VERTEX
  5
9E2
  8
RIVERS_AND_CHANNELS
 10
675365.30804939975
 20
4809291.9088492477
 30
0.0
  0
VERTEX
  5
9E3
  8
RIVERS_AND_CHANNELS
 10
675261.63870279933
 20
4809332.4459190574
 30
0.0
  0
VERTEX
  5
9E4
  8
RIVERS_AND_CHANNELS
 10
675201.33206196502
 20
4809388.9864212628
 30
0.0
  0
VERTEX
  5
9E5
  8
RIVERS_AND_CHANNELS
 10
675175.58187062072
 20
4809432.0145473722
 30
0.0
  0
VERTEX
  5
9E6
  8
RIVERS_AND_CHANNELS
 10
675164.13018731645
 20
4809485.244599049
 30
0.0
  0
VERTEX
  5
9E7
  8
RIVERS_AND_CHANNELS
 10
675133.3544690914
 20
4809532.9844832979
 30
0.0
  0
VERTEX
  5
9E8
  8
RIVERS_AND_CHANNELS
 10
675127.23953871685
 20
4809571.7679903917
 30
0.0
  0
SEQEND
  5
9E9
  8
RIVERS_AND_CHANNELS
  0
POLYLINE
  5
8D
  8
RIVERS_AND_CHANNELS
 66
     1
 10
0.0
 20
0.0
 30
0.0
  0
VERTEX
  5
9EA
  8
RIVERS_AND_CHANNELS
 10
675272.00109306129
 20
4809313.2876783982
 30
0.0
  0
VERTEX
  5
9EB
  8
RIVERS_AND_CHANNELS
 10
675297.59567325038
 20
4809275.1268870393
 30
0.0
  0
VERTEX
  5
9EC
  8
RIVERS_AND_CHANNELS
 10
675318.63156563346
 20
4809227.0756741557
 30
0.0
  0
VERTEX
  5
9ED
  8
RIVERS_AND_CHANNELS
 10
675335.57561489195
 20
4809154.531684679
 30
0.0
  0
VERTEX
  5
9EE
  8
RIVERS_AND_CHANNELS
 10
675328.63683097216
 20
4809066.6070441939
 30
0.0
  0
VERTEX
  5
9EF
  8
RIVERS_AND_CHANNELS
 10
675326.5678467179
 20
4808978.838093671
 30
0.0
  0
VERTEX
  5
9F0
  8
RIVERS_AND_CHANNELS
 10
675329.21327374608
 20
4808896.0922335088
 30
0.0
  0
VERTEX
  5
9F1
  8
RIVERS_AND_CHANNELS
 10
675360.92278430972
 20
4808819.1479350552
 30
0.0
  0
VERTEX
  5
9F2
  8
RIVERS_AND_CHANNELS
 10
675412.11205513962
 20
4808742.8264143951
 30
0.0
  0
VERTEX
  5
9F3
  8
RIVERS_AND_CHANNELS
 10
675438.17347440287
 20
4808690.0634433748
 30
0.0
  0
VERTEX
  5
9F4
  8
RIVERS_AND_CHANNELS
 10
675499.88063432893
 20
4808589.7163437121
 30
0.0
  0
VERTEX
  5
9F5
  8
RIVERS_AND_CHANNELS
 10
675521.38336765533
 20
4808527.0628926968
 30
0.0
  0
VERTEX
  5
9F6
  8
RIVERS_AND_CHANNELS
 10
675567.54711347423
 20
4808455.4530717079
 30
0.0
  0
VERTEX
  5
9F7
  8
RIVERS_AND_CHANNELS
 10
675607.90715496789
 20
4808412.8919713739
 30
0.0
  0
VERTEX
  5
9F8
  8
RIVERS_AND_CHANNELS
 10
675672.46125382045
 20
4808375.9767940734
 30
0.0
  0
SEQEND
  5
9F9
  8
RIVERS_AND_CHANNELS
  0
POLYLINE
  5
8E
  8
RIVERS_AND_CHANNELS
 66
     1
 10
0.0
 20
0.0
 30
0.0
  0
VERTEX
  5
9FA
  8
RIVERS_AND_CHANNELS
 10
674429.2817224866
 20
4809598.1777252974
 30
0.0
  0
VERTEX
  5
9FB
  8
RIVERS_AND_CHANNELS
 10
674502.75179363589
 20
4809434.8657290544
 30
0.0
  0
VERTEX
  5
9FC
  8
RIVERS_AND_CHANNELS
 10
674551.56085229246
 20
4809280.5101027777
 30
0.0
  0
VERTEX
  5
9FD
  8
RIVERS_AND_CHANNELS
 10
674602.59451009776
 20
4809209.0559753422
 30
0.0
  0
VERTEX
  5
9FE
  8
RIVERS_AND_CHANNELS
 10
674712.06744870183
 20
4809139.4701812882
 30
0.0
  0
VERTEX
  5
9FF
  8
RIVERS_AND_CHANNELS
 10
674827.966431409
 20
4809021.3660901058
 30
0.0
  0
VERTEX
  5
A00
  8
RIVERS_AND_CHANNELS
 10
674905.21712150215
 20
4808892.2815984245
 30
0.0
  0
VERTEX
  5
A01
  8
RIVERS_AND_CHANNELS
 10
674987.49333660642
 20
4808758.485407074
 30
0.0
  0
VERTEX
  5
A02
  8
RIVERS_AND_CHANNELS
 10
675048.88938280405
 20
4808667.8730974467
 30
0.0
  0
VERTEX
  5
A03
  8
RIVERS_AND_CHANNELS
 10
675139.66051394434
 20
4808573.3275559032
 30
0.0
  0
VERTEX
  5
A04
  8
RIVERS_AND_CHANNELS
 10
675294.51913137478
 20
4808456.4689654335
 30
0.0
  0
VERTEX
  5
A05
  8
RIVERS_AND_CHANNELS
 10
675374.92798457434
 20
4808381.0816681404
 30
0.0
  0
VERTEX
  5
A06
  8
RIVERS_AND_CHANNELS
 10
675366.74418226629
 20
4808332.0962282997
 30
0.0
  0
VERTEX
  5
A07
  8
RIVERS_AND_CHANNELS
 10
675445.59701567085
 20
4808305.3829252766
 30
0.0
  0
VERTEX
  5
A08
  8
RIVERS_AND_CHANNELS
 10
675490.20451518265
 20
4808282.4471498439
 30
0.0
  0
SEQEND
  5
A09
  8
RIVERS_AND_CHANNELS
  0
POLYLINE
  5
8F
  8
RIVERS_AND_CHANNELS
 66
     1
 10
0.0
 20
0.0
 30
0.0
  0
VERTEX
  5
A0A
  8
RIVERS_AND_CHANNELS
 10
681488.66534158494
 20
4803773.306211398
 30
0.0
  0
VERTEX
  5
A0B
  8
RIVERS_AND_CHANNELS
 10
681460.71572592657
 20
4803821.43576157
 30
0.0
  0
VERTEX
  5
A0C
  8
RIVERS_AND_CHANNELS
 10
681440.66575296456
 20
4803858.5048051011
 30
0.0
  0
VERTEX
  5
A0D
  8
RIVERS_AND_CHANNELS
 10
681439.10005952965
 20
4803907.4778626198
 30
0.0
  0
VERTEX
  5
A0E
  8
RIVERS_AND_CHANNELS
 10
681481.8003805076
 20
4803988.0341563672
 30
0.0
  0
VERTEX
  5
A0F
  8
RIVERS_AND_CHANNELS
 10
681475.62245797063
 20
4804063.2568062115
 30
0.0
  0
VERTEX
  5
A10
  8
RIVERS_AND_CHANNELS
 10
681478.30768048728
 20
4804097.2817237265
 30
0.0
  0
VERTEX
  5
A11
  8
RIVERS_AND_CHANNELS
 10
681480.63147753221
 20
4804142.6080899769
 30
0.0
  0
VERTEX
  5
A12
  8
RIVERS_AND_CHANNELS
 10
681444.18025648245
 20
4804220.6338688657
 30
0.0
  0
VERTEX
  5
A13
  8
RIVERS_AND_CHANNELS
 10
681384.99372576294
 20
4804301.7038286477
 30
0.0
  0
VERTEX
  5
A14
  8
RIVERS_AND_CHANNELS
 10
681403.51359492075
 20
4804430.5101746432
 30
0.0
  0
VERTEX
  5
A15
  8
RIVERS_AND_CHANNELS
 10
681402.42965359963
 20
4804464.414590084
 30
0.0
  0
VERTEX
  5
A16
  8
RIVERS_AND_CHANNELS
 10
681401.3457122785
 20
4804498.3190055229
 30
0.0
  0
VERTEX
  5
A17
  8
RIVERS_AND_CHANNELS
 10
681380.45267405175
 20
4804561.7581434557
 30
0.0
  0
VERTEX
  5
A18
  8
RIVERS_AND_CHANNELS
 10
681351.66010545054
 20
4804636.2577916197
 30
0.0
  0
VERTEX
  5
A19
  8
RIVERS_AND_CHANNELS
 10
681326.636588366
 20
4804710.8779382678
 30
0.0
  0
VERTEX
  5
A1A
  8
RIVERS_AND_CHANNELS
 10
681237.05620971892
 20
4804798.5181547888
 30
0.0
  0
VERTEX
  5
A1B
  8
RIVERS_AND_CHANNELS
 10
681205.09666648705
 20
4804854.0615275148
 30
0.0
  0
VERTEX
  5
A1C
  8
RIVERS_AND_CHANNELS
 10
681155.55857042421
 20
4805016.2914863266
 30
0.0
  0
VERTEX
  5
A1D
  8
RIVERS_AND_CHANNELS
 10
681152.8037406056
 20
4805102.4593376843
 30
0.0
  0
VERTEX
  5
A1E
  8
RIVERS_AND_CHANNELS
 10
681137.42118673294
 20
4805168.3182744374
 30
0.0
  0
VERTEX
  5
A1F
  8
RIVERS_AND_CHANNELS
 10
681089.54679177864
 20
4805316.0767926676
 30
0.0
  0
VERTEX
  5
A20
  8
RIVERS_AND_CHANNELS
 10
681045.30609596823
 20
4805453.9989114236
 30
0.0
  0
VERTEX
  5
A21
  8
RIVERS_AND_CHANNELS
 10
681043.39890551846
 20
4805513.653595739
 30
0.0
  0
VERTEX
  5
A22
  8
RIVERS_AND_CHANNELS
 10
681017.85682353785
 20
4805585.8227938619
 30
0.0
  0
VERTEX
  5
A23
  8
RIVERS_AND_CHANNELS
 10
680999.15832389821
 20
4805651.5756596196
 30
0.0
  0
VERTEX
  5
A24
  8
RIVERS_AND_CHANNELS
 10
680976.08443599415
 20
4805750.364092187
 30
0.0
  0
VERTEX
  5
A25
  8
RIVERS_AND_CHANNELS
 10
680969.37792901276
 20
4805856.3108063024
 30
0.0
  0
VERTEX
  5
A26
  8
RIVERS_AND_CHANNELS
 10
680953.67751131125
 20
4805932.1121514579
 30
0.0
  0
VERTEX
  5
A27
  8
RIVERS_AND_CHANNELS
 10
680908.02817063546
 20
4806010.2735769693
 30
0.0
  0
VERTEX
  5
A28
  8
RIVERS_AND_CHANNELS
 10
680904.63760942081
 20
4806116.3263620781
 30
0.0
  0
VERTEX
  5
A29
  8
RIVERS_AND_CHANNELS
 10
680902.83637482719
 20
4806172.6668712804
 30
0.0
  0
VERTEX
  5
A2A
  8
RIVERS_AND_CHANNELS
 10
680887.45371050248
 20
4806238.5257459683
 30
0.0
  0
VERTEX
  5
A2B
  8
RIVERS_AND_CHANNELS
 10
680898.81008595473
 20
4806298.6044731988
 30
0.0
  0
VERTEX
  5
A2C
  8
RIVERS_AND_CHANNELS
 10
680929.53192239837
 20
4806375.8900198461
 30
0.0
  0
VERTEX
  5
A2D
  8
RIVERS_AND_CHANNELS
 10
680956.61994737748
 20
4806463.0119623747
 30
0.0
  0
VERTEX
  5
A2E
  8
RIVERS_AND_CHANNELS
 10
680970.8683384601
 20
4806536.4532820592
 30
0.0
  0
VERTEX
  5
A2F
  8
RIVERS_AND_CHANNELS
 10
680968.43137433927
 20
4806612.6786665404
 30
0.0
  0
VERTEX
  5
A30
  8
RIVERS_AND_CHANNELS
 10
680956.70725784346
 20
4806753.4681972302
 30
0.0
  0
VERTEX
  5
A31
  8
RIVERS_AND_CHANNELS
 10
680954.71739517059
 20
4806815.7087718965
 30
0.0
  0
VERTEX
  5
A32
  8
RIVERS_AND_CHANNELS
 10
680960.40483901766
 20
4806867.199891842
 30
0.0
  0
VERTEX
  5
A33
  8
RIVERS_AND_CHANNELS
 10
680951.55702713213
 20
4806914.5613839598
 30
0.0
  0
VERTEX
  5
A34
  8
RIVERS_AND_CHANNELS
 10
680945.90403374075
 20
4806976.6847879542
 30
0.0
  0
VERTEX
  5
A35
  8
RIVERS_AND_CHANNELS
 10
680944.49942655466
 20
4807020.619256218
 30
0.0
  0
VERTEX
  5
A36
  8
RIVERS_AND_CHANNELS
 10
680942.97776752349
 20
4807068.2149691507
 30
0.0
  0
VERTEX
  5
A37
  8
RIVERS_AND_CHANNELS
 10
680948.89942364325
 20
4807112.383720289
 30
0.0
  0
VERTEX
  5
A38
  8
RIVERS_AND_CHANNELS
 10
680987.43789848359
 20
4807168.5900326669
 30
0.0
  0
VERTEX
  5
A39
  8
RIVERS_AND_CHANNELS
 10
680996.78858723992
 20
4807220.198268408
 30
0.0
  0
VERTEX
  5
A3A
  8
RIVERS_AND_CHANNELS
 10
680969.50806243951
 20
4807270.6353857107
 30
0.0
  0
VERTEX
  5
A3B
  8
RIVERS_AND_CHANNELS
 10
680963.97211902402
 20
4807329.0976035073
 30
0.0
  0
VERTEX
  5
A3C
  8
RIVERS_AND_CHANNELS
 10
680951.22696040838
 20
4807383.6644106992
 30
0.0
  0
SEQEND
  5
A3D
  8
RIVERS_AND_CHANNELS
  0
POLYLINE
  5
90
  8
RIVERS_AND_CHANNELS
 66
     1
 10
0.0
 20
0.0
 30
0.0
  0
VERTEX
  5
A3E
  8
RIVERS_AND_CHANNELS
 10
681260.52574245399
 20
4804751.6286916994
 30
0.0
  0
VERTEX
  5
A3F
  8
RIVERS_AND_CHANNELS
 10
681215.02051812841
 20
4804807.8984487969
 30
0.0
  0
VERTEX
  5
A40
  8
RIVERS_AND_CHANNELS
 10
681182.28898753552
 20
4804855.2159139002
 30
0.0
  0
VERTEX
  5
A41
  8
RIVERS_AND_CHANNELS
 10
681155.08258601616
 20
4804876.1878389316
 30
0.0
  0
VERTEX
  5
A42
  8
RIVERS_AND_CHANNELS
 10
681140.20143651508
 20
4804902.2342037652
 30
0.0
  0
VERTEX
  5
A43
  8
RIVERS_AND_CHANNELS
 10
681100.32087974809
 20
4804929.0414566463
 30
0.0
  0
VERTEX
  5
A44
  8
RIVERS_AND_CHANNELS
 10
681067.43986920675
 20
4804981.0344795221
 30
0.0
  0
VERTEX
  5
A45
  8
RIVERS_AND_CHANNELS
 10
681038.97307368403
 20
4804992.6053771442
 30
0.0
  0
VERTEX
  5
A46
  8
RIVERS_AND_CHANNELS
 10
680979.5684095826
 20
4804995.386575222
 30
0.0
  0
VERTEX
  5
A47
  8
RIVERS_AND_CHANNELS
 10
680919.36662518
 20
4805023.1042799205
 30
0.0
  0
VERTEX
  5
A48
  8
RIVERS_AND_CHANNELS
 10
680888.84220303094
 20
4805050.2106531598
 30
0.0
  0
VERTEX
  5
A49
  8
RIVERS_AND_CHANNELS
 10
680867.52432323003
 20
4805082.2917009424
 30
0.0
  0
VERTEX
  5
A4A
  8
RIVERS_AND_CHANNELS
 10
680845.09552937467
 20
4805100.2961635357
 30
0.0
  0
VERTEX
  5
A4B
  8
RIVERS_AND_CHANNELS
 10
680821.30680116068
 20
4805112.0166213373
 30
0.0
  0
VERTEX
  5
A4C
  8
RIVERS_AND_CHANNELS
 10
680757.22418394091
 20
4805114.6482043583
 30
0.0
  0
VERTEX
  5
A4D
  8
RIVERS_AND_CHANNELS
 10
680711.40527818259
 20
4805131.9048732361
 30
0.0
  0
VERTEX
  5
A4E
  8
RIVERS_AND_CHANNELS
 10
680608.50318910915
 20
4805176.9788915403
 30
0.0
  0
VERTEX
  5
A4F
  8
RIVERS_AND_CHANNELS
 10
680552.73022333113
 20
4805212.6388465697
 30
0.0
  0
VERTEX
  5
A50
  8
RIVERS_AND_CHANNELS
 10
680407.9466736489
 20
4805317.7577851573
 30
0.0
  0
VERTEX
  5
A51
  8
RIVERS_AND_CHANNELS
 10
680365.88789304788
 20
4805345.7994693294
 30
0.0
  0
VERTEX
  5
A52
  8
RIVERS_AND_CHANNELS
 10
680348.40862287895
 20
4805402.0541195106
 30
0.0
  0
VERTEX
  5
A53
  8
RIVERS_AND_CHANNELS
 10
680344.69848180085
 20
4805456.7899147226
 30
0.0
  0
VERTEX
  5
A54
  8
RIVERS_AND_CHANNELS
 10
680311.24148324155
 20
4805522.3292294173
 30
0.0
  0
VERTEX
  5
A55
  8
RIVERS_AND_CHANNELS
 10
680286.61797396548
 20
4805556.805569564
 30
0.0
  0
VERTEX
  5
A56
  8
RIVERS_AND_CHANNELS
 10
680286.82413754985
 20
4805611.6665710136
 30
0.0
  0
VERTEX
  5
A57
  8
RIVERS_AND_CHANNELS
 10
680245.40950367879
 20
4805680.8696566066
 30
0.0
  0
VERTEX
  5
A58
  8
RIVERS_AND_CHANNELS
 10
680178.28923252388
 20
4805757.0872224877
 30
0.0
  0
VERTEX
  5
A59
  8
RIVERS_AND_CHANNELS
 10
680116.71194798686
 20
4805782.5457706871
 30
0.0
  0
VERTEX
  5
A5A
  8
RIVERS_AND_CHANNELS
 10
680103.96215404174
 20
4805813.4835389964
 30
0.0
  0
VERTEX
  5
A5B
  8
RIVERS_AND_CHANNELS
 10
680103.01590170304
 20
4805858.2283540415
 30
0.0
  0
VERTEX
  5
A5C
  8
RIVERS_AND_CHANNELS
 10
680042.43228115898
 20
4805905.4929144476
 30
0.0
  0
VERTEX
  5
A5D
  8
RIVERS_AND_CHANNELS
 10
679992.54833462229
 20
4805926.0387311839
 30
0.0
  0
VERTEX
  5
A5E
  8
RIVERS_AND_CHANNELS
 10
679961.62796814903
 20
4805969.3315134551
 30
0.0
  0
VERTEX
  5
A5F
  8
RIVERS_AND_CHANNELS
 10
679916.42596073216
 20
4805997.4072637558
 30
0.0
  0
VERTEX
  5
A60
  8
RIVERS_AND_CHANNELS
 10
679904.46536690975
 20
4806034.6891011316
 30
0.0
  0
VERTEX
  5
A61
  8
RIVERS_AND_CHANNELS
 10
679903.61334223254
 20
4806061.339435488
 30
0.0
  0
VERTEX
  5
A62
  8
RIVERS_AND_CHANNELS
 10
679892.1357067778
 20
4806116.7528184997
 30
0.0
  0
VERTEX
  5
A63
  8
RIVERS_AND_CHANNELS
 10
679879.08609132818
 20
4806145.4383704979
 30
0.0
  0
VERTEX
  5
A64
  8
RIVERS_AND_CHANNELS
 10
679877.76932676719
 20
4806186.6252242913
 30
0.0
  0
VERTEX
  5
A65
  8
RIVERS_AND_CHANNELS
 10
679857.13787133456
 20
4806224.769279791
 30
0.0
  0
VERTEX
  5
A66
  8
RIVERS_AND_CHANNELS
 10
679824.15401979536
 20
4806269.7941994267
 30
0.0
  0
VERTEX
  5
A67
  8
RIVERS_AND_CHANNELS
 10
679815.48767380707
 20
4806313.1712641753
 30
0.0
  0
VERTEX
  5
A68
  8
RIVERS_AND_CHANNELS
 10
679801.97342892585
 20
4806356.3933976702
 30
0.0
  0
VERTEX
  5
A69
  8
RIVERS_AND_CHANNELS
 10
679793.46199498558
 20
4806394.9249949176
 30
0.0
  0
VERTEX
  5
A6A
  8
RIVERS_AND_CHANNELS
 10
679782.21684272855
 20
4806443.0700925682
 30
0.0
  0
VERTEX
  5
A6B
  8
RIVERS_AND_CHANNELS
 10
679780.66770916036
 20
4806491.5251768436
 30
0.0
  0
VERTEX
  5
A6C
  8
RIVERS_AND_CHANNELS
 10
679758.07698707003
 20
4806515.0552747203
 30
0.0
  0
VERTEX
  5
A6D
  8
RIVERS_AND_CHANNELS
 10
679707.15317679849
 20
4806744.7368805939
 30
0.0
  0
VERTEX
  5
A6E
  8
RIVERS_AND_CHANNELS
 10
679694.22815514216
 20
4806863.0950702578
 30
0.0
  0
VERTEX
  5
A6F
  8
RIVERS_AND_CHANNELS
 10
679676.09069977107
 20
4806953.8778470634
 30
0.0
  0
VERTEX
  5
A70
  8
RIVERS_AND_CHANNELS
 10
679656.07662171475
 20
4807008.0555828204
 30
0.0
  0
VERTEX
  5
A71
  8
RIVERS_AND_CHANNELS
 10
679654.90945112787
 20
4807044.5633122539
 30
0.0
  0
VERTEX
  5
A72
  8
RIVERS_AND_CHANNELS
 10
679634.70073138468
 20
4807104.8256952278
 30
0.0
  0
VERTEX
  5
A73
  8
RIVERS_AND_CHANNELS
 10
679642.95707069244
 20
4807132.4984232932
 30
0.0
  0
VERTEX
  5
A74
  8
RIVERS_AND_CHANNELS
 10
679647.19686131668
 20
4807190.4969732473
 30
0.0
  0
VERTEX
  5
A75
  8
RIVERS_AND_CHANNELS
 10
679692.54741024855
 20
4807305.894940909
 30
0.0
  0
VERTEX
  5
A76
  8
RIVERS_AND_CHANNELS
 10
679681.86125133117
 20
4807388.6085422002
 30
0.0
  0
SEQEND
  5
A77
  8
RIVERS_AND_CHANNELS
  0
ENDSEC
  0
EOF
