  0
SECTION
  2
HEADER
  9
$ACADVER
  1
AC1009
  9
$INSBASE
 10
0.0
 20
0.0
 30
0.0
  9
$EXTMIN
 10
664372.77025226178
 20
4793376.9712664401
 30
0.0
  9
$EXTMAX
 10
686219.42396552244
 20
4811454.421712446
 30
0.0
  9
$LIMMIN
 10
0.0
 20
0.0
  9
$LIMMAX
 10
12.0
 20
9.0
  9
$ORTHOMODE
 70
     0
  9
$REGENMODE
 70
     1
  9
$FILLMODE
 70
     1
  9
$QTEXTMODE
 70
     0
  9
$MIRRTEXT
 70
     0
  9
$DRAGMODE
 70
     2
  9
$LTSCALE
 40
1.0
  9
$OSMODE
 70
    37
  9
$ATTMODE
 70
     1
  9
$TEXTSIZE
 40
200.0
  9
$TRACEWID
 40
0.05
  9
$TEXTSTYLE
  7
STANDARD
  9
$CLAYER
  8
SURVBOUNDARY
  9
$CELTYPE
  6
BYLAYER
  9
$CECOLOR
 62
   256
  9
$DIMSCALE
 40
1.0
  9
$DIMASZ
 40
0.18
  9
$DIMEXO
 40
0.0625
  9
$DIMDLI
 40
0.38
  9
$DIMRND
 40
0.0
  9
$DIMDLE
 40
0.0
  9
$DIMEXE
 40
0.18
  9
$DIMTP
 40
0.0
  9
$DIMTM
 40
0.0
  9
$DIMTXT
 40
0.18
  9
$DIMCEN
 40
0.09
  9
$DIMTSZ
 40
0.0
  9
$DIMTOL
 70
     0
  9
$DIMLIM
 70
     0
  9
$DIMTIH
 70
     1
  9
$DIMTOH
 70
     1
  9
$DIMSE1
 70
     0
  9
$DIMSE2
 70
     0
  9
$DIMTAD
 70
     0
  9
$DIMZIN
 70
     0
  9
$DIMBLK
  1

  9
$DIMASO
 70
     1
  9
$DIMSHO
 70
     1
  9
$DIMPOST
  1

  9
$DIMAPOST
  1

  9
$DIMALT
 70
     0
  9
$DIMALTD
 70
     2
  9
$DIMALTF
 40
25.399999999999999
  9
$DIMLFAC
 40
1.0
  9
$DIMTOFL
 70
     0
  9
$DIMTVP
 40
0.0
  9
$DIMTIX
 70
     0
  9
$DIMSOXD
 70
     0
  9
$DIMSAH
 70
     0
  9
$DIMBLK1
  1

  9
$DIMBLK2
  1

  9
$DIMSTYLE
  2
STANDARD
  9
$DIMCLRD
 70
     0
  9
$DIMCLRE
 70
     0
  9
$DIMCLRT
 70
     0
  9
$DIMTFAC
 40
1.0
  9
$DIMGAP
 40
0.09
  9
$LUNITS
 70
     2
  9
$LUPREC
 70
     4
  9
$SKETCHINC
 40
0.1
  9
$FILLETRAD
 40
0.0
  9
$AUNITS
 70
     0
  9
$AUPREC
 70
     0
  9
$MENU
  1
.
  9
$ELEVATION
 40
0.0
  9
$PELEVATION
 40
0.0
  9
$THICKNESS
 40
0.0
  9
$LIMCHECK
 70
     0
  9
$BLIPMODE
 70
     0
  9
$CHAMFERA
 40
0.0
  9
$CHAMFERB
 40
0.0
  9
$SKPOLY
 70
     0
  9
$TDCREATE
 40
2455831.585385602
  9
$TDUPDATE
 40
2456234.6002256018
  9
$TDINDWG
 40
0.3661498611
  9
$TDUSRTIMER
 40
0.3661439005
  9
$USRTIMER
 70
     1
  9
$ANGBASE
 50
0.0
  9
$ANGDIR
 70
     0
  9
$PDMODE
 70
     0
  9
$PDSIZE
 40
0.0
  9
$PLINEWID
 40
0.0
  9
$COORDS
 70
     1
  9
$SPLFRAME
 70
     0
  9
$SPLINETYPE
 70
     6
  9
$SPLINESEGS
 70
     8
  9
$ATTDIA
 70
     0
  9
$ATTREQ
 70
     1
  9
$HANDLING
 70
     1
  9
$HANDSEED
  5
11C
  9
$SURFTAB1
 70
     6
  9
$SURFTAB2
 70
     6
  9
$SURFTYPE
 70
     6
  9
$SURFU
 70
     6
  9
$SURFV
 70
     6
  9
$UCSNAME
  2

  9
$UCSORG
 10
0.0
 20
0.0
 30
0.0
  9
$UCSXDIR
 10
1.0
 20
0.0
 30
0.0
  9
$UCSYDIR
 10
0.0
 20
1.0
 30
0.0
  9
$PUCSNAME
  2

  9
$PUCSORG
 10
0.0
 20
0.0
 30
0.0
  9
$PUCSXDIR
 10
1.0
 20
0.0
 30
0.0
  9
$PUCSYDIR
 10
0.0
 20
1.0
 30
0.0
  9
$USERI1
 70
     0
  9
$USERI2
 70
     0
  9
$USERI3
 70
     0
  9
$USERI4
 70
     0
  9
$USERI5
 70
     0
  9
$USERR1
 40
0.0
  9
$USERR2
 40
0.0
  9
$USERR3
 40
0.0
  9
$USERR4
 40
0.0
  9
$USERR5
 40
0.0
  9
$WORLDVIEW
 70
     1
  9
$SHADEDGE
 70
     3
  9
$SHADEDIF
 70
    70
  9
$TILEMODE
 70
     1
  9
$MAXACTVP
 70
    64
  9
$PLIMCHECK
 70
     0
  9
$PEXTMIN
 10
0.0
 20
0.0
 30
0.0
  9
$PEXTMAX
 10
0.0
 20
0.0
 30
0.0
  9
$PLIMMIN
 10
0.0
 20
0.0
  9
$PLIMMAX
 10
12.0
 20
9.0
  9
$UNITMODE
 70
     0
  9
$VISRETAIN
 70
     1
  9
$PLINEGEN
 70
     0
  9
$PSLTSCALE
 70
     1
  0
ENDSEC
  0
SECTION
  2
TABLES
  0
TABLE
  2
VPORT
 70
     1
  0
VPORT
  2
*ACTIVE
 70
     0
 10
0.0
 20
0.0
 11
1.0
 21
1.0
 12
677402.55815597018
 22
4799612.6420916002
 13
0.0
 23
0.0
 14
0.5
 24
0.5
 15
0.5
 25
0.5
 16
0.0
 26
0.0
 36
1.0
 17
0.0
 27
0.0
 37
0.0
 40
28082.33781289119
 41
1.9114927344782029
 42
50.0
 43
0.0
 44
0.0
 50
0.0
 51
0.0
 71
     0
 72
  1000
 73
     1
 74
     3
 75
     0
 76
     0
 77
     0
 78
     0
  0
ENDTAB
  0
TABLE
  2
LTYPE
 70
     1
  0
LTYPE
  2
CONTINUOUS
 70
     0
  3
Solid line
 72
    65
 73
     0
 40
0.0
  0
ENDTAB
  0
TABLE
  2
LAYER
 70
     4
  0
LAYER
  2
0
 70
     4
 62
    -7
  6
CONTINUOUS
  0
LAYER
  2
SURVBOUNDARY
 70
     0
 62
    50
  6
CONTINUOUS
  0
LAYER
  2
SITES
 70
     0
 62
    10
  6
CONTINUOUS
  0
LAYER
  2
SITELABELS
 70
     0
 62
   130
  6
CONTINUOUS
  0
ENDTAB
  0
TABLE
  2
STYLE
 70
     1
  0
STYLE
  2
STANDARD
 70
     0
 40
0.0
 41
1.0
 50
0.0
 71
     0
 42
200.0
  3
txt
  4

  0
ENDTAB
  0
TABLE
  2
VIEW
 70
     0
  0
ENDTAB
  0
TABLE
  2
UCS
 70
     0
  0
ENDTAB
  0
TABLE
  2
APPID
 70
     2
  0
APPID
  2
ACAD
 70
     0
  0
APPID
  2
ADE
 70
     0
  0
ENDTAB
  0
TABLE
  2
DIMSTYLE
 70
     1
  0
DIMSTYLE
  2
STANDARD
 70
     0
  3

  4

  5

  6

  7

 40
1.0
 41
0.18
 42
0.0625
 43
0.38
 44
0.18
 45
0.0
 46
0.0
 47
0.0
 48
0.0
140
0.18
141
0.09
142
0.0
143
25.399999999999999
144
1.0
145
0.0
146
1.0
147
0.09
 71
     0
 72
     0
 73
     1
 74
     1
 75
     0
 76
     0
 77
     0
 78
     0
170
     0
171
     2
172
     0
173
     0
174
     0
175
     0
176
     0
177
     0
178
     0
  0
ENDTAB
  0
ENDSEC
  0
SECTION
  2
BLOCKS
  0
BLOCK
  8
0
  2
$MODEL_SPACE
 70
     0
 10
0.0
 20
0.0
 30
0.0
  3
$MODEL_SPACE
  1

  0
ENDBLK
  5
17
  8
0
  0
BLOCK
 67
     1
  8
0
  2
$PAPER_SPACE
 70
     0
 10
0.0
 20
0.0
 30
0.0
  3
$PAPER_SPACE
  1

  0
ENDBLK
  5
1E
 67
     1
  8
0
  0
BLOCK
  8
0
  2
A$C1BD37175
 70
     0
 10
0.0
 20
0.0
 30
0.0
  3
A$C1BD37175
  1

  0
POLYLINE
  5
7A
  8
SITES
 66
     1
 10
0.0
 20
0.0
 30
0.0
  0
VERTEX
  5
EF
  8
SITES
 10
71.417766105849296
 20
-71.41780966706574
 30
0.0
  0
VERTEX
  5
F0
  8
SITES
 10
-0.0000187936238945
 20
-0.0000247675925493
 30
0.0
  0
VERTEX
  5
F1
  8
SITES
 10
70.357105934526771
 20
70.357099960558116
 30
0.0
  0
VERTEX
  5
F2
  8
SITES
 10
-0.0000187936238945
 20
140.7142246887087
 30
0.0
  0
VERTEX
  5
F3
  8
SITES
 10
-141.06782164052129
 20
-0.3535781586542726
 30
0.0
  0
VERTEX
  5
F4
  8
SITES
 10
0.7070879871025682
 20
-142.1284877862781
 30
0.0
  0
VERTEX
  5
F5
  8
SITES
 10
141.7748908339999
 20
-1.060684939846396
 30
0.0
  0
VERTEX
  5
F6
  8
SITES
 10
70.357105934526771
 20
70.357099960558116
 30
0.0
  0
SEQEND
  5
F7
  8
SITES
  0
POLYLINE
  5
7B
  8
SITES
 66
     1
 10
0.0
 20
0.0
 30
0.0
  0
VERTEX
  5
F8
  8
SITES
 10
-0.0000187936238945
 20
-0.0000247675925493
 30
0.0
  0
VERTEX
  5
F9
  8
SITES
 10
-70.35714352177456
 20
70.357099959626794
 30
0.0
  0
SEQEND
  5
FA
  8
SITES
  0
POLYLINE
  5
7C
  8
SITES
 66
     1
 10
0.0
 20
0.0
 30
0.0
  0
VERTEX
  5
FB
  8
SITES
 10
-0.0000187936238945
 20
-0.0000247675925493
 30
0.0
  0
VERTEX
  5
FC
  8
SITES
 10
-70.710696912370622
 20
-70.710702886804938
 30
0.0
  0
SEQEND
  5
FD
  8
SITES
  0
ENDBLK
  5
7D
  8
0
  0
BLOCK
  8
0
  2
A$C21D93612
 70
     0
 10
0.0
 20
0.0
 30
0.0
  3
A$C21D93612
  1

  0
INSERT
  5
81
  8
SITES
  2
A$C1BD37175
 10
0.0
 20
0.0
 30
0.0
  0
ENDBLK
  5
82
  8
0
  0
BLOCK
  8
0
  2
A$C04202BF0
 70
     0
 10
0.0
 20
0.0
 30
0.0
  3
A$C04202BF0
  1

  0
POLYLINE
  5
87
  8
SITES
 66
     1
 10
0.0
 20
0.0
 30
0.0
  0
VERTEX
  5
FE
  8
SITES
 10
71.41778489947319
 20
-71.41778489947319
 30
0.0
  0
VERTEX
  5
FF
  8
SITES
 10
0.0
 20
0.0
 30
0.0
  0
VERTEX
  5
100
  8
SITES
 10
70.357124728150652
 20
70.357124728150652
 30
0.0
  0
VERTEX
  5
101
  8
SITES
 10
0.0
 20
140.7142494563013
 30
0.0
  0
VERTEX
  5
102
  8
SITES
 10
-141.06780284689739
 20
-0.3535533910617232
 30
0.0
  0
VERTEX
  5
103
  8
SITES
 10
0.7071067807264626
 20
-142.12846301868561
 30
0.0
  0
VERTEX
  5
104
  8
SITES
 10
141.7749096276238
 20
-1.060660172253846
 30
0.0
  0
VERTEX
  5
105
  8
SITES
 10
70.357124728150652
 20
70.357124728150652
 30
0.0
  0
SEQEND
  5
106
  8
SITES
  0
POLYLINE
  5
88
  8
SITES
 66
     1
 10
0.0
 20
0.0
 30
0.0
  0
VERTEX
  5
107
  8
SITES
 10
0.0
 20
0.0
 30
0.0
  0
VERTEX
  5
108
  8
SITES
 10
-70.357124728150652
 20
70.357124727219343
 30
0.0
  0
SEQEND
  5
109
  8
SITES
  0
POLYLINE
  5
89
  8
SITES
 66
     1
 10
0.0
 20
0.0
 30
0.0
  0
VERTEX
  5
10A
  8
SITES
 10
0.0
 20
0.0
 30
0.0
  0
VERTEX
  5
10B
  8
SITES
 10
-70.710678118746742
 20
-70.710678119212375
 30
0.0
  0
SEQEND
  5
10C
  8
SITES
  0
ENDBLK
  5
8A
  8
0
  0
BLOCK
  8
0
  2
A$C79112156
 70
     0
 10
0.0
 20
0.0
 30
0.0
  3
A$C79112156
  1

  0
POLYLINE
  5
90
  8
SITES
 66
     1
 10
0.0
 20
0.0
 30
0.0
  0
VERTEX
  5
10D
  8
SITES
 10
71.41778489947319
 20
-71.41778489947319
 30
0.0
  0
VERTEX
  5
10E
  8
SITES
 10
0.0
 20
0.0
 30
0.0
  0
VERTEX
  5
10F
  8
SITES
 10
70.357124728150652
 20
70.357124728150652
 30
0.0
  0
VERTEX
  5
110
  8
SITES
 10
0.0
 20
140.7142494563013
 30
0.0
  0
VERTEX
  5
111
  8
SITES
 10
-141.06780284689739
 20
-0.3535533910617232
 30
0.0
  0
VERTEX
  5
112
  8
SITES
 10
0.7071067807264626
 20
-142.12846301868561
 30
0.0
  0
VERTEX
  5
113
  8
SITES
 10
141.7749096276238
 20
-1.060660172253846
 30
0.0
  0
VERTEX
  5
114
  8
SITES
 10
70.357124728150652
 20
70.357124728150652
 30
0.0
  0
SEQEND
  5
115
  8
SITES
  0
POLYLINE
  5
91
  8
SITES
 66
     1
 10
0.0
 20
0.0
 30
0.0
  0
VERTEX
  5
116
  8
SITES
 10
0.0
 20
0.0
 30
0.0
  0
VERTEX
  5
117
  8
SITES
 10
-70.357124728150652
 20
70.357124727219343
 30
0.0
  0
SEQEND
  5
118
  8
SITES
  0
POLYLINE
  5
92
  8
SITES
 66
     1
 10
0.0
 20
0.0
 30
0.0
  0
VERTEX
  5
119
  8
SITES
 10
0.0
 20
0.0
 30
0.0
  0
VERTEX
  5
11A
  8
SITES
 10
-70.710678118746742
 20
-70.710678119212375
 30
0.0
  0
SEQEND
  5
11B
  8
SITES
  0
ENDBLK
  5
93
  8
0
  0
ENDSEC
  0
SECTION
  2
ENTITIES
  0
POLYLINE
  5
73
  8
SURVBOUNDARY
 66
     1
 10
0.0
 20
0.0
 30
0.0
 70
     1
  0
VERTEX
  5
BB
  8
SURVBOUNDARY
 10
679047.70112497977
 20
4793376.9712664401
 30
0.0
  0
VERTEX
  5
BC
  8
SURVBOUNDARY
 10
677894.53966124472
 20
4794404.2685365304
 30
0.0
  0
VERTEX
  5
BD
  8
SURVBOUNDARY
 10
675879.98053498613
 20
4796070.1559750177
 30
0.0
  0
VERTEX
  5
BE
  8
SURVBOUNDARY
 10
675463.17514720245
 20
4796347.8038900411
 30
0.0
  0
VERTEX
  5
BF
  8
SURVBOUNDARY
 10
674726.81907125085
 20
4796653.2165500857
 30
0.0
  0
VERTEX
  5
C0
  8
SURVBOUNDARY
 10
674400.78091347462
 20
4796806.8303011712
 30
0.0
  0
VERTEX
  5
C1
  8
SURVBOUNDARY
 10
674055.66638058284
 20
4796880.724241741
 30
0.0
  0
VERTEX
  5
C2
  8
SURVBOUNDARY
 10
673476.36699317221
 20
4796929.9868687876
 30
0.0
  0
VERTEX
  5
C3
  8
SURVBOUNDARY
 10
672675.2082490155
 20
4797053.1434364067
 30
0.0
  0
VERTEX
  5
C4
  8
SURVBOUNDARY
 10
672021.95567654842
 20
4797028.5121228853
 30
0.0
  0
VERTEX
  5
C5
  8
SURVBOUNDARY
 10
670715.45063082583
 20
4796942.302551371
 30
0.0
  0
VERTEX
  5
C6
  8
SURVBOUNDARY
 10
669347.31799703068
 20
4796856.0929282177
 30
0.0
  0
VERTEX
  5
C7
  8
SURVBOUNDARY
 10
668361.27648865536
 20
4796708.3050470762
 30
0.0
  0
VERTEX
  5
C8
  8
SURVBOUNDARY
 10
666685.00581528503
 20
4796560.5171659337
 30
0.0
  0
VERTEX
  5
C9
  8
SURVBOUNDARY
 10
664912.80283842026
 20
4797901.3355530817
 30
0.0
  0
VERTEX
  5
CA
  8
SURVBOUNDARY
 10
664372.77025226178
 20
4798277.0067885406
 30
0.0
  0
VERTEX
  5
CB
  8
SURVBOUNDARY
 10
665441.63737144077
 20
4800271.4931852994
 30
0.0
  0
VERTEX
  5
CC
  8
SURVBOUNDARY
 10
665571.12147084484
 20
4800418.1244861102
 30
0.0
  0
VERTEX
  5
CD
  8
SURVBOUNDARY
 10
667288.94468965323
 20
4801798.1838182453
 30
0.0
  0
VERTEX
  5
CE
  8
SURVBOUNDARY
 10
669674.00291752839
 20
4804179.3491308121
 30
0.0
  0
VERTEX
  5
CF
  8
SURVBOUNDARY
 10
670991.96605091786
 20
4805402.3612253629
 30
0.0
  0
VERTEX
  5
D0
  8
SURVBOUNDARY
 10
671627.08783739351
 20
4805855.05224114
 30
0.0
  0
VERTEX
  5
D1
  8
SURVBOUNDARY
 10
672528.92419275781
 20
4806561.8550849883
 30
0.0
  0
VERTEX
  5
D2
  8
SURVBOUNDARY
 10
672697.16157234495
 20
4806645.9064812148
 30
0.0
  0
VERTEX
  5
D3
  8
SURVBOUNDARY
 10
674643.90833659121
 20
4807180.2331664274
 30
0.0
  0
VERTEX
  5
D4
  8
SURVBOUNDARY
 10
676923.54185973061
 20
4807636.3280247152
 30
0.0
  0
VERTEX
  5
D5
  8
SURVBOUNDARY
 10
679184.60776664945
 20
4808053.3049554015
 30
0.0
  0
VERTEX
  5
D6
  8
SURVBOUNDARY
 10
680262.02844435861
 20
4808068.4677519444
 30
0.0
  0
VERTEX
  5
D7
  8
SURVBOUNDARY
 10
681309.09919351747
 20
4808364.1423103036
 30
0.0
  0
VERTEX
  5
D8
  8
SURVBOUNDARY
 10
682652.08139879676
 20
4808614.328479046
 30
0.0
  0
VERTEX
  5
D9
  8
SURVBOUNDARY
 10
683248.62937951239
 20
4808711.9930245997
 30
0.0
  0
VERTEX
  5
DA
  8
SURVBOUNDARY
 10
683493.76911867212
 20
4808693.1512232367
 30
0.0
  0
VERTEX
  5
DB
  8
SURVBOUNDARY
 10
685662.31273613416
 20
4808231.5267799506
 30
0.0
  0
VERTEX
  5
DC
  8
SURVBOUNDARY
 10
686219.42396552244
 20
4804172.9820773322
 30
0.0
  0
VERTEX
  5
DD
  8
SURVBOUNDARY
 10
685933.06265200023
 20
4804156.6333146971
 30
0.0
  0
VERTEX
  5
DE
  8
SURVBOUNDARY
 10
685703.487284031
 20
4804095.77431075
 30
0.0
  0
VERTEX
  5
DF
  8
SURVBOUNDARY
 10
685473.91191606177
 20
4804044.278210626
 30
0.0
  0
VERTEX
  5
E0
  8
SURVBOUNDARY
 10
685328.67027979461
 20
4804048.9596367152
 30
0.0
  0
VERTEX
  5
E1
  8
SURVBOUNDARY
 10
684536.86950468295
 20
4803721.2572283261
 30
0.0
  0
VERTEX
  5
E2
  8
SURVBOUNDARY
 10
684279.18282667187
 20
4803641.672313449
 30
0.0
  0
VERTEX
  5
E3
  8
SURVBOUNDARY
 10
682831.99830713018
 20
4801849.9610198084
 30
0.0
  0
VERTEX
  5
E4
  8
SURVBOUNDARY
 10
682542.41042247147
 20
4801383.2574871834
 30
0.0
  0
VERTEX
  5
E5
  8
SURVBOUNDARY
 10
681895.79195487918
 20
4801605.8215532284
 30
0.0
  0
VERTEX
  5
E6
  8
SURVBOUNDARY
 10
681771.48285015696
 20
4801605.8215532284
 30
0.0
  0
VERTEX
  5
E7
  8
SURVBOUNDARY
 10
681475.45789556205
 20
4799444.5369060608
 30
0.0
  0
VERTEX
  5
E8
  8
SURVBOUNDARY
 10
681285.05666488106
 20
4798192.9599886788
 30
0.0
  0
VERTEX
  5
E9
  8
SURVBOUNDARY
 10
681197.40101935598
 20
4797593.6903495621
 30
0.0
  0
VERTEX
  5
EA
  8
SURVBOUNDARY
 10
681095.90490953624
 20
4797289.4457865898
 30
0.0
  0
VERTEX
  5
EB
  8
SURVBOUNDARY
 10
680063.37357288133
 20
4795276.4314325694
 30
0.0
  0
VERTEX
  5
EC
  8
SURVBOUNDARY
 10
679533.08737056411
 20
4794314.8301976277
 30
0.0
  0
VERTEX
  5
ED
  8
SURVBOUNDARY
 10
679081.98639485857
 20
4793446.6675873324
 30
0.0
  0
SEQEND
  5
EE
  8
SURVBOUNDARY
  0
INSERT
  5
74
  8
SITES
  2
A$C1BD37175
 10
671583.53000000026
 20
4803169.0099999988
 30
0.0
  0
INSERT
  5
7E
  8
SITES
  2
A$C21D93612
 10
672461.40000000026
 20
4804240.0499999998
 30
0.0
  0
INSERT
  5
83
  8
SITES
  2
A$C21D93612
 10
674698.75
 20
4799634.8099999987
 30
0.0
  0
INSERT
  5
84
  8
SITES
  2
A$C04202BF0
 10
677113.57999999996
 20
4799537.0300000003
 30
0.0
  0
INSERT
  5
8B
  8
SITES
  2
A$C04202BF0
 10
674318.60999999987
 20
4799965.9499999993
 30
0.0
  0
INSERT
  5
8C
  8
SITES
  2
A$C04202BF0
 10
673314.5
 20
4804011.1900000004
 30
0.0
  0
INSERT
  5
8D
  8
SITES
  2
A$C79112156
 10
677410.81000000006
 20
4798935.8099999987
 30
0.0
  0
TEXT
  5
94
  8
SITELABELS
 10
672536.31945173617
 20
4804343.4227682026
 30
0.0
 40
200.0
  1
Tseganka 8
  0
TEXT
  5
98
  8
SITELABELS
 10
673471.2380328367
 20
4804093.3573444877
 30
0.0
 40
200.0
  1
Tuzusai 2
  0
TEXT
  5
99
  8
SITELABELS
 10
671723.80470901215
 20
4803257.08758529
 30
0.0
 40
200.0
  1
Tuzusai 1
  0
TEXT
  5
9A
  8
SITELABELS
 10
677216.76020738645
 20
4799661.833638276
 30
0.0
 40
200.0
  1
Tseganka 2
  0
TEXT
  5
9B
  8
SITELABELS
 10
677510.61281705741
 20
4799055.1556876907
 30
0.0
 40
200.0
  1
Tseganka 4
  0
TEXT
  5
9C
  8
SITELABELS
 10
674811.25568574783
 20
4799764.238846248
 30
0.0
 40
200.0
  1
Taldy Bulak 2
  0
TEXT
  5
9D
  8
SITELABELS
 10
674411.02732555917
 20
4800118.502577696
 30
0.0
 40
200.0
  1
Taldy Bulak 3
  0
ENDSEC
  0
EOF
