  0
SECTION
  2
HEADER
  9
$ACADVER
  1
AC1009
  9
$INSBASE
 10
0.0
 20
0.0
 30
0.0
  9
$EXTMIN
 10
543777.2311550059821457
 20
819475.3073984914226457
 30
7.5
  9
$EXTMAX
 10
554786.9184168792562559
 20
826024.1770789717556909
 30
12.5
  9
$LIMMIN
 10
0.0
 20
0.0
  9
$LIMMAX
 10
12.0
 20
9.0
  9
$ORTHOMODE
 70
     1
  9
$REGENMODE
 70
     1
  9
$FILLMODE
 70
     1
  9
$QTEXTMODE
 70
     0
  9
$MIRRTEXT
 70
     1
  9
$DRAGMODE
 70
     2
  9
$LTSCALE
 40
1.0
  9
$OSMODE
 70
    37
  9
$ATTMODE
 70
     1
  9
$TEXTSIZE
 40
0.2
  9
$TRACEWID
 40
0.05
  9
$TEXTSTYLE
  7
STANDARD
  9
$CLAYER
  8
LOTS
  9
$CELTYPE
  6
BYLAYER
  9
$CECOLOR
 62
   256
  9
$DIMSCALE
 40
1.0
  9
$DIMASZ
 40
0.18
  9
$DIMEXO
 40
0.0625
  9
$DIMDLI
 40
0.38
  9
$DIMRND
 40
0.0
  9
$DIMDLE
 40
0.0
  9
$DIMEXE
 40
0.18
  9
$DIMTP
 40
0.0
  9
$DIMTM
 40
0.0
  9
$DIMTXT
 40
0.18
  9
$DIMCEN
 40
0.09
  9
$DIMTSZ
 40
0.0
  9
$DIMTOL
 70
     0
  9
$DIMLIM
 70
     0
  9
$DIMTIH
 70
     1
  9
$DIMTOH
 70
     1
  9
$DIMSE1
 70
     0
  9
$DIMSE2
 70
     0
  9
$DIMTAD
 70
     0
  9
$DIMZIN
 70
     0
  9
$DIMBLK
  1

  9
$DIMASO
 70
     1
  9
$DIMSHO
 70
     1
  9
$DIMPOST
  1

  9
$DIMAPOST
  1

  9
$DIMALT
 70
     0
  9
$DIMALTD
 70
     2
  9
$DIMALTF
 40
25.3999999999999986
  9
$DIMLFAC
 40
1.0
  9
$DIMTOFL
 70
     0
  9
$DIMTVP
 40
0.0
  9
$DIMTIX
 70
     0
  9
$DIMSOXD
 70
     0
  9
$DIMSAH
 70
     0
  9
$DIMBLK1
  1

  9
$DIMBLK2
  1

  9
$DIMSTYLE
  2
STANDARD
  9
$DIMCLRD
 70
     0
  9
$DIMCLRE
 70
     0
  9
$DIMCLRT
 70
     0
  9
$DIMTFAC
 40
1.0
  9
$DIMGAP
 40
0.09
  9
$LUNITS
 70
     2
  9
$LUPREC
 70
     4
  9
$SKETCHINC
 40
0.1
  9
$FILLETRAD
 40
0.5
  9
$AUNITS
 70
     0
  9
$AUPREC
 70
     0
  9
$MENU
  1
.
  9
$ELEVATION
 40
0.0
  9
$PELEVATION
 40
0.0
  9
$THICKNESS
 40
0.0
  9
$LIMCHECK
 70
     0
  9
$BLIPMODE
 70
     0
  9
$CHAMFERA
 40
0.5
  9
$CHAMFERB
 40
0.5
  9
$SKPOLY
 70
     0
  9
$TDCREATE
 40
2456091.4932598848827183
  9
$TDUPDATE
 40
2456945.4833344328217208
  9
$TDINDWG
 40
0.0357337963
  9
$TDUSRTIMER
 40
0.035706331
  9
$USRTIMER
 70
     1
  9
$ANGBASE
 50
0.0
  9
$ANGDIR
 70
     1
  9
$PDMODE
 70
    66
  9
$PDSIZE
 40
0.0
  9
$PLINEWID
 40
0.0
  9
$COORDS
 70
     1
  9
$SPLFRAME
 70
     0
  9
$SPLINETYPE
 70
     6
  9
$SPLINESEGS
 70
     8
  9
$ATTDIA
 70
     1
  9
$ATTREQ
 70
     1
  9
$HANDLING
 70
     1
  9
$HANDSEED
  5
2B27
  9
$SURFTAB1
 70
     6
  9
$SURFTAB2
 70
     6
  9
$SURFTYPE
 70
     6
  9
$SURFU
 70
     6
  9
$SURFV
 70
     6
  9
$UCSNAME
  2

  9
$UCSORG
 10
0.0
 20
0.0
 30
0.0
  9
$UCSXDIR
 10
1.0
 20
0.0
 30
0.0
  9
$UCSYDIR
 10
0.0
 20
1.0
 30
0.0
  9
$PUCSNAME
  2

  9
$PUCSORG
 10
0.0
 20
0.0
 30
0.0
  9
$PUCSXDIR
 10
1.0
 20
0.0
 30
0.0
  9
$PUCSYDIR
 10
0.0
 20
1.0
 30
0.0
  9
$USERI1
 70
     0
  9
$USERI2
 70
     0
  9
$USERI3
 70
     0
  9
$USERI4
 70
     0
  9
$USERI5
 70
     0
  9
$USERR1
 40
0.0
  9
$USERR2
 40
0.0
  9
$USERR3
 40
0.0
  9
$USERR4
 40
0.0
  9
$USERR5
 40
0.0
  9
$WORLDVIEW
 70
     1
  9
$SHADEDGE
 70
     3
  9
$SHADEDIF
 70
    70
  9
$TILEMODE
 70
     1
  9
$MAXACTVP
 70
    64
  9
$PLIMCHECK
 70
     0
  9
$PEXTMIN
 10
0.0
 20
0.0
 30
0.0
  9
$PEXTMAX
 10
0.0
 20
0.0
 30
0.0
  9
$PLIMMIN
 10
0.0
 20
0.0
  9
$PLIMMAX
 10
12.0
 20
9.0
  9
$UNITMODE
 70
     0
  9
$VISRETAIN
 70
     1
  9
$PLINEGEN
 70
     0
  9
$PSLTSCALE
 70
     1
  0
ENDSEC
  0
SECTION
  2
TABLES
  0
TABLE
  2
VPORT
 70
     1
  0
VPORT
  2
*ACTIVE
 70
     0
 10
0.0
 20
0.0
 11
1.0
 21
1.0
 12
548656.8965968415141106
 22
824423.7049188646487892
 13
0.0
 23
0.0
 14
0.13
 24
0.13
 15
0.5
 25
0.5
 16
0.0
 26
0.0
 36
1.0
 17
0.0
 27
0.0
 37
0.0
 40
11404.3848082519107265
 41
1.563269876819708
 42
50.0
 43
0.0
 44
0.0
 50
0.0
 51
0.0
 71
     0
 72
   100
 73
     1
 74
     2
 75
     0
 76
     0
 77
     0
 78
     0
  0
ENDTAB
  0
TABLE
  2
LTYPE
 70
     1
  0
LTYPE
  2
CONTINUOUS
 70
     0
  3
Solid line
 72
    65
 73
     0
 40
0.0
  0
ENDTAB
  0
TABLE
  2
LAYER
 70
     2
  0
LAYER
  2
0
 70
     0
 62
    -7
  6
CONTINUOUS
  0
LAYER
  2
LOTS
 70
     0
 62
     4
  6
CONTINUOUS
  0
ENDTAB
  0
TABLE
  2
STYLE
 70
     3
  0
STYLE
  2
STANDARD
 70
     0
 40
0.0
 41
1.0
 50
0.0
 71
     0
 42
0.2
  3
txt
  4

  0
STYLE
  2
ANNOTATIVE
 70
     0
 40
0.0
 41
1.0
 50
0.0
 71
     0
 42
0.2
  3
txt
  4

  0
STYLE
  2
LEGEND
 70
     0
 40
0.0
 41
1.0
 50
0.0
 71
     0
 42
0.2
  3
txt
  4

  0
ENDTAB
  0
TABLE
  2
VIEW
 70
     0
  0
ENDTAB
  0
TABLE
  2
UCS
 70
     0
  0
ENDTAB
  0
TABLE
  2
APPID
 70
    12
  0
APPID
  2
ACAD
 70
     0
  0
APPID
  2
ACADANNOTATIVE
 70
     0
  0
APPID
  2
DCO15
 70
     0
  0
APPID
  2
ADE
 70
     0
  0
APPID
  2
ACAECLAYERSTANDARD
 70
     0
  0
APPID
  2
ACAD_PSEXT
 70
     0
  0
APPID
  2
ACAD_NAV_VCDISPLAY
 70
     0
  0
APPID
  2
ADE_PROJECTION
 70
     0
  0
APPID
  2
ACMAPDMDISPLAYSTYLEREGAPP
 70
     0
  0
APPID
  2
MAPGWS
 70
     0
  0
APPID
  2
ACAD_MLEADERVER
 70
     0
  0
APPID
  2
MAPMANAGEMENTAPPNAME
 70
     0
  0
ENDTAB
  0
TABLE
  2
DIMSTYLE
 70
     2
  0
DIMSTYLE
  2
STANDARD
 70
     0
  3

  4

  5

  6

  7

 40
1.0
 41
0.18
 42
0.0625
 43
0.38
 44
0.18
 45
0.0
 46
0.0
 47
0.0
 48
0.0
140
0.18
141
0.09
142
0.0
143
25.3999999999999986
144
1.0
145
0.0
146
1.0
147
0.09
 71
     0
 72
     0
 73
     1
 74
     1
 75
     0
 76
     0
 77
     0
 78
     0
170
     0
171
     2
172
     0
173
     0
174
     0
175
     0
176
     0
177
     0
178
     0
  0
DIMSTYLE
  2
ANNOTATIVE
 70
     0
  3

  4

  5

  6

  7

 40
1.0
 41
0.18
 42
0.0625
 43
0.38
 44
0.18
 45
0.0
 46
0.0
 47
0.0
 48
0.0
140
0.18
141
0.09
142
0.0
143
25.3999999999999986
144
1.0
145
0.0
146
1.0
147
0.09
 71
     0
 72
     0
 73
     1
 74
     1
 75
     0
 76
     0
 77
     0
 78
     0
170
     0
171
     2
172
     0
173
     0
174
     0
175
     0
176
     0
177
     0
178
     0
  0
ENDTAB
  0
ENDSEC
  0
SECTION
  2
BLOCKS
  0
BLOCK
  8
0
  2
$MODEL_SPACE
 70
     0
 10
0.0
 20
0.0
 30
0.0
  3
$MODEL_SPACE
  1

  0
ENDBLK
  5
27F3
  8
0
  0
BLOCK
 67
     1
  8
0
  2
$PAPER_SPACE
 70
     0
 10
0.0
 20
0.0
 30
0.0
  3
$PAPER_SPACE
  1

  0
ENDBLK
  5
27EF
 67
     1
  8
0
  0
ENDSEC
  0
SECTION
  2
ENTITIES
  0
POLYLINE
  5
78
  8
LOTS
 66
     1
 10
0.0
 20
0.0
 30
7.5
 70
     1
1001
DCO15
1071
        1
1071
        1
1000
tonolinks
1004
074133363300
  0
VERTEX
  5
2856
  8
LOTS
 10
550545.9014489660039544
 20
824185.4610398168442771
 30
7.5
  0
VERTEX
  5
2857
  8
LOTS
 10
550608.287419261643663
 20
824186.2503616308094934
 30
7.5
  0
VERTEX
  5
2858
  8
LOTS
 10
550623.310781336389482
 20
824082.3406037966487929
 30
7.5
  0
VERTEX
  5
2859
  8
LOTS
 10
550557.187025953666307
 20
824103.4596304335864261
 30
7.5
  0
SEQEND
  5
285A
  8
LOTS
  0
POLYLINE
  5
7D
  8
LOTS
 66
     1
 10
0.0
 20
0.0
 30
7.5
 70
     1
1001
DCO15
1071
        1
1071
        1
1000
tonolinks
1004
074132363100
  0
VERTEX
  5
285B
  8
LOTS
 10
549573.5112114109797403
 20
825265.726160898571834
 30
7.5
  0
VERTEX
  5
285C
  8
LOTS
 10
549632.515356540447101
 20
825282.8331615814240649
 30
7.5
  0
VERTEX
  5
285D
  8
LOTS
 10
549659.4166565677151084
 20
825237.9231057901633903
 30
7.5
  0
VERTEX
  5
285E
  8
LOTS
 10
549659.8251478368183598
 20
825201.92921468464192
 30
7.5
  0
VERTEX
  5
285F
  8
LOTS
 10
549602.7304306462174281
 20
825198.0024101689923555
 30
7.5
  0
SEQEND
  5
2860
  8
LOTS
  0
POLYLINE
  5
7E
  8
LOTS
 66
     1
 10
0.0
 20
0.0
 30
7.5
 70
     1
1001
DCO15
1071
        1
1071
        1
1000
tonolinks
1004
074132363300
  0
VERTEX
  5
2861
  8
LOTS
 10
549653.9611481704050675
 20
825321.4412884523626417
 30
7.5
  0
VERTEX
  5
2862
  8
LOTS
 10
549597.1190505804261193
 20
825351.8156991743016988
 30
7.5
  0
VERTEX
  5
2863
  8
LOTS
 10
549532.6661156601039693
 20
825269.6609600182855502
 30
7.5
  0
VERTEX
  5
2864
  8
LOTS
 10
549573.4749309360049665
 20
825265.8031998170772567
 30
7.5
  0
VERTEX
  5
2865
  8
LOTS
 10
549632.4804197869962081
 20
825282.8898505971301347
 30
7.5
  0
SEQEND
  5
2866
  8
LOTS
  0
POLYLINE
  5
7F
  8
LOTS
 66
     1
 10
0.0
 20
0.0
 30
7.5
 70
     1
1001
DCO15
1071
        1
1071
        1
1000
tonolinks
1004
074132323800
  0
VERTEX
  5
2867
  8
LOTS
 10
547373.6956977454246953
 20
825819.1228793213376775
 30
7.5
  0
VERTEX
  5
2868
  8
LOTS
 10
547312.9971200814470649
 20
825815.5667337549384683
 30
7.5
  0
VERTEX
  5
2869
  8
LOTS
 10
547303.8060665259836242
 20
825796.2801130934385583
 30
7.5
  0
VERTEX
  5
286A
  8
LOTS
 10
547308.5305905465502292
 20
825772.3500806140946224
 30
7.5
  0
VERTEX
  5
286B
  8
LOTS
 10
547323.3370553316781297
 20
825759.4402474449016154
 30
7.5
  0
VERTEX
  5
286C
  8
LOTS
 10
547391.0686701755039394
 20
825763.5334850965300575
 30
7.5
  0
VERTEX
  5
286D
  8
LOTS
 10
547402.409677779302001
 20
825776.7580149817513302
 30
7.5
  0
VERTEX
  5
286E
  8
LOTS
 10
547404.2989498991519213
 20
825795.0205994481220841
 30
7.5
  0
VERTEX
  5
286F
  8
LOTS
 10
547395.4787634162930772
 20
825813.2831839143764228
 30
7.5
  0
SEQEND
  5
2870
  8
LOTS
  0
POLYLINE
  5
80
  8
LOTS
 66
     1
 10
0.0
 20
0.0
 30
7.5
 70
     1
1001
DCO15
1071
        1
1071
        1
1000
tonolinks
1004
074132323600
  0
VERTEX
  5
2871
  8
LOTS
 10
547341.8696592265041545
 20
825906.437772476230748
 30
7.5
  0
VERTEX
  5
2872
  8
LOTS
 10
547359.544968944741413
 20
825964.7758571835001931
 30
7.5
  0
VERTEX
  5
2873
  8
LOTS
 10
547376.4301705498946831
 20
825998.3481098206248134
 30
7.5
  0
VERTEX
  5
2874
  8
LOTS
 10
547429.1362940398976207
 20
825986.6687190061202273
 30
7.5
  0
VERTEX
  5
2875
  8
LOTS
 10
547389.3097390197217464
 20
825886.5602778425673023
 30
7.5
  0
SEQEND
  5
2876
  8
LOTS
  0
POLYLINE
  5
81
  8
LOTS
 66
     1
 10
0.0
 20
0.0
 30
7.5
 70
     1
1001
DCO15
1071
        1
1071
        1
1000
tonolinks
1004
074132323500
  0
VERTEX
  5
2877
  8
LOTS
 10
547267.5495102024869993
 20
826023.9288101538550109
 30
7.5
  0
VERTEX
  5
2878
  8
LOTS
 10
547250.6626961313886568
 20
826024.1770789717556909
 30
7.5
  0
VERTEX
  5
2879
  8
LOTS
 10
547237.7479221642715856
 20
826014.0003831449430436
 30
7.5
  0
VERTEX
  5
287A
  8
LOTS
 10
547236.2580040091415867
 20
826000.0996550512500107
 30
7.5
  0
VERTEX
  5
287B
  8
LOTS
 10
547244.2053091477137059
 20
825980.7381758176488802
 30
7.5
  0
VERTEX
  5
287C
  8
LOTS
 10
547258.6089262930909172
 20
825973.29185556108132
 30
7.5
  0
VERTEX
  5
287D
  8
LOTS
 10
547278.7249713445780799
 20
825974.5326182243879884
 30
7.5
  0
VERTEX
  5
287E
  8
LOTS
 10
547291.1431059266906232
 20
825985.7029707480687648
 30
7.5
  0
VERTEX
  5
287F
  8
LOTS
 10
547295.116221007425338
 20
826004.5679123463341966
 30
7.5
  0
VERTEX
  5
2880
  8
LOTS
 10
547291.1431059266906232
 20
826018.2197901960462332
 30
7.5
  0
VERTEX
  5
2881
  8
LOTS
 10
547282.9474810950923711
 20
826023.6811227616854012
 30
7.5
  0
SEQEND
  5
2882
  8
LOTS
  0
POLYLINE
  5
82
  8
LOTS
 66
     1
 10
0.0
 20
0.0
 30
7.5
 70
     1
1001
DCO15
1071
        1
1071
        1
1000
tonolinks
1004
074132323200
  0
VERTEX
  5
2883
  8
LOTS
 10
547193.1479316686745733
 20
825862.7726946852635592
 30
7.5
  0
VERTEX
  5
2884
  8
LOTS
 10
547231.3136471866164356
 20
825858.8567919031484053
 30
7.5
  0
VERTEX
  5
2885
  8
LOTS
 10
547272.8668840519385412
 20
825939.1989361181622371
 30
7.5
  0
VERTEX
  5
2886
  8
LOTS
 10
547272.8668840519385412
 20
825939.1989361181622371
 30
7.5
  0
VERTEX
  5
2887
  8
LOTS
 10
547218.8949751162435859
 20
825944.4906377056613564
 30
7.5
  0
VERTEX
  5
2888
  8
LOTS
 10
547191.7679299141746014
 20
825908.0563165550120175
 30
7.5
  0
VERTEX
  5
2889
  8
LOTS
 10
547184.9861686136573553
 20
825884.3312366711907089
 30
7.5
  0
SEQEND
  5
288A
  8
LOTS
  0
POLYLINE
  5
83
  8
LOTS
 66
     1
 10
0.0
 20
0.0
 30
7.5
 70
     1
1001
DCO15
1071
        1
1071
        1
1000
tonolinks
1004
074132323300
  0
VERTEX
  5
288B
  8
LOTS
 10
547185.8219632498221472
 20
825770.7395311404252425
 30
7.5
  0
VERTEX
  5
288C
  8
LOTS
 10
547178.5000259946100414
 20
825810.4480063433293253
 30
7.5
  0
VERTEX
  5
288D
  8
LOTS
 10
547189.2753269391832873
 20
825830.0798485755221918
 30
7.5
  0
VERTEX
  5
288E
  8
LOTS
 10
547193.1479316686745733
 20
825862.7029235888039693
 30
7.5
  0
VERTEX
  5
288F
  8
LOTS
 10
547231.3190220718970522
 20
825858.8320813063764945
 30
7.5
  0
VERTEX
  5
2890
  8
LOTS
 10
547238.5106183629250154
 20
825816.2571768956258893
 30
7.5
  0
VERTEX
  5
2891
  8
LOTS
 10
547239.0628878092393279
 20
825787.5049441643059254
 30
7.5
  0
VERTEX
  5
2892
  8
LOTS
 10
547234.6380136337829754
 20
825769.2583489073440433
 30
7.5
  0
VERTEX
  5
2893
  8
LOTS
 10
547224.1274257807526737
 20
825762.6228269328130409
 30
7.5
  0
VERTEX
  5
2894
  8
LOTS
 10
547208.0847374179866165
 20
825760.9643098303349689
 30
7.5
  0
VERTEX
  5
2895
  8
LOTS
 10
547192.5943185016512871
 20
825764.2820708182407543
 30
7.5
  0
SEQEND
  5
2896
  8
LOTS
  0
POLYLINE
  5
84
  8
LOTS
 66
     1
 10
0.0
 20
0.0
 30
7.5
 70
     1
1001
DCO15
1071
        1
1071
        1
1000
tonolinks
1004
074132323000
  0
VERTEX
  5
2897
  8
LOTS
 10
547071.9192715930985287
 20
825815.7216540784575045
 30
7.5
  0
VERTEX
  5
2898
  8
LOTS
 10
547110.2373485956341028
 20
825760.490240590646863
 30
7.5
  0
VERTEX
  5
2899
  8
LOTS
 10
547185.7311483438825235
 20
825770.7187173791462556
 30
7.5
  0
VERTEX
  5
289A
  8
LOTS
 10
547178.4451826404547319
 20
825810.4404984882567078
 30
7.5
  0
VERTEX
  5
289B
  8
LOTS
 10
547103.9103807148057967
 20
825824.4747400059131905
 30
7.5
  0
SEQEND
  5
289C
  8
LOTS
  0
POLYLINE
  5
85
  8
LOTS
 66
     1
 10
0.0
 20
0.0
 30
7.5
 70
     1
1001
DCO15
1071
        1
1071
        1
1000
tonolinks
1004
074132323100
  0
VERTEX
  5
289D
  8
LOTS
 10
547071.8055361730512232
 20
825815.7367309562396258
 30
7.5
  0
VERTEX
  5
289E
  8
LOTS
 10
547110.2184243382653221
 20
825760.440422979532741
 30
7.5
  0
VERTEX
  5
289F
  8
LOTS
 10
547106.7852855519158766
 20
825736.4205138323595747
 30
7.5
  0
VERTEX
  5
28A0
  8
LOTS
 10
547090.3063079866115004
 20
825728.8713973804842681
 30
7.5
  0
VERTEX
  5
28A1
  8
LOTS
 10
547063.8572214585728943
 20
825730.3348696130560711
 30
7.5
  0
VERTEX
  5
28A2
  8
LOTS
 10
547049.9477023540530354
 20
825738.9412849717773497
 30
7.5
  0
VERTEX
  5
28A3
  8
LOTS
 10
547044.6488469749456272
 20
825759.4641857862006873
 30
7.5
  0
VERTEX
  5
28A4
  8
LOTS
 10
547031.5907295806100592
 20
825806.5094565646722913
 30
7.5
  0
VERTEX
  5
28A5
  8
LOTS
 10
547071.8055361730512232
 20
825815.7367309562396258
 30
7.5
  0
SEQEND
  5
28A6
  8
LOTS
  0
POLYLINE
  5
86
  8
LOTS
 66
     1
 10
0.0
 20
0.0
 30
7.5
 70
     1
1001
DCO15
1071
        1
1071
        1
1000
tonolinks
1004
074230353100
  0
VERTEX
  5
28A7
  8
LOTS
 10
547738.7475866159657016
 20
823377.0519858102779835
 30
7.5
  0
VERTEX
  5
28A8
  8
LOTS
 10
547688.8098526431713253
 20
823406.7068616331089288
 30
7.5
  0
VERTEX
  5
28A9
  8
LOTS
 10
547644.5346887367777526
 20
823387.4094818902667612
 30
7.5
  0
VERTEX
  5
28AA
  8
LOTS
 10
547639.2123755264328793
 20
823343.8850835224147886
 30
7.5
  0
VERTEX
  5
28AB
  8
LOTS
 10
547676.9522326247533783
 20
823318.2540460230084136
 30
7.5
  0
VERTEX
  5
28AC
  8
LOTS
 10
547718.5628566902596503
 20
823336.6309860071633011
 30
7.5
  0
SEQEND
  5
28AD
  8
LOTS
  0
POLYLINE
  5
87
  8
LOTS
 66
     1
 10
0.0
 20
0.0
 30
12.5
 70
     1
1001
DCO15
1071
        1
1071
        1
1000
tonolinks
1004
074230353000
  0
VERTEX
  5
28AE
  8
LOTS
 10
547753.7027316103922203
 20
823419.2464575858321041
 30
12.5
  0
VERTEX
  5
28AF
  8
LOTS
 10
547760.9941570936935022
 20
823477.9360971619607881
 30
12.5
  0
VERTEX
  5
28B0
  8
LOTS
 10
547722.2722640241263434
 20
823494.2706445448566228
 30
12.5
  0
VERTEX
  5
28B1
  8
LOTS
 10
547688.8318781985435635
 20
823406.8545233694603667
 30
12.5
  0
VERTEX
  5
28B2
  8
LOTS
 10
547738.8087610427755862
 20
823377.1036711522610858
 30
12.5
  0
SEQEND
  5
28B3
  8
LOTS
  0
POLYLINE
  5
88
  8
LOTS
 66
     1
 10
0.0
 20
0.0
 30
7.5
 70
     1
1001
DCO15
1071
        1
1071
        1
1000
tonolinks
1004
074136333900
  0
VERTEX
  5
28B4
  8
LOTS
 10
551301.3094182539498433
 20
821758.7468624000903219
 30
7.5
  0
VERTEX
  5
28B5
  8
LOTS
 10
551265.6028887802967802
 20
821742.3196460157632828
 30
7.5
  0
VERTEX
  5
28B6
  8
LOTS
 10
551249.3695468107471243
 20
821691.1666217861929908
 30
7.5
  0
VERTEX
  5
28B7
  8
LOTS
 10
551289.9156228463398293
 20
821664.1392328351503238
 30
7.5
  0
VERTEX
  5
28B8
  8
LOTS
 10
551325.1522104751784354
 20
821664.6810604563215747
 30
7.5
  0
SEQEND
  5
28B9
  8
LOTS
  0
POLYLINE
  5
89
  8
LOTS
 66
     1
 10
0.0
 20
0.0
 30
7.5
 70
     1
1001
DCO15
1071
        1
1071
        1
1000
tonolinks
1004
074136333300
  0
VERTEX
  5
28BA
  8
LOTS
 10
551150.654480621102266
 20
821838.7882735544117168
 30
7.5
  0
VERTEX
  5
28BB
  8
LOTS
 10
551195.415476139052771
 20
821831.3535684171365574
 30
7.5
  0
VERTEX
  5
28BC
  8
LOTS
 10
551236.5364951670635492
 20
821799.3948751010466367
 30
7.5
  0
VERTEX
  5
28BD
  8
LOTS
 10
551219.3670037256088108
 20
821753.5835395598551258
 30
7.5
  0
VERTEX
  5
28BE
  8
LOTS
 10
551177.4317985846428201
 20
821748.9122643279843032
 30
7.5
  0
VERTEX
  5
28BF
  8
LOTS
 10
551148.1804662410868332
 20
821763.2460506834322587
 30
7.5
  0
SEQEND
  5
28C0
  8
LOTS
  0
POLYLINE
  5
8A
  8
LOTS
 66
     1
 10
0.0
 20
0.0
 30
7.5
 70
     1
1001
DCO15
1071
        1
1071
        1
1000
tonolinks
1004
074136333200
  0
VERTEX
  5
28C1
  8
LOTS
 10
551165.098625821643509
 20
821946.9000852518947795
 30
7.5
  0
VERTEX
  5
28C2
  8
LOTS
 10
551226.4739801313262433
 20
821902.0459246188402176
 30
7.5
  0
VERTEX
  5
28C3
  8
LOTS
 10
551195.3758554527303204
 20
821831.4203428147593513
 30
7.5
  0
VERTEX
  5
28C4
  8
LOTS
 10
551150.6648604813963175
 20
821838.8685081072617322
 30
7.5
  0
VERTEX
  5
28C5
  8
LOTS
 10
551143.4269965692656115
 20
821873.2450286991661415
 30
7.5
  0
SEQEND
  5
28C6
  8
LOTS
  0
POLYLINE
  5
8B
  8
LOTS
 66
     1
 10
0.0
 20
0.0
 30
7.5
 70
     1
1001
DCO15
1071
        1
1071
        1
1000
tonolinks
1004
074136303200
  0
VERTEX
  5
28C7
  8
LOTS
 10
550502.343488612328656
 20
821044.3754147537983954
 30
7.5
  0
VERTEX
  5
28C8
  8
LOTS
 10
550494.0190083384513855
 20
821083.5961861885152757
 30
7.5
  0
VERTEX
  5
28C9
  8
LOTS
 10
550502.2224006279138848
 20
821109.9292758954688907
 30
7.5
  0
VERTEX
  5
28CA
  8
LOTS
 10
550573.5113581668119878
 20
821109.1812746823998168
 30
7.5
  0
VERTEX
  5
28CB
  8
LOTS
 10
550576.7195524473208934
 20
821061.7835056558251381
 30
7.5
  0
VERTEX
  5
28CC
  8
LOTS
 10
550542.7983468873426318
 20
821059.9993331773439422
 30
7.5
  0
VERTEX
  5
28CD
  8
LOTS
 10
550516.4648968112887815
 20
821053.7540401000296697
 30
7.5
  0
SEQEND
  5
28CE
  8
LOTS
  0
POLYLINE
  5
8C
  8
LOTS
 66
     1
 10
0.0
 20
0.0
 30
7.5
 70
     1
1001
DCO15
1071
        1
1071
        1
1000
tonolinks
1004
074136303100
  0
VERTEX
  5
28CF
  8
LOTS
 10
550493.9144902889383957
 20
821083.5679207049543038
 30
7.5
  0
VERTEX
  5
28D0
  8
LOTS
 10
550425.4487947019515559
 20
821054.0532405852572992
 30
7.5
  0
VERTEX
  5
28D1
  8
LOTS
 10
550391.078926294343546
 20
821003.0692021484719589
 30
7.5
  0
VERTEX
  5
28D2
  8
LOTS
 10
550407.0778355561196804
 20
820982.9076395004522055
 30
7.5
  0
VERTEX
  5
28D3
  8
LOTS
 10
550502.2478928350610659
 20
821044.363694918807596
 30
7.5
  0
SEQEND
  5
28D4
  8
LOTS
  0
POLYLINE
  5
8D
  8
LOTS
 66
     1
 10
0.0
 20
0.0
 30
7.5
 70
     1
1001
DCO15
1071
        1
1071
        1
1000
tonolinks
1004
074135393900
  0
VERTEX
  5
28D5
  8
LOTS
 10
550425.4029087288072333
 20
821054.301425319747068
 30
7.5
  0
VERTEX
  5
28D6
  8
LOTS
 10
550426.5551564961206168
 20
821119.042481457348913
 30
7.5
  0
VERTEX
  5
28D7
  8
LOTS
 10
550357.8918963023461401
 20
821084.2538757345173508
 30
7.5
  0
VERTEX
  5
28D8
  8
LOTS
 10
550342.6577532575465739
 20
821056.0194152027834207
 30
7.5
  0
VERTEX
  5
28D9
  8
LOTS
 10
550390.7730198071803898
 20
821003.2656817295355722
 30
7.5
  0
SEQEND
  5
28DA
  8
LOTS
  0
POLYLINE
  5
8E
  8
LOTS
 66
     1
 10
0.0
 20
0.0
 30
7.5
 70
     1
1001
DCO15
1071
        1
1071
        1
1000
tonolinks
1004
074135393800
  0
VERTEX
  5
28DB
  8
LOTS
 10
550502.1816130963852629
 20
821109.9933902856428176
 30
7.5
  0
VERTEX
  5
28DC
  8
LOTS
 10
550499.6846513971686363
 20
821159.4173119066981599
 30
7.5
  0
VERTEX
  5
28DD
  8
LOTS
 10
550426.6099647415103391
 20
821119.0459284671815112
 30
7.5
  0
VERTEX
  5
28DE
  8
LOTS
 10
550425.5979241140885279
 20
821054.2938418971607462
 30
7.5
  0
VERTEX
  5
28DF
  8
LOTS
 10
550493.9387078859144822
 20
821083.6658157943747938
 30
7.5
  0
SEQEND
  5
28E0
  8
LOTS
  0
POLYLINE
  5
8F
  8
LOTS
 66
     1
 10
0.0
 20
0.0
 30
7.5
 70
     1
1001
DCO15
1071
        1
1071
        1
1000
tonolinks
1004
074135393400
  0
VERTEX
  5
28E1
  8
LOTS
 10
550499.5699364646570757
 20
821159.5944882306503132
 30
7.5
  0
VERTEX
  5
28E2
  8
LOTS
 10
550487.0978740738937631
 20
821224.0928748497972265
 30
7.5
  0
VERTEX
  5
28E3
  8
LOTS
 10
550452.1862962625455111
 20
821211.3210126641206443
 30
7.5
  0
VERTEX
  5
28E4
  8
LOTS
 10
550421.4439689447171986
 20
821185.288502246956341
 30
7.5
  0
VERTEX
  5
28E5
  8
LOTS
 10
550426.5679025993449613
 20
821119.1396871446631849
 30
7.5
  0
SEQEND
  5
28E6
  8
LOTS
  0
POLYLINE
  5
90
  8
LOTS
 66
     1
 10
0.0
 20
0.0
 30
7.5
 70
     1
1001
DCO15
1071
        1
1071
        1
1000
tonolinks
1004
074135383800
  0
VERTEX
  5
28E7
  8
LOTS
 10
550544.1226670532487333
 20
821928.6590017188573256
 30
7.5
  0
VERTEX
  5
28E8
  8
LOTS
 10
550603.5054892019834369
 20
821974.0154513067100197
 30
7.5
  0
VERTEX
  5
28E9
  8
LOTS
 10
550622.5214011903153732
 20
822008.9915743839228526
 30
7.5
  0
VERTEX
  5
28EA
  8
LOTS
 10
550609.6848002366023138
 20
822051.2608816382708028
 30
7.5
  0
VERTEX
  5
28EB
  8
LOTS
 10
550546.2257741504581645
 20
822051.0444093976402655
 30
7.5
  0
VERTEX
  5
28EC
  8
LOTS
 10
550530.1134245659923181
 20
821984.8204494735691696
 30
7.5
  0
SEQEND
  5
28ED
  8
LOTS
  0
POLYLINE
  5
91
  8
LOTS
 66
     1
 10
0.0
 20
0.0
 30
7.5
 70
     1
1001
DCO15
1071
        1
1071
        1
1000
tonolinks
1004
074135373800
  0
VERTEX
  5
28EE
  8
LOTS
 10
550255.0155447757570073
 20
821875.6529470991808921
 30
7.5
  0
VERTEX
  5
28EF
  8
LOTS
 10
550221.4958414797438309
 20
821924.6397878273855895
 30
7.5
  0
VERTEX
  5
28F0
  8
LOTS
 10
550244.4464756551897153
 20
821962.9857080749934539
 30
7.5
  0
VERTEX
  5
28F1
  8
LOTS
 10
550312.9886478640837595
 20
821954.0145193333737552
 30
7.5
  0
VERTEX
  5
28F2
  8
LOTS
 10
550310.5401213590521365
 20
821896.5163210240425542
 30
7.5
  0
SEQEND
  5
28F3
  8
LOTS
  0
POLYLINE
  5
92
  8
LOTS
 66
     1
 10
0.0
 20
0.0
 30
7.5
 70
     1
1001
DCO15
1071
        1
1071
        1
1000
tonolinks
1004
074135373500
  0
VERTEX
  5
28F4
  8
LOTS
 10
550123.3100560848833993
 20
821861.041760272346437
 30
7.5
  0
VERTEX
  5
28F5
  8
LOTS
 10
550086.5018580546602607
 20
821864.1916381912305951
 30
7.5
  0
VERTEX
  5
28F6
  8
LOTS
 10
550082.4983069079462439
 20
821934.3851750595495105
 30
7.5
  0
VERTEX
  5
28F7
  8
LOTS
 10
550125.7369142137467861
 20
821928.6734791619237512
 30
7.5
  0
VERTEX
  5
28F8
  8
LOTS
 10
550151.5770900800125673
 20
821897.7820631690556183
 30
7.5
  0
VERTEX
  5
28F9
  8
LOTS
 10
550174.3773202328011394
 20
821854.7371786199510098
 30
7.5
  0
SEQEND
  5
28FA
  8
LOTS
  0
POLYLINE
  5
93
  8
LOTS
 66
     1
 10
0.0
 20
0.0
 30
7.5
 70
     1
1001
DCO15
1071
        1
1071
        1
1000
tonolinks
1004
074135373300
  0
VERTEX
  5
28FB
  8
LOTS
 10
550024.9369029665831476
 20
821858.8322267351904884
 30
7.5
  0
VERTEX
  5
28FC
  8
LOTS
 10
550058.6694661932997406
 20
821840.8326288829557598
 30
7.5
  0
VERTEX
  5
28FD
  8
LOTS
 10
550055.8066913207294419
 20
821798.6115797717357054
 30
7.5
  0
VERTEX
  5
28FE
  8
LOTS
 10
550042.7534066047519445
 20
821745.651715089334175
 30
7.5
  0
VERTEX
  5
28FF
  8
LOTS
 10
550011.9244057823671028
 20
821745.0912312309956178
 30
7.5
  0
VERTEX
  5
2900
  8
LOTS
 10
550005.1982869028579444
 20
821820.1664239420788363
 30
7.5
  0
SEQEND
  5
2901
  8
LOTS
  0
POLYLINE
  5
94
  8
LOTS
 66
     1
 10
0.0
 20
0.0
 30
7.5
 70
     1
1001
DCO15
1071
        1
1071
        1
1000
tonolinks
1004
074135373100
  0
VERTEX
  5
2902
  8
LOTS
 10
550047.477112605702132
 20
821946.6358493034495041
 30
7.5
  0
VERTEX
  5
2903
  8
LOTS
 10
550082.4638924285536632
 20
821934.3831068535801023
 30
7.5
  0
VERTEX
  5
2904
  8
LOTS
 10
550086.4585213023237884
 20
821864.1930169953266159
 30
7.5
  0
VERTEX
  5
2905
  8
LOTS
 10
550058.6911345694679767
 20
821840.896053870790638
 30
7.5
  0
VERTEX
  5
2906
  8
LOTS
 10
550024.9789651086321101
 20
821858.9763117616530508
 30
7.5
  0
VERTEX
  5
2907
  8
LOTS
 10
550017.712411435553804
 20
821904.649196885060519
 30
7.5
  0
SEQEND
  5
2908
  8
LOTS
  0
POLYLINE
  5
95
  8
LOTS
 66
     1
 10
0.0
 20
0.0
 30
7.5
 70
     1
1001
DCO15
1071
        1
1071
        1
1000
tonolinks
1004
074135363000
  0
VERTEX
  5
2909
  8
LOTS
 10
549788.0543910458218306
 20
822171.9627695359522477
 30
7.5
  0
VERTEX
  5
290A
  8
LOTS
 10
549815.8421715447911993
 20
822198.4316714449087158
 30
7.5
  0
VERTEX
  5
290B
  8
LOTS
 10
549814.0309502204181626
 20
822229.6126362940995023
 30
7.5
  0
VERTEX
  5
290C
  8
LOTS
 10
549805.1430921672144905
 20
822260.31929254042916
 30
7.5
  0
VERTEX
  5
290D
  8
LOTS
 10
549754.7500969009706751
 20
822259.7836271553533152
 30
7.5
  0
VERTEX
  5
290E
  8
LOTS
 10
549752.6049276615958661
 20
822184.2306788312271237
 30
7.5
  0
SEQEND
  5
290F
  8
LOTS
  0
POLYLINE
  5
96
  8
LOTS
 66
     1
 10
0.0
 20
0.0
 30
7.5
 70
     1
1001
DCO15
1071
        1
1071
        1
1000
tonolinks
1004
074135353600
  0
VERTEX
  5
2910
  8
LOTS
 10
549845.9267999158473685
 20
822074.6198909457307309
 30
7.5
  0
VERTEX
  5
2911
  8
LOTS
 10
549902.3359560903627425
 20
822057.4393027169862762
 30
7.5
  0
VERTEX
  5
2912
  8
LOTS
 10
549909.1143339945701882
 20
822130.7592778352554888
 30
7.5
  0
VERTEX
  5
2913
  8
LOTS
 10
549899.9141964026493952
 20
822154.230659675784409
 30
7.5
  0
VERTEX
  5
2914
  8
LOTS
 10
549877.883830908453092
 20
822156.4084807187318802
 30
7.5
  0
SEQEND
  5
2915
  8
LOTS
  0
POLYLINE
  5
97
  8
LOTS
 66
     1
 10
0.0
 20
0.0
 30
7.5
 70
     1
1001
DCO15
1071
        1
1071
        1
1000
tonolinks
1004
074135353500
  0
VERTEX
  5
2916
  8
LOTS
 10
549847.2906330031109974
 20
821954.5936170467175543
 30
7.5
  0
VERTEX
  5
2917
  8
LOTS
 10
549928.1672096838010475
 20
821955.7462972565554082
 30
7.5
  0
VERTEX
  5
2918
  8
LOTS
 10
549944.0743469996377826
 20
822005.9340763381915167
 30
7.5
  0
VERTEX
  5
2919
  8
LOTS
 10
549904.2198302053147927
 20
822023.8819690373493358
 30
7.5
  0
VERTEX
  5
291A
  8
LOTS
 10
549845.9714112783549353
 20
822019.9420363806420937
 30
7.5
  0
SEQEND
  5
291B
  8
LOTS
  0
POLYLINE
  5
98
  8
LOTS
 66
     1
 10
0.0
 20
0.0
 30
7.5
 70
     1
1001
DCO15
1071
        1
1071
        1
1000
tonolinks
1004
074135353300
  0
VERTEX
  5
291C
  8
LOTS
 10
549850.3879361820872873
 20
821762.595149016357027
 30
7.5
  0
VERTEX
  5
291D
  8
LOTS
 10
549820.869234811863862
 20
821766.0511214410653338
 30
7.5
  0
VERTEX
  5
291E
  8
LOTS
 10
549844.6636610473506153
 20
821888.6647211951203644
 30
7.5
  0
VERTEX
  5
291F
  8
LOTS
 10
549902.1116246664896607
 20
821874.3099919263040647
 30
7.5
  0
SEQEND
  5
2920
  8
LOTS
  0
POLYLINE
  5
99
  8
LOTS
 66
     1
 10
0.0
 20
0.0
 30
7.5
 70
     1
1001
DCO15
1071
        1
1071
        1
1000
tonolinks
1004
074135343700
  0
VERTEX
  5
2921
  8
LOTS
 10
549477.3974313801154494
 20
821885.3631748276529834
 30
7.5
  0
VERTEX
  5
2922
  8
LOTS
 10
549454.5972012272104621
 20
821874.8373844866873696
 30
7.5
  0
VERTEX
  5
2923
  8
LOTS
 10
549465.4135447581065819
 20
821847.2916365922428668
 30
7.5
  0
VERTEX
  5
2924
  8
LOTS
 10
549480.3927657309686765
 20
821836.3839175221510231
 30
7.5
  0
VERTEX
  5
2925
  8
LOTS
 10
549497.3183167257811874
 20
821832.1372009580954909
 30
7.5
  0
VERTEX
  5
2926
  8
LOTS
 10
549513.7493189006345347
 20
821834.3267418353352696
 30
7.5
  0
VERTEX
  5
2927
  8
LOTS
 10
549522.9774979203939438
 20
821847.9334698909660801
 30
7.5
  0
VERTEX
  5
2928
  8
LOTS
 10
549523.4044923917390406
 20
821863.1189286168664694
 30
7.5
  0
VERTEX
  5
2929
  8
LOTS
 10
549516.9855546094477177
 20
821872.9580745267448947
 30
7.5
  0
VERTEX
  5
292A
  8
LOTS
 10
549510.1370731353526935
 20
821877.0214101480087265
 30
7.5
  0
VERTEX
  5
292B
  8
LOTS
 10
549501.1497954735532403
 20
821877.2358141825534403
 30
7.5
  0
VERTEX
  5
292C
  8
LOTS
 10
549491.305979648954235
 20
821877.4495288148755208
 30
7.5
  0
VERTEX
  5
292D
  8
LOTS
 10
549484.8870418665464967
 20
821880.2298872406827286
 30
7.5
  0
SEQEND
  5
292E
  8
LOTS
  0
POLYLINE
  5
9A
  8
LOTS
 66
     1
 10
0.0
 20
0.0
 30
7.5
 70
     1
1001
DCO15
1071
        1
1071
        1
1000
tonolinks
1004
074135343600
  0
VERTEX
  5
292F
  8
LOTS
 10
549549.3173210483510047
 20
822152.5485186988953501
 30
7.5
  0
VERTEX
  5
2930
  8
LOTS
 10
549580.1080835600150749
 20
822135.0480479235993698
 30
7.5
  0
VERTEX
  5
2931
  8
LOTS
 10
549603.2779507178347558
 20
822124.229951118468307
 30
7.5
  0
VERTEX
  5
2932
  8
LOTS
 10
549599.6962956008501351
 20
822077.2396186967380345
 30
7.5
  0
VERTEX
  5
2933
  8
LOTS
 10
549578.0929245777660981
 20
822054.3245843022596091
 30
7.5
  0
VERTEX
  5
2934
  8
LOTS
 10
549519.4557494907639921
 20
822080.3240034220507368
 30
7.5
  0
SEQEND
  5
2935
  8
LOTS
  0
POLYLINE
  5
9B
  8
LOTS
 66
     1
 10
0.0
 20
0.0
 30
7.5
 70
     1
1001
DCO15
1071
        1
1071
        1
1000
tonolinks
1004
074135333500
  0
VERTEX
  5
2936
  8
LOTS
 10
549622.6979141911724582
 20
822454.1860400980804116
 30
7.5
  0
VERTEX
  5
2937
  8
LOTS
 10
549683.4930046208901331
 20
822415.2341354577802122
 30
7.5
  0
VERTEX
  5
2938
  8
LOTS
 10
549713.1111255992436782
 20
822477.9469707948155701
 30
7.5
  0
VERTEX
  5
2939
  8
LOTS
 10
549711.9423078974941745
 20
822500.1498528817901388
 30
7.5
  0
VERTEX
  5
293A
  8
LOTS
 10
549692.8460954561596736
 20
822509.1086323868948966
 30
7.5
  0
VERTEX
  5
293B
  8
LOTS
 10
549667.514489124645479
 20
822501.7079014921328053
 30
7.5
  0
SEQEND
  5
293C
  8
LOTS
  0
POLYLINE
  5
9C
  8
LOTS
 66
     1
 10
0.0
 20
0.0
 30
7.5
 70
     1
1001
DCO15
1071
        1
1071
        1
1000
tonolinks
1004
074135333400
  0
VERTEX
  5
293D
  8
LOTS
 10
549923.9061872439924628
 20
822664.3909265915863216
 30
7.5
  0
VERTEX
  5
293E
  8
LOTS
 10
549903.0064011407084763
 20
822706.9049715702421963
 30
7.5
  0
VERTEX
  5
293F
  8
LOTS
 10
549895.4963968883967027
 20
822738.1024820684688166
 30
7.5
  0
VERTEX
  5
2940
  8
LOTS
 10
549964.9409932338166982
 20
822712.7972908023511991
 30
7.5
  0
VERTEX
  5
2941
  8
LOTS
 10
549968.5978503618389368
 20
822696.9610365505795926
 30
7.5
  0
VERTEX
  5
2942
  8
LOTS
 10
549967.0734163692686707
 20
822679.9066088949330151
 30
7.5
  0
SEQEND
  5
2943
  8
LOTS
  0
POLYLINE
  5
9D
  8
LOTS
 66
     1
 10
0.0
 20
0.0
 30
7.5
 70
     1
1001
DCO15
1071
        1
1071
        1
1000
tonolinks
1004
074135323400
  0
VERTEX
  5
2944
  8
LOTS
 10
549557.9742287516128272
 20
822473.9726010770536959
 30
7.5
  0
VERTEX
  5
2945
  8
LOTS
 10
549539.852098879404366
 20
822515.4904952932847664
 30
7.5
  0
VERTEX
  5
2946
  8
LOTS
 10
549526.8075154656544328
 20
822557.3020324617391452
 30
7.5
  0
VERTEX
  5
2947
  8
LOTS
 10
549586.6572326973546296
 20
822569.6231980929151177
 30
7.5
  0
VERTEX
  5
2948
  8
LOTS
 10
549604.6296716472133994
 20
822512.8585387506755069
 30
7.5
  0
SEQEND
  5
2949
  8
LOTS
  0
POLYLINE
  5
9E
  8
LOTS
 66
     1
 10
0.0
 20
0.0
 30
7.5
 70
     1
1001
DCO15
1071
        1
1071
        1
1000
tonolinks
1004
074135323000
  0
VERTEX
  5
294A
  8
LOTS
 10
549437.1574288853444159
 20
822418.2943048869492486
 30
7.5
  0
VERTEX
  5
294B
  8
LOTS
 10
549401.9826168774161488
 20
822437.0259467343566939
 30
7.5
  0
VERTEX
  5
294C
  8
LOTS
 10
549384.2907103147590533
 20
822476.7758213331690058
 30
7.5
  0
VERTEX
  5
294D
  8
LOTS
 10
549449.0553025049157441
 20
822505.2740509022260085
 30
7.5
  0
VERTEX
  5
294E
  8
LOTS
 10
549468.9485908334609121
 20
822435.4791209616232663
 30
7.5
  0
SEQEND
  5
294F
  8
LOTS
  0
POLYLINE
  5
9F
  8
LOTS
 66
     1
 10
0.0
 20
0.0
 30
7.5
 70
     1
1001
DCO15
1071
        1
1071
        1
1000
tonolinks
1004
074135313700
  0
VERTEX
  5
2950
  8
LOTS
 10
549080.9935646955855191
 20
822229.0142542084213346
 30
7.5
  0
VERTEX
  5
2951
  8
LOTS
 10
549068.077060922048986
 20
822297.8576734326779842
 30
7.5
  0
VERTEX
  5
2952
  8
LOTS
 10
549074.600008562556468
 20
822319.057514434796758
 30
7.5
  0
VERTEX
  5
2953
  8
LOTS
 10
549092.1999463480897248
 20
822323.2641187012195587
 30
7.5
  0
VERTEX
  5
2954
  8
LOTS
 10
549128.4409609477734193
 20
822319.9644726846599951
 30
7.5
  0
VERTEX
  5
2955
  8
LOTS
 10
549139.2677987812785432
 20
822247.4609544657869264
 30
7.5
  0
SEQEND
  5
2956
  8
LOTS
  0
POLYLINE
  5
A0
  8
LOTS
 66
     1
 10
0.0
 20
0.0
 30
7.5
 70
     1
1001
DCO15
1071
        1
1071
        1
1000
tonolinks
1004
074134383600
  0
VERTEX
  5
2957
  8
LOTS
 10
548959.3757664954755455
 20
822572.2826778270537034
 30
7.5
  0
VERTEX
  5
2958
  8
LOTS
 10
548897.1401085327379405
 20
822547.3214584607630968
 30
7.5
  0
VERTEX
  5
2959
  8
LOTS
 10
548914.2597649280214682
 20
822494.8911229445366189
 30
7.5
  0
VERTEX
  5
295A
  8
LOTS
 10
548988.8652924252673984
 20
822518.2191004387568682
 30
7.5
  0
SEQEND
  5
295B
  8
LOTS
  0
POLYLINE
  5
A1
  8
LOTS
 66
     1
 10
0.0
 20
0.0
 30
7.5
 70
     1
1001
DCO15
1071
        1
1071
        1
1000
tonolinks
1004
074134383500
  0
VERTEX
  5
295C
  8
LOTS
 10
548820.5741685117827728
 20
822505.5552206569118425
 30
7.5
  0
VERTEX
  5
295D
  8
LOTS
 10
548737.3320686010411009
 20
822473.4845405746018514
 30
7.5
  0
VERTEX
  5
295E
  8
LOTS
 10
548747.2435685409000143
 20
822438.7017244478920475
 30
7.5
  0
VERTEX
  5
295F
  8
LOTS
 10
548855.05286249530036
 20
822453.2157826280454174
 30
7.5
  0
SEQEND
  5
2960
  8
LOTS
  0
POLYLINE
  5
A2
  8
LOTS
 66
     1
 10
0.0
 20
0.0
 30
7.5
 70
     1
1001
DCO15
1071
        1
1071
        1
1000
tonolinks
1004
074134363900
  0
VERTEX
  5
2961
  8
LOTS
 10
548820.592258466524072
 20
822505.5951050102012232
 30
7.5
  0
VERTEX
  5
2962
  8
LOTS
 10
548782.5013043483486399
 20
822570.3036221774527803
 30
7.5
  0
VERTEX
  5
2963
  8
LOTS
 10
548825.9810626168036833
 20
822596.7383219324983656
 30
7.5
  0
VERTEX
  5
2964
  8
LOTS
 10
548897.0427541969111189
 20
822547.286242219270207
 30
7.5
  0
SEQEND
  5
2965
  8
LOTS
  0
POLYLINE
  5
A3
  8
LOTS
 66
     1
 10
0.0
 20
0.0
 30
7.5
 70
     1
1001
DCO15
1071
        1
1071
        1
1000
tonolinks
1004
074134373500
  0
VERTEX
  5
2966
  8
LOTS
 10
549044.1327965361997485
 20
822782.8521972687449306
 30
7.5
  0
VERTEX
  5
2967
  8
LOTS
 10
549130.2395305186510086
 20
822770.7045360443880782
 30
7.5
  0
VERTEX
  5
2968
  8
LOTS
 10
549197.9668015725910664
 20
822825.0062992080347613
 30
7.5
  0
VERTEX
  5
2969
  8
LOTS
 10
549157.0603738697245717
 20
822847.7208867131266743
 30
7.5
  0
SEQEND
  5
296A
  8
LOTS
  0
POLYLINE
  5
A4
  8
LOTS
 66
     1
 10
0.0
 20
0.0
 30
7.5
 70
     1
1001
DCO15
1071
        1
1071
        1
1000
tonolinks
1004
074134323700
  0
VERTEX
  5
296B
  8
LOTS
 10
548403.9600972611224279
 20
823179.5739452595589682
 30
7.5
  0
VERTEX
  5
296C
  8
LOTS
 10
548449.5210979025578126
 20
823164.3212796399602666
 30
7.5
  0
VERTEX
  5
296D
  8
LOTS
 10
548468.4966317408252507
 20
823247.5343443148303777
 30
7.5
  0
VERTEX
  5
296E
  8
LOTS
 10
548395.1663769976003096
 20
823258.678473376086913
 30
7.5
  0
VERTEX
  5
296F
  8
LOTS
 10
548373.5996988217812032
 20
823249.26849210774526
 30
7.5
  0
SEQEND
  5
2970
  8
LOTS
  0
POLYLINE
  5
A5
  8
LOTS
 66
     1
 10
0.0
 20
0.0
 30
7.5
 70
     1
1001
DCO15
1071
        1
1071
        1
1000
tonolinks
1004
074134343300
  0
VERTEX
  5
2971
  8
LOTS
 10
548475.7328897668048739
 20
823105.6709642440546304
 30
7.5
  0
VERTEX
  5
2972
  8
LOTS
 10
548393.2391754209529608
 20
823059.5478462943574414
 30
7.5
  0
VERTEX
  5
2973
  8
LOTS
 10
548390.777836863999255
 20
823090.621790986857377
 30
7.5
  0
VERTEX
  5
2974
  8
LOTS
 10
548403.9558854774804786
 20
823179.5090024775126949
 30
7.5
  0
VERTEX
  5
2975
  8
LOTS
 10
548449.5224788155173883
 20
823164.3062296448042616
 30
7.5
  0
SEQEND
  5
2976
  8
LOTS
  0
POLYLINE
  5
A6
  8
LOTS
 66
     1
 10
0.0
 20
0.0
 30
7.5
 70
     1
1001
DCO15
1071
        1
1071
        1
1000
tonolinks
1004
074134323500
  0
VERTEX
  5
2977
  8
LOTS
 10
548336.596144303213805
 20
823303.6832235949113965
 30
7.5
  0
VERTEX
  5
2978
  8
LOTS
 10
548339.8101492539281026
 20
823344.9553136769682169
 30
7.5
  0
VERTEX
  5
2979
  8
LOTS
 10
548339.6489967576926574
 20
823414.8524939547060058
 30
7.5
  0
VERTEX
  5
297A
  8
LOTS
 10
548411.6680059741484001
 20
823400.1125364725012332
 30
7.5
  0
VERTEX
  5
297B
  8
LOTS
 10
548383.8591887280344963
 20
823338.644735069363378
 30
7.5
  0
VERTEX
  5
297C
  8
LOTS
 10
548374.2590845722006634
 20
823285.0155535618541762
 30
7.5
  0
SEQEND
  5
297D
  8
LOTS
  0
POLYLINE
  5
A7
  8
LOTS
 66
     1
 10
0.0
 20
0.0
 30
7.5
 70
     1
1001
DCO15
1071
        1
1071
        1
1000
tonolinks
1004
074134323000
  0
VERTEX
  5
297E
  8
LOTS
 10
548261.2657067542895675
 20
823265.6996880930382758
 30
7.5
  0
VERTEX
  5
297F
  8
LOTS
 10
548333.7362053344259039
 20
823270.608376486459747
 30
7.5
  0
VERTEX
  5
2980
  8
LOTS
 10
548333.2872016136534512
 20
823195.7313284348929301
 30
7.5
  0
VERTEX
  5
2981
  8
LOTS
 10
548276.8358411600347608
 20
823186.1393654671264812
 30
7.5
  0
SEQEND
  5
2982
  8
LOTS
  0
POLYLINE
  5
A8
  8
LOTS
 66
     1
 10
0.0
 20
0.0
 30
7.5
 70
     1
1001
DCO15
1071
        1
1071
        1
1000
tonolinks
1004
074134323200
  0
VERTEX
  5
2983
  8
LOTS
 10
548339.0191625368315727
 20
823441.3406716069439426
 30
7.5
  0
VERTEX
  5
2984
  8
LOTS
 10
548288.5941735649248585
 20
823442.3690381281776354
 30
7.5
  0
VERTEX
  5
2985
  8
LOTS
 10
548270.3240789112169296
 20
823429.3058666719589382
 30
7.5
  0
VERTEX
  5
2986
  8
LOTS
 10
548267.2215826502069831
 20
823406.824386034742929
 30
7.5
  0
VERTEX
  5
2987
  8
LOTS
 10
548271.0996684536803514
 20
823385.8933162806788459
 30
7.5
  0
VERTEX
  5
2988
  8
LOTS
 10
548279.6313605578616261
 20
823370.3888713429914787
 30
7.5
  0
VERTEX
  5
2989
  8
LOTS
 10
548282.7337877735262737
 20
823349.457801588694565
 30
7.5
  0
VERTEX
  5
298A
  8
LOTS
 10
548339.4879823528463021
 20
823345.0808672320563346
 30
7.5
  0
SEQEND
  5
298B
  8
LOTS
  0
POLYLINE
  5
A9
  8
LOTS
 66
     1
 10
0.0
 20
0.0
 30
7.5
 70
     1
1001
DCO15
1071
        1
1071
        1
1000
tonolinks
1004
074134323300
  0
VERTEX
  5
298C
  8
LOTS
 10
548350.1309516782639548
 20
823538.0779678784310818
 30
7.5
  0
VERTEX
  5
298D
  8
LOTS
 10
548404.6542129622539505
 20
823576.8549704777542502
 30
7.5
  0
VERTEX
  5
298E
  8
LOTS
 10
548414.8434144185157493
 20
823536.7835562867112458
 30
7.5
  0
VERTEX
  5
298F
  8
LOTS
 10
548411.1579659179551527
 20
823463.8479575703386217
 30
7.5
  0
VERTEX
  5
2990
  8
LOTS
 10
548354.4021142435958609
 20
823468.2682867017574608
 30
7.5
  0
SEQEND
  5
2991
  8
LOTS
  0
POLYLINE
  5
AA
  8
LOTS
 66
     1
 10
0.0
 20
0.0
 30
7.5
 70
     1
1001
DCO15
1071
        1
1071
        1
1000
tonolinks
1004
074231343400
  0
VERTEX
  5
2992
  8
LOTS
 10
553248.8854814734077081
 20
819838.597580885514617
 30
7.5
  0
VERTEX
  5
2993
  8
LOTS
 10
553278.2248331616865471
 20
819850.577078023343347
 30
7.5
  0
VERTEX
  5
2994
  8
LOTS
 10
553362.5482566568534821
 20
819888.5347708535846323
 30
7.5
  0
VERTEX
  5
2995
  8
LOTS
 10
553362.5482566568534821
 20
819888.5347708535846323
 30
7.5
  0
VERTEX
  5
2996
  8
LOTS
 10
553292.2545595996780321
 20
819936.6500525127630681
 30
7.5
  0
VERTEX
  5
2997
  8
LOTS
 10
553247.7644566526869312
 20
819893.4898789578583091
 30
7.5
  0
VERTEX
  5
2998
  8
LOTS
 10
553243.1845910833217204
 20
819866.0243105735862628
 30
7.5
  0
SEQEND
  5
2999
  8
LOTS
  0
POLYLINE
  5
AB
  8
LOTS
 66
     1
 10
0.0
 20
0.0
 30
7.5
 70
     1
1001
DCO15
1071
        1
1071
        1
1000
tonolinks
1004
074231333900
  0
VERTEX
  5
299A
  8
LOTS
 10
553210.8514899984002113
 20
819862.7812794264173135
 30
7.5
  0
VERTEX
  5
299B
  8
LOTS
 10
553162.2001451259711757
 20
819873.8174070355016738
 30
7.5
  0
VERTEX
  5
299C
  8
LOTS
 10
553135.2187016437528655
 20
819921.7962677737232298
 30
7.5
  0
VERTEX
  5
299D
  8
LOTS
 10
553186.4726524283178151
 20
819952.7362563082715496
 30
7.5
  0
VERTEX
  5
299E
  8
LOTS
 10
553239.75640659336932
 20
819911.6520110747078434
 30
7.5
  0
SEQEND
  5
299F
  8
LOTS
  0
POLYLINE
  5
AC
  8
LOTS
 66
     1
 10
0.0
 20
0.0
 30
7.5
 70
     1
1001
DCO15
1071
        1
1071
        1
1000
tonolinks
1004
074137373900
  0
VERTEX
  5
29A0
  8
LOTS
 10
552221.2537108078831807
 20
819614.9455079843755811
 30
7.5
  0
VERTEX
  5
29A1
  8
LOTS
 10
552175.4383460716344416
 20
819638.3237517144298181
 30
7.5
  0
VERTEX
  5
29A2
  8
LOTS
 10
552157.1549946571467444
 20
819618.8344938730588183
 30
7.5
  0
VERTEX
  5
29A3
  8
LOTS
 10
552146.5321176094003022
 20
819557.9600282468600199
 30
7.5
  0
VERTEX
  5
29A4
  8
LOTS
 10
552204.6040480044903234
 20
819543.8031740385340527
 30
7.5
  0
SEQEND
  5
29A5
  8
LOTS
  0
POLYLINE
  5
AD
  8
LOTS
 66
     1
 10
0.0
 20
0.0
 30
7.5
 70
     1
1001
DCO15
1071
        1
1071
        1
1000
tonolinks
1004
074137373200
  0
VERTEX
  5
29A6
  8
LOTS
 10
552363.9068810739554465
 20
819933.6359456045320258
 30
7.5
  0
VERTEX
  5
29A7
  8
LOTS
 10
552403.5440429920563474
 20
819895.3346796910045668
 30
7.5
  0
VERTEX
  5
29A8
  8
LOTS
 10
552451.444654748076573
 20
819900.7029717726400122
 30
7.5
  0
VERTEX
  5
29A9
  8
LOTS
 10
552483.4252088549546897
 20
819924.3568582121515647
 30
7.5
  0
VERTEX
  5
29AA
  8
LOTS
 10
552480.866723099257797
 20
819948.6500146556645632
 30
7.5
  0
VERTEX
  5
29AB
  8
LOTS
 10
552460.3991822797106579
 20
819958.2394008253468201
 30
7.5
  0
VERTEX
  5
29AC
  8
LOTS
 10
552412.428420165204443
 20
819960.1572855280246586
 30
7.5
  0
SEQEND
  5
29AD
  8
LOTS
  0
POLYLINE
  5
AE
  8
LOTS
 66
     1
 10
0.0
 20
0.0
 30
7.5
 70
     1
1001
DCO15
1071
        1
1071
        1
1000
tonolinks
1004
074137363100
  0
VERTEX
  5
29AE
  8
LOTS
 10
552409.7609113624785095
 20
820047.9953293886501342
 30
7.5
  0
VERTEX
  5
29AF
  8
LOTS
 10
552501.2051485932897776
 20
820148.5404984252527356
 30
7.5
  0
VERTEX
  5
29B0
  8
LOTS
 10
552451.9442689140560105
 20
820174.5471882771234959
 30
7.5
  0
VERTEX
  5
29B1
  8
LOTS
 10
552398.4654608493437991
 20
820102.0688405205728486
 30
7.5
  0
SEQEND
  5
29B2
  8
LOTS
  0
POLYLINE
  5
AF
  8
LOTS
 66
     1
 10
0.0
 20
0.0
 30
7.5
 70
     1
1001
DCO15
1071
        1
1071
        1
1000
tonolinks
1004
074231333700
  0
VERTEX
  5
29B3
  8
LOTS
 10
552488.1790694077499211
 20
820044.8039088938385248
 30
7.5
  0
VERTEX
  5
29B4
  8
LOTS
 10
552501.3958526185015216
 20
820148.4079240285791457
 30
7.5
  0
VERTEX
  5
29B5
  8
LOTS
 10
552409.8978978887898847
 20
820047.7932187877595425
 30
7.5
  0
VERTEX
  5
29B6
  8
LOTS
 10
552431.7263280416373163
 20
820017.9758553029969335
 30
7.5
  0
SEQEND
  5
29B7
  8
LOTS
  0
POLYLINE
  5
B0
  8
LOTS
 66
     1
 10
0.0
 20
0.0
 30
7.5
 70
     1
1001
DCO15
1071
        1
1071
        1
1000
tonolinks
1004
074231333500
  0
VERTEX
  5
29B8
  8
LOTS
 10
552623.6605393099598587
 20
820091.3500325292116031
 30
7.5
  0
VERTEX
  5
29B9
  8
LOTS
 10
552614.8179347416153178
 20
820183.4111497567500919
 30
7.5
  0
VERTEX
  5
29BA
  8
LOTS
 10
552568.7910832458874211
 20
820148.2698225871426985
 30
7.5
  0
VERTEX
  5
29BB
  8
LOTS
 10
552539.752425268990919
 20
820068.0672797096194699
 30
7.5
  0
SEQEND
  5
29BC
  8
LOTS
  0
POLYLINE
  5
B1
  8
LOTS
 66
     1
 10
0.0
 20
0.0
 30
7.5
 70
     1
1001
DCO15
1071
        1
1071
        1
1000
tonolinks
1004
074231333400
  0
VERTEX
  5
29BD
  8
LOTS
 10
552614.8643334042280912
 20
820183.4520050778519362
 30
7.5
  0
VERTEX
  5
29BE
  8
LOTS
 10
552706.4728301845025271
 20
820139.7834927394287661
 30
7.5
  0
VERTEX
  5
29BF
  8
LOTS
 10
552703.9070255920523778
 20
820102.7740616188384593
 30
7.5
  0
VERTEX
  5
29C0
  8
LOTS
 10
552623.873683164594695
 20
820091.3464100738056004
 30
7.5
  0
SEQEND
  5
29C1
  8
LOTS
  0
POLYLINE
  5
B2
  8
LOTS
 66
     1
 10
0.0
 20
0.0
 30
7.5
 70
     1
1001
DCO15
1071
        1
1071
        1
1000
tonolinks
1004
074231323400
  0
VERTEX
  5
29C2
  8
LOTS
 10
553030.8407682776451111
 20
820453.6483343699947
 30
7.5
  0
VERTEX
  5
29C3
  8
LOTS
 10
552966.8907073647715151
 20
820470.3751899308990687
 30
7.5
  0
VERTEX
  5
29C4
  8
LOTS
 10
552937.404771807952784
 20
820532.9809651382965967
 30
7.5
  0
VERTEX
  5
29C5
  8
LOTS
 10
553045.6935186050832272
 20
820505.2283638492226601
 30
7.5
  0
SEQEND
  5
29C6
  8
LOTS
  0
POLYLINE
  5
B3
  8
LOTS
 66
     1
 10
0.0
 20
0.0
 30
7.5
 70
     1
1001
DCO15
1071
        1
1071
        1
1000
tonolinks
1004
074231323700
  0
VERTEX
  5
29C7
  8
LOTS
 10
552777.7209449609508738
 20
820384.7280593401519582
 30
7.5
  0
VERTEX
  5
29C8
  8
LOTS
 10
552837.0510938401566818
 20
820351.1476743154926226
 30
7.5
  0
VERTEX
  5
29C9
  8
LOTS
 10
552883.9185758606763557
 20
820411.0121844570385292
 30
7.5
  0
VERTEX
  5
29CA
  8
LOTS
 10
552835.1534437927184626
 20
820448.1482147894566879
 30
7.5
  0
VERTEX
  5
29CB
  8
LOTS
 10
552835.1534437927184626
 20
820448.1482147894566879
 30
7.5
  0
SEQEND
  5
29CC
  8
LOTS
  0
POLYLINE
  5
B4
  8
LOTS
 66
     1
 10
0.0
 20
0.0
 30
7.5
 70
     1
1001
DCO15
1071
        1
1071
        1
1000
tonolinks
1004
074231323800
  0
VERTEX
  5
29CD
  8
LOTS
 10
552673.0949996983399615
 20
820373.2606728210812435
 30
7.5
  0
VERTEX
  5
29CE
  8
LOTS
 10
552736.8727917687501758
 20
820353.5610138116171584
 30
7.5
  0
VERTEX
  5
29CF
  8
LOTS
 10
552766.7068553835852072
 20
820402.3500348182860762
 30
7.5
  0
VERTEX
  5
29D0
  8
LOTS
 10
552763.9480682599823922
 20
820433.1413533040322363
 30
7.5
  0
VERTEX
  5
29D1
  8
LOTS
 10
552720.2670419849455357
 20
820451.5242311269976199
 30
7.5
  0
SEQEND
  5
29D2
  8
LOTS
  0
POLYLINE
  5
B5
  8
LOTS
 66
     1
 10
0.0
 20
0.0
 30
7.5
 70
     1
1001
DCO15
1071
        1
1071
        1
1000
tonolinks
1004
074231333000
  0
VERTEX
  5
29D3
  8
LOTS
 10
552688.3492503543384373
 20
820540.5099958098726347
 30
7.5
  0
VERTEX
  5
29D4
  8
LOTS
 10
552635.1830808942904696
 20
820553.9432925736764446
 30
7.5
  0
VERTEX
  5
29D5
  8
LOTS
 10
552587.0153316024225205
 20
820603.386409510159865
 30
7.5
  0
VERTEX
  5
29D6
  8
LOTS
 10
552603.9930301856948063
 20
820630.9797721434151754
 30
7.5
  0
VERTEX
  5
29D7
  8
LOTS
 10
552704.6744677503593266
 20
820592.7027430702000856
 30
7.5
  0
SEQEND
  5
29D8
  8
LOTS
  0
POLYLINE
  5
B6
  8
LOTS
 66
     1
 10
0.0
 20
0.0
 30
7.5
 70
     1
1001
DCO15
1071
        1
1071
        1
1000
tonolinks
1004
074231323900
  0
VERTEX
  5
29D9
  8
LOTS
 10
552604.2578201700234786
 20
820501.0051411028252915
 30
7.5
  0
VERTEX
  5
29DA
  8
LOTS
 10
552634.6834667279617861
 20
820459.9034931452479213
 30
7.5
  0
VERTEX
  5
29DB
  8
LOTS
 10
552687.2887785494094715
 20
820489.3657066274899989
 30
7.5
  0
VERTEX
  5
29DC
  8
LOTS
 10
552688.3738305980805308
 20
820540.33906820055563
 30
7.5
  0
VERTEX
  5
29DD
  8
LOTS
 10
552635.2050374040845782
 20
820553.8958272056188434
 30
7.5
  0
SEQEND
  5
29DE
  8
LOTS
  0
POLYLINE
  5
B7
  8
LOTS
 66
     1
 10
0.0
 20
0.0
 30
7.5
 70
     1
1001
DCO15
1071
        1
1071
        1
1000
tonolinks
1004
074231333300
  0
VERTEX
  5
29DF
  8
LOTS
 10
552549.345693907700479
 20
820334.0631666434928775
 30
7.5
  0
VERTEX
  5
29E0
  8
LOTS
 10
552609.4318233709782362
 20
820293.4029354087542742
 30
7.5
  0
VERTEX
  5
29E1
  8
LOTS
 10
552624.2641361923888326
 20
820346.2805881414096802
 30
7.5
  0
VERTEX
  5
29E2
  8
LOTS
 10
552612.6264265002682805
 20
820393.6100584072992206
 30
7.5
  0
VERTEX
  5
29E3
  8
LOTS
 10
552560.6450109758879989
 20
820399.5348268490051851
 30
7.5
  0
VERTEX
  5
29E4
  8
LOTS
 10
552546.9656911008059978
 20
820368.9994703107513487
 30
7.5
  0
SEQEND
  5
29E5
  8
LOTS
  0
POLYLINE
  5
B8
  8
LOTS
 66
     1
 10
0.0
 20
0.0
 30
7.5
 70
     1
1001
DCO15
1071
        1
1071
        1
1000
tonolinks
1004
074137353000
  0
VERTEX
  5
29E6
  8
LOTS
 10
552862.2028281730599701
 20
820160.0062044232618064
 30
7.5
  0
VERTEX
  5
29E7
  8
LOTS
 10
552879.6271829260513186
 20
820231.9199719758471474
 30
7.5
  0
VERTEX
  5
29E8
  8
LOTS
 10
552796.9272983344271779
 20
820217.8512143873376772
 30
7.5
  0
VERTEX
  5
29E9
  8
LOTS
 10
552786.5476690349169075
 20
820137.7417723470134661
 30
7.5
  0
SEQEND
  5
29EA
  8
LOTS
  0
POLYLINE
  5
B9
  8
LOTS
 66
     1
 10
0.0
 20
0.0
 30
7.5
 70
     1
1001
DCO15
1071
        1
1071
        1
1000
tonolinks
1004
074137343100
  0
VERTEX
  5
29EB
  8
LOTS
 10
552119.7759700122987852
 20
820507.8838476793607697
 30
7.5
  0
VERTEX
  5
29EC
  8
LOTS
 10
552113.4328862332040444
 20
820487.5961932135978714
 30
7.5
  0
VERTEX
  5
29ED
  8
LOTS
 10
552060.5743150472408161
 20
820446.5982520446414128
 30
7.5
  0
VERTEX
  5
29EE
  8
LOTS
 10
552014.4816630675923079
 20
820478.7203560554189608
 30
7.5
  0
VERTEX
  5
29EF
  8
LOTS
 10
552068.6088095819577575
 20
820524.3675505944993347
 30
7.5
  0
VERTEX
  5
29F0
  8
LOTS
 10
552089.7522380565060303
 20
820526.4808238160330802
 30
7.5
  0
VERTEX
  5
29F1
  8
LOTS
 10
552107.9356114007532597
 20
820523.0995418479433283
 30
7.5
  0
SEQEND
  5
29F2
  8
LOTS
  0
POLYLINE
  5
BA
  8
LOTS
 66
     1
 10
0.0
 20
0.0
 30
7.5
 70
     1
1001
DCO15
1071
        1
1071
        1
1000
tonolinks
1004
074137343000
  0
VERTEX
  5
29F3
  8
LOTS
 10
552148.0564379449933767
 20
820495.8275694266194478
 30
7.5
  0
VERTEX
  5
29F4
  8
LOTS
 10
552114.7242466191528365
 20
820454.5586910055717453
 30
7.5
  0
VERTEX
  5
29F5
  8
LOTS
 10
552105.6649768693605438
 20
820401.5717297494411469
 30
7.5
  0
VERTEX
  5
29F6
  8
LOTS
 10
552163.3755914916982874
 20
820388.4926493656821549
 30
7.5
  0
VERTEX
  5
29F7
  8
LOTS
 10
552180.4875147762941197
 20
820471.3267379919998348
 30
7.5
  0
SEQEND
  5
29F8
  8
LOTS
  0
POLYLINE
  5
BB
  8
LOTS
 66
     1
 10
0.0
 20
0.0
 30
7.5
 70
     1
1001
DCO15
1071
        1
1071
        1
1000
tonolinks
1004
074137333800
  0
VERTEX
  5
29F9
  8
LOTS
 10
552077.5993789315689355
 20
820228.6427702443907037
 30
7.5
  0
VERTEX
  5
29FA
  8
LOTS
 10
552114.0012007997138426
 20
820198.0740647099446505
 30
7.5
  0
VERTEX
  5
29FB
  8
LOTS
 10
552183.4814713096711785
 20
820262.0821035805856809
 30
7.5
  0
VERTEX
  5
29FC
  8
LOTS
 10
552134.8162482659099624
 20
820304.7139588298741728
 30
7.5
  0
SEQEND
  5
29FD
  8
LOTS
  0
POLYLINE
  5
BC
  8
LOTS
 66
     1
 10
0.0
 20
0.0
 30
7.5
 70
     1
1001
DCO15
1071
        1
1071
        1
1000
tonolinks
1004
074137333700
  0
VERTEX
  5
29FE
  8
LOTS
 10
552072.9659339546924457
 20
820136.1605519207660109
 30
7.5
  0
VERTEX
  5
29FF
  8
LOTS
 10
552004.4364217461552471
 20
820162.1886404003016651
 30
7.5
  0
VERTEX
  5
2A00
  8
LOTS
 10
552012.6286164959892631
 20
820190.9519067276269197
 30
7.5
  0
VERTEX
  5
2A01
  8
LOTS
 10
552028.8390800576889887
 20
820207.8908439778024331
 30
7.5
  0
VERTEX
  5
2A02
  8
LOTS
 10
552056.8390156029490754
 20
820214.8873737152898684
 30
7.5
  0
VERTEX
  5
2A03
  8
LOTS
 10
552077.4706088347593322
 20
820228.5121751279802993
 30
7.5
  0
VERTEX
  5
2A04
  8
LOTS
 10
552113.9442381564294919
 20
820197.9484364651143551
 30
7.5
  0
SEQEND
  5
2A05
  8
LOTS
  0
POLYLINE
  5
BD
  8
LOTS
 66
     1
 10
0.0
 20
0.0
 30
7.5
 70
     1
1001
DCO15
1071
        1
1071
        1
1000
tonolinks
1004
074137333400
  0
VERTEX
  5
2A06
  8
LOTS
 10
551889.9583557839505374
 20
819893.1220690343761817
 30
7.5
  0
VERTEX
  5
2A07
  8
LOTS
 10
551947.1807487683836371
 20
819868.2763947898056358
 30
7.5
  0
VERTEX
  5
2A08
  8
LOTS
 10
551976.7886189050041139
 20
819954.1537193462718278
 30
7.5
  0
VERTEX
  5
2A09
  8
LOTS
 10
551928.0036016963422298
 20
819982.3836631514132023
 30
7.5
  0
SEQEND
  5
2A0A
  8
LOTS
  0
POLYLINE
  5
BE
  8
LOTS
 66
     1
 10
0.0
 20
0.0
 30
7.5
 70
     1
1001
DCO15
1071
        1
1071
        1
1000
tonolinks
1004
074137333300
  0
VERTEX
  5
2A0B
  8
LOTS
 10
551911.7314113425090909
 20
819773.5454906354425475
 30
7.5
  0
VERTEX
  5
2A0C
  8
LOTS
 10
551869.1334347927477211
 20
819799.1503867040155455
 30
7.5
  0
VERTEX
  5
2A0D
  8
LOTS
 10
551889.7450738375773653
 20
819892.672884572762996
 30
7.5
  0
VERTEX
  5
2A0E
  8
LOTS
 10
551947.1885509245330468
 20
819868.1870657879626378
 30
7.5
  0
VERTEX
  5
2A0F
  8
LOTS
 10
551931.1381351290037856
 20
819814.1494431053288281
 30
7.5
  0
SEQEND
  5
2A10
  8
LOTS
  0
POLYLINE
  5
BF
  8
LOTS
 66
     1
 10
0.0
 20
0.0
 30
7.5
 70
     1
1001
DCO15
1071
        1
1071
        1
1000
tonolinks
1004
074137333200
  0
VERTEX
  5
2A11
  8
LOTS
 10
551829.3240040319506079
 20
819721.5286378558957949
 30
7.5
  0
VERTEX
  5
2A12
  8
LOTS
 10
551870.3765322843100876
 20
819693.3825706969946623
 30
7.5
  0
VERTEX
  5
2A13
  8
LOTS
 10
551911.722642547916621
 20
819773.4987721651559696
 30
7.5
  0
VERTEX
  5
2A14
  8
LOTS
 10
551869.0969787010690197
 20
819799.0615058413241059
 30
7.5
  0
SEQEND
  5
2A15
  8
LOTS
  0
POLYLINE
  5
C0
  8
LOTS
 66
     1
 10
0.0
 20
0.0
 30
7.5
 70
     1
1001
DCO15
1071
        1
1071
        1
1000
tonolinks
1004
074231313700
  0
VERTEX
  5
2A16
  8
LOTS
 10
551945.0909447375452146
 20
820725.1192077657906339
 30
7.5
  0
VERTEX
  5
2A17
  8
LOTS
 10
551990.3082362416898832
 20
820743.0280667685437948
 30
7.5
  0
VERTEX
  5
2A18
  8
LOTS
 10
552023.2261537978192791
 20
820724.0580524221295491
 30
7.5
  0
VERTEX
  5
2A19
  8
LOTS
 10
551978.3342743393732235
 20
820654.2609191321535036
 30
7.5
  0
VERTEX
  5
2A1A
  8
LOTS
 10
551943.9726126961177215
 20
820658.1385521714109927
 30
7.5
  0
SEQEND
  5
2A1B
  8
LOTS
  0
POLYLINE
  5
C1
  8
LOTS
 66
     1
 10
0.0
 20
0.0
 30
7.5
 70
     1
1001
DCO15
1071
        1
1071
        1
1000
tonolinks
1004
074231303000
  0
VERTEX
  5
2A1C
  8
LOTS
 10
552048.6542777810245752
 20
821028.0950980385532603
 30
7.5
  0
VERTEX
  5
2A1D
  8
LOTS
 10
551970.64086520858109
 20
821045.7328704099636525
 30
7.5
  0
VERTEX
  5
2A1E
  8
LOTS
 10
551975.9603475482435897
 20
821002.4378070747479796
 30
7.5
  0
VERTEX
  5
2A1F
  8
LOTS
 10
552032.2830759964417666
 20
820954.8862093418138102
 30
7.5
  0
SEQEND
  5
2A20
  8
LOTS
  0
POLYLINE
  5
C2
  8
LOTS
 66
     1
 10
0.0
 20
0.0
 30
7.5
 70
     1
1001
DCO15
1071
        1
1071
        1
1000
tonolinks
1004
074231303100
  0
VERTEX
  5
2A21
  8
LOTS
 10
551970.6200824746629223
 20
821045.8239172765752301
 30
7.5
  0
VERTEX
  5
2A22
  8
LOTS
 10
551969.1309063638327643
 20
821108.1581203683745116
 30
7.5
  0
VERTEX
  5
2A23
  8
LOTS
 10
552029.1622826438397169
 20
821113.0044054331956431
 30
7.5
  0
VERTEX
  5
2A24
  8
LOTS
 10
552048.7077190972631797
 20
821028.2960509475087747
 30
7.5
  0
SEQEND
  5
2A25
  8
LOTS
  0
POLYLINE
  5
C3
  8
LOTS
 66
     1
 10
0.0
 20
0.0
 30
7.5
 70
     1
1001
DCO15
1071
        1
1071
        1
1000
tonolinks
1004
074137323300
  0
VERTEX
  5
2A26
  8
LOTS
 10
552045.1401314842514694
 20
821327.4001713307807222
 30
7.5
  0
VERTEX
  5
2A27
  8
LOTS
 10
552090.1624381340807304
 20
821300.2639849678380415
 30
7.5
  0
VERTEX
  5
2A28
  8
LOTS
 10
552065.977204505703412
 20
821242.4327926164260134
 30
7.5
  0
VERTEX
  5
2A29
  8
LOTS
 10
551997.0689079801086336
 20
821258.2799517051316798
 30
7.5
  0
VERTEX
  5
2A2A
  8
LOTS
 10
552013.5337356370873749
 20
821323.497106414870359
 30
7.5
  0
SEQEND
  5
2A2B
  8
LOTS
  0
POLYLINE
  5
C4
  8
LOTS
 66
     1
 10
0.0
 20
0.0
 30
7.5
 70
     1
1001
DCO15
1071
        1
1071
        1
1000
tonolinks
1004
074230363900
  0
VERTEX
  5
2A2C
  8
LOTS
 10
551590.5482718999264762
 20
820004.9935729007702321
 30
7.5
  0
VERTEX
  5
2A2D
  8
LOTS
 10
551651.4962288945680484
 20
819988.6459921478526667
 30
7.5
  0
VERTEX
  5
2A2E
  8
LOTS
 10
551657.9583473370876163
 20
819964.0252462384523824
 30
7.5
  0
VERTEX
  5
2A2F
  8
LOTS
 10
551654.1522761237574741
 20
819919.6508779380237684
 30
7.5
  0
VERTEX
  5
2A30
  8
LOTS
 10
551619.7084501824574545
 20
819911.0441854768432677
 30
7.5
  0
VERTEX
  5
2A31
  8
LOTS
 10
551576.1472180725540966
 20
819943.9520635354565457
 30
7.5
  0
SEQEND
  5
2A32
  8
LOTS
  0
POLYLINE
  5
C5
  8
LOTS
 66
     1
 10
0.0
 20
0.0
 30
7.5
 70
     1
1001
DCO15
1071
        1
1071
        1
1000
tonolinks
1004
074230373000
  0
VERTEX
  5
2A33
  8
LOTS
 10
551686.3465264500118792
 20
820041.5955711584538221
 30
7.5
  0
VERTEX
  5
2A34
  8
LOTS
 10
551651.5530534469289705
 20
819988.688266574870795
 30
7.5
  0
VERTEX
  5
2A35
  8
LOTS
 10
551590.5562121471157297
 20
820005.0824537639273331
 30
7.5
  0
VERTEX
  5
2A36
  8
LOTS
 10
551628.1028795774327591
 20
820055.8147540051722899
 30
7.5
  0
VERTEX
  5
2A37
  8
LOTS
 10
551654.5245701513485983
 20
820071.4514372354606166
 30
7.5
  0
SEQEND
  5
2A38
  8
LOTS
  0
POLYLINE
  5
C6
  8
LOTS
 66
     1
 10
0.0
 20
0.0
 30
7.5
 70
     1
1001
DCO15
1071
        1
1071
        1
1000
tonolinks
1004
074137313700
  0
VERTEX
  5
2A39
  8
LOTS
 10
551529.6123288436792791
 20
820668.2494225295959041
 30
7.5
  0
VERTEX
  5
2A3A
  8
LOTS
 10
551520.5394571053329855
 20
820611.9707323760958388
 30
7.5
  0
VERTEX
  5
2A3B
  8
LOTS
 10
551539.0119244954548776
 20
820585.5438377056270838
 30
7.5
  0
VERTEX
  5
2A3C
  8
LOTS
 10
551589.1544478016439825
 20
820583.3882527113892138
 30
7.5
  0
VERTEX
  5
2A3D
  8
LOTS
 10
551621.6090691923163831
 20
820623.4827833957970142
 30
7.5
  0
VERTEX
  5
2A3E
  8
LOTS
 10
551600.2650631675496697
 20
820649.4427547777304426
 30
7.5
  0
VERTEX
  5
2A3F
  8
LOTS
 10
551562.1765946921659634
 20
820646.4213656135834754
 30
7.5
  0
SEQEND
  5
2A40
  8
LOTS
  0
POLYLINE
  5
C7
  8
LOTS
 66
     1
 10
0.0
 20
0.0
 30
7.5
 70
     1
1001
DCO15
1071
        1
1071
        1
1000
tonolinks
1004
074137313400
  0
VERTEX
  5
2A41
  8
LOTS
 10
551592.775476731127128
 20
820763.8222301183268428
 30
7.5
  0
VERTEX
  5
2A42
  8
LOTS
 10
551586.2442436150740832
 20
820826.7765452800085768
 30
7.5
  0
VERTEX
  5
2A43
  8
LOTS
 10
551622.4147626286139712
 20
820825.3666259115561843
 30
7.5
  0
VERTEX
  5
2A44
  8
LOTS
 10
551650.5496133313281462
 20
820810.3316810611868277
 30
7.5
  0
VERTEX
  5
2A45
  8
LOTS
 10
551665.3273110609734431
 20
820789.6681501733837649
 30
7.5
  0
VERTEX
  5
2A46
  8
LOTS
 10
551666.6835052917012945
 20
820736.9718069321243092
 30
7.5
  0
VERTEX
  5
2A47
  8
LOTS
 10
551638.7775408468442038
 20
820726.8132844810606912
 30
7.5
  0
SEQEND
  5
2A48
  8
LOTS
  0
POLYLINE
  5
C8
  8
LOTS
 66
     1
 10
0.0
 20
0.0
 30
7.5
 70
     1
1001
DCO15
1071
        1
1071
        1
1000
tonolinks
1004
074137303700
  0
VERTEX
  5
2A49
  8
LOTS
 10
551757.433281593141146
 20
820899.5979059459641576
 30
7.5
  0
VERTEX
  5
2A4A
  8
LOTS
 10
551704.0254524340853095
 20
820960.1032172323903069
 30
7.5
  0
VERTEX
  5
2A4B
  8
LOTS
 10
551738.5439857450546697
 20
820981.1862807307625189
 30
7.5
  0
VERTEX
  5
2A4C
  8
LOTS
 10
551811.7920761904679239
 20
820974.9204039685428143
 30
7.5
  0
VERTEX
  5
2A4D
  8
LOTS
 10
551813.4417833870975301
 20
820941.9421307726297528
 30
7.5
  0
VERTEX
  5
2A4E
  8
LOTS
 10
551798.5942114818608388
 20
820916.548868254176341
 30
7.5
  0
SEQEND
  5
2A4F
  8
LOTS
  0
POLYLINE
  5
C9
  8
LOTS
 66
     1
 10
0.0
 20
0.0
 30
7.5
 70
     1
1001
DCO15
1071
        1
1071
        1
1000
tonolinks
1004
074136383400
  0
VERTEX
  5
2A50
  8
LOTS
 10
551271.3785720233572647
 20
821326.8314458429813385
 30
7.5
  0
VERTEX
  5
2A51
  8
LOTS
 10
551336.0671449762303382
 20
821311.7708077017450705
 30
7.5
  0
VERTEX
  5
2A52
  8
LOTS
 10
551315.8246929051820189
 20
821222.8550273620057851
 30
7.5
  0
VERTEX
  5
2A53
  8
LOTS
 10
551260.5938520224299282
 20
821234.6197166326455772
 30
7.5
  0
SEQEND
  5
2A54
  8
LOTS
  0
POLYLINE
  5
CA
  8
LOTS
 66
     1
 10
0.0
 20
0.0
 30
7.5
 70
     1
1001
DCO15
1071
        1
1071
        1
1000
tonolinks
1004
074136383300
  0
VERTEX
  5
2A55
  8
LOTS
 10
551283.8907445977674797
 20
821405.3260943924542516
 30
7.5
  0
VERTEX
  5
2A56
  8
LOTS
 10
551367.3463335909182206
 20
821387.1759873336413875
 30
7.5
  0
VERTEX
  5
2A57
  8
LOTS
 10
551336.1231409807223827
 20
821311.8664479909930378
 30
7.5
  0
VERTEX
  5
2A58
  8
LOTS
 10
551271.4212422214914113
 20
821327.1100761451525614
 30
7.5
  0
SEQEND
  5
2A59
  8
LOTS
  0
POLYLINE
  5
CB
  8
LOTS
 66
     1
 10
0.0
 20
0.0
 30
7.5
 70
     1
1001
DCO15
1071
        1
1071
        1
1000
tonolinks
1004
074136343500
  0
VERTEX
  5
2A5A
  8
LOTS
 10
551359.0521584481466562
 20
821466.2172531899996102
 30
7.5
  0
VERTEX
  5
2A5B
  8
LOTS
 10
551294.256219542818144
 20
821456.9623279474908486
 30
7.5
  0
VERTEX
  5
2A5C
  8
LOTS
 10
551306.5859045217512175
 20
821551.8942223554477096
 30
7.5
  0
VERTEX
  5
2A5D
  8
LOTS
 10
551325.7988862751517445
 20
821570.3590722348308191
 30
7.5
  0
VERTEX
  5
2A5E
  8
LOTS
 10
551356.8352414154214785
 20
821562.9731472211424261
 30
7.5
  0
SEQEND
  5
2A5F
  8
LOTS
  0
POLYLINE
  5
CC
  8
LOTS
 66
     1
 10
0.0
 20
0.0
 30
7.5
 70
     1
1001
DCO15
1071
        1
1071
        1
1000
tonolinks
1004
074136353800
  0
VERTEX
  5
2A60
  8
LOTS
 10
552897.4702169770607725
 20
822800.6570152308559045
 30
7.5
  0
VERTEX
  5
2A61
  8
LOTS
 10
552927.5851663537323475
 20
822776.8938265750184655
 30
7.5
  0
VERTEX
  5
2A62
  8
LOTS
 10
552932.3402183210710064
 20
822744.4174436795292422
 30
7.5
  0
VERTEX
  5
2A63
  8
LOTS
 10
552924.4151950003579259
 20
822700.8515852778218687
 30
7.5
  0
VERTEX
  5
2A64
  8
LOTS
 10
552906.1877173130633309
 20
822681.8409967551706359
 30
7.5
  0
VERTEX
  5
2A65
  8
LOTS
 10
552857.0527499417075887
 20
822739.6648059487342834
 30
7.5
  0
VERTEX
  5
2A66
  8
LOTS
 10
552864.9777099707862362
 20
822774.5175077094463632
 30
7.5
  0
SEQEND
  5
2A67
  8
LOTS
  0
POLYLINE
  5
CD
  8
LOTS
 66
     1
 10
0.0
 20
0.0
 30
7.5
 70
     1
1001
DCO15
1071
        1
1071
        1
1000
tonolinks
1004
074131373400
  0
VERTEX
  5
2A68
  8
LOTS
 10
547642.8621508155483752
 20
824810.0711541707860306
 30
7.5
  0
VERTEX
  5
2A69
  8
LOTS
 10
547689.9319371320307255
 20
824834.8299641769845039
 30
7.5
  0
VERTEX
  5
2A6A
  8
LOTS
 10
547688.7864461751887575
 20
824911.2807263296563178
 30
7.5
  0
VERTEX
  5
2A6B
  8
LOTS
 10
547648.5898765767924488
 20
824905.8358398571144789
 30
7.5
  0
VERTEX
  5
2A6C
  8
LOTS
 10
547610.6979119592579082
 20
824882.2203813201049343
 30
7.5
  0
SEQEND
  5
2A6D
  8
LOTS
  0
POLYLINE
  5
CE
  8
LOTS
 66
     1
 10
0.0
 20
0.0
 30
7.5
 70
     1
1001
DCO15
1071
        1
1071
        1
1000
tonolinks
1004
074131323400
  0
VERTEX
  5
2A6E
  8
LOTS
 10
546102.9674794778693467
 20
825022.5947345781605691
 30
7.5
  0
VERTEX
  5
2A6F
  8
LOTS
 10
546033.2343123075552285
 20
825062.8304318785667419
 30
7.5
  0
VERTEX
  5
2A70
  8
LOTS
 10
546068.5360905221896246
 20
825121.6676459586014971
 30
7.5
  0
VERTEX
  5
2A71
  8
LOTS
 10
546145.6250731154577807
 20
825115.3651170986704528
 30
7.5
  0
SEQEND
  5
2A72
  8
LOTS
  0
POLYLINE
  5
CF
  8
LOTS
 66
     1
 10
0.0
 20
0.0
 30
7.5
 70
     1
1001
DCO15
1071
        1
1071
        1
1000
tonolinks
1004
074131323300
  0
VERTEX
  5
2A73
  8
LOTS
 10
545970.6970474268309772
 20
825126.3660284674260765
 30
7.5
  0
VERTEX
  5
2A74
  8
LOTS
 10
545908.5080689463065937
 20
825100.513050225446932
 30
7.5
  0
VERTEX
  5
2A75
  8
LOTS
 10
545834.4803018111269921
 20
825120.1740199179621413
 30
7.5
  0
VERTEX
  5
2A76
  8
LOTS
 10
545913.1745470750611275
 20
825163.1697638769401237
 30
7.5
  0
VERTEX
  5
2A77
  8
LOTS
 10
545970.6970474268309772
 20
825126.3660284674260765
 30
7.5
  0
SEQEND
  5
2A78
  8
LOTS
  0
POLYLINE
  5
D0
  8
LOTS
 66
     1
 10
0.0
 20
0.0
 30
7.5
 70
     1
1001
DCO15
1071
        1
1071
        1
1000
tonolinks
1004
074131313200
  0
VERTEX
  5
2A79
  8
LOTS
 10
545913.3778164924588054
 20
825163.3894265806302428
 30
7.5
  0
VERTEX
  5
2A7A
  8
LOTS
 10
545902.546817910275422
 20
825247.6988628405379131
 30
7.5
  0
VERTEX
  5
2A7B
  8
LOTS
 10
545963.0034049322130159
 20
825276.8622050855774432
 30
7.5
  0
VERTEX
  5
2A7C
  8
LOTS
 10
545989.1155331091722474
 20
825213.6649240012047812
 30
7.5
  0
SEQEND
  5
2A7D
  8
LOTS
  0
POLYLINE
  5
D1
  8
LOTS
 66
     1
 10
0.0
 20
0.0
 30
7.5
 70
     1
1001
DCO15
1071
        1
1071
        1
1000
tonolinks
1004
074131313500
  0
VERTEX
  5
2A7E
  8
LOTS
 10
546049.0691938131349161
 20
825269.7818360461387783
 30
7.5
  0
VERTEX
  5
2A7F
  8
LOTS
 10
546008.2084082714281976
 20
825313.0573679979424924
 30
7.5
  0
VERTEX
  5
2A80
  8
LOTS
 10
546027.9514549531741068
 20
825332.3098218260565773
 30
7.5
  0
VERTEX
  5
2A81
  8
LOTS
 10
546036.9548047649441287
 20
825356.1711591868661344
 30
7.5
  0
VERTEX
  5
2A82
  8
LOTS
 10
546114.8528442062670365
 20
825319.4012209118809551
 30
7.5
  0
VERTEX
  5
2A83
  8
LOTS
 10
546087.0600702801020816
 20
825275.5902377789607272
 30
7.5
  0
SEQEND
  5
2A84
  8
LOTS
  0
POLYLINE
  5
D2
  8
LOTS
 66
     1
 10
0.0
 20
0.0
 30
7.5
 70
     1
1001
DCO15
1071
        1
1071
        1
1000
tonolinks
1004
074130383900
  0
VERTEX
  5
2A85
  8
LOTS
 10
544789.6646802956238389
 20
825310.8368402228225023
 30
7.5
  0
VERTEX
  5
2A86
  8
LOTS
 10
544788.721632904256694
 20
825318.4930302801076323
 30
7.5
  0
VERTEX
  5
2A87
  8
LOTS
 10
544786.7154170364374295
 20
825327.8474423366133124
 30
7.5
  0
VERTEX
  5
2A88
  8
LOTS
 10
544779.3592921879608184
 20
825335.8655044792685658
 30
7.5
  0
VERTEX
  5
2A89
  8
LOTS
 10
544772.003167339367792
 20
825338.5382043075514957
 30
7.5
  0
VERTEX
  5
2A8A
  8
LOTS
 10
544770.6878898916766047
 20
825337.6048805582104251
 30
7.5
  0
VERTEX
  5
2A8B
  8
LOTS
 10
544714.873643763945438
 20
825300.7988297649426386
 30
7.5
  0
VERTEX
  5
2A8C
  8
LOTS
 10
544722.6876495236065239
 20
825238.3400814307387918
 30
7.5
  0
VERTEX
  5
2A8D
  8
LOTS
 10
544781.8507552623050287
 20
825247.2627864390378818
 30
7.5
  0
VERTEX
  5
2A8E
  8
LOTS
 10
544779.6181821882491931
 20
825260.6467879343545064
 30
7.5
  0
VERTEX
  5
2A8F
  8
LOTS
 10
544777.3856091140769422
 20
825280.7228088498814031
 30
7.5
  0
VERTEX
  5
2A90
  8
LOTS
 10
544780.7344687252771109
 20
825297.4528387275058776
 30
7.5
  0
SEQEND
  5
2A91
  8
LOTS
  0
POLYLINE
  5
D3
  8
LOTS
 66
     1
 10
0.0
 20
0.0
 30
7.5
 70
     1
1001
DCO15
1071
        1
1071
        1
1000
tonolinks
1004
074130343400
  0
VERTEX
  5
2A92
  8
LOTS
 10
545823.3383180431555957
 20
825060.9127235502237454
 30
7.5
  0
VERTEX
  5
2A93
  8
LOTS
 10
545750.1005338857648894
 20
825060.9127235502237454
 30
7.5
  0
VERTEX
  5
2A94
  8
LOTS
 10
545833.9887788946507499
 20
825120.0108664288418368
 30
7.5
  0
VERTEX
  5
2A95
  8
LOTS
 10
545908.4126090401550755
 20
825100.3911715988069773
 30
7.5
  0
VERTEX
  5
2A96
  8
LOTS
 10
545885.6841354203643277
 20
825066.3275597908068448
 30
7.5
  0
SEQEND
  5
2A97
  8
LOTS
  0
POLYLINE
  5
D4
  8
LOTS
 66
     1
 10
0.0
 20
0.0
 30
7.5
 70
     1
1001
DCO15
1071
        1
1071
        1
1000
tonolinks
1004
074130333900
  0
VERTEX
  5
2A98
  8
LOTS
 10
545787.8441592146409675
 20
825145.5654853613814339
 30
7.5
  0
VERTEX
  5
2A99
  8
LOTS
 10
545833.8664137769956142
 20
825185.9273472183849663
 30
7.5
  0
VERTEX
  5
2A9A
  8
LOTS
 10
545849.2071652981685475
 20
825208.6881266459822655
 30
7.5
  0
VERTEX
  5
2A9B
  8
LOTS
 10
545912.8541542337043211
 20
825163.1841776774963364
 30
7.5
  0
VERTEX
  5
2A9C
  8
LOTS
 10
545912.8541542337043211
 20
825163.1841776774963364
 30
7.5
  0
VERTEX
  5
2A9D
  8
LOTS
 10
545834.0948120639659464
 20
825120.3129068692214787
 30
7.5
  0
SEQEND
  5
2A9E
  8
LOTS
  0
POLYLINE
  5
D5
  8
LOTS
 66
     1
 10
0.0
 20
0.0
 30
7.5
 70
     1
1001
DCO15
1071
        1
1071
        1
1000
tonolinks
1004
074130373300
  0
VERTEX
  5
2A9F
  8
LOTS
 10
545761.4451240296475589
 20
825217.6075346012366936
 30
7.5
  0
VERTEX
  5
2AA0
  8
LOTS
 10
545833.6760818711481988
 20
825186.2355202462058514
 30
7.5
  0
VERTEX
  5
2AA1
  8
LOTS
 10
545849.1119993447791785
 20
825208.8730304640484974
 30
7.5
  0
VERTEX
  5
2AA2
  8
LOTS
 10
545852.4808740585576743
 20
825258.8675007136771455
 30
7.5
  0
VERTEX
  5
2AA3
  8
LOTS
 10
545806.2302212129579857
 20
825274.9013031666399911
 30
7.5
  0
SEQEND
  5
2AA4
  8
LOTS
  0
POLYLINE
  5
D6
  8
LOTS
 66
     1
 10
0.0
 20
0.0
 30
7.5
 70
     1
1001
DCO15
1071
        1
1071
        1
1000
tonolinks
1004
074130373600
  0
VERTEX
  5
2AA5
  8
LOTS
 10
545670.5235731460852548
 20
825254.3417596588842571
 30
7.5
  0
VERTEX
  5
2AA6
  8
LOTS
 10
545761.1215597934788093
 20
825217.8452680800110102
 30
7.5
  0
VERTEX
  5
2AA7
  8
LOTS
 10
545806.1160220677265897
 20
825274.962937772157602
 30
7.5
  0
VERTEX
  5
2AA8
  8
LOTS
 10
545772.8650383142521605
 20
825282.2182113686576486
 30
7.5
  0
VERTEX
  5
2AA9
  8
LOTS
 10
545772.8650383142521605
 20
825282.2182113686576486
 30
7.5
  0
VERTEX
  5
2AAA
  8
LOTS
 10
545718.3920471828896552
 20
825278.7578685000771657
 30
7.5
  0
VERTEX
  5
2AAB
  8
LOTS
 10
545670.5235731460852548
 20
825254.3417596588842571
 30
7.5
  0
SEQEND
  5
2AAC
  8
LOTS
  0
POLYLINE
  5
D7
  8
LOTS
 66
     1
 10
0.0
 20
0.0
 30
7.5
 70
     1
1001
DCO15
1071
        1
1071
        1
1000
tonolinks
1004
074139313900
  0
VERTEX
  5
2AAD
  8
LOTS
 10
543856.5024298187345266
 20
825819.1379385975887999
 30
7.5
  0
VERTEX
  5
2AAE
  8
LOTS
 10
543837.3032537850085646
 20
825869.5383861396694556
 30
7.5
  0
VERTEX
  5
2AAF
  8
LOTS
 10
543793.2687625592807308
 20
825862.0658077029511333
 30
7.5
  0
VERTEX
  5
2AB0
  8
LOTS
 10
543777.2311550059821457
 20
825844.6302055970299989
 30
7.5
  0
VERTEX
  5
2AB1
  8
LOTS
 10
543779.7631669724360108
 20
825816.7891653984552249
 30
7.5
  0
VERTEX
  5
2AB2
  8
LOTS
 10
543834.6287874256959185
 20
825797.6659262529574335
 30
7.5
  0
VERTEX
  5
2AB3
  8
LOTS
 10
543856.5024298187345266
 20
825819.1379385975887999
 30
7.5
  0
SEQEND
  5
2AB4
  8
LOTS
  0
POLYLINE
  5
D8
  8
LOTS
 66
     1
 10
0.0
 20
0.0
 30
7.5
 70
     1
1001
DCO15
1071
        1
1071
        1
1000
tonolinks
1004
074138393100
  0
VERTEX
  5
2AB5
  8
LOTS
 10
551541.015139241470024
 20
825020.0231084470869973
 30
7.5
  0
VERTEX
  5
2AB6
  8
LOTS
 10
551542.4623702481621876
 20
825068.4894406921230257
 30
7.5
  0
VERTEX
  5
2AB7
  8
LOTS
 10
551524.4204642089316621
 20
825093.528824959998019
 30
7.5
  0
VERTEX
  5
2AB8
  8
LOTS
 10
551487.7921525090932846
 20
825079.0456985643832013
 30
7.5
  0
VERTEX
  5
2AB9
  8
LOTS
 10
551471.2892506314674392
 20
825056.114031640579924
 30
7.5
  0
VERTEX
  5
2ABA
  8
LOTS
 10
551474.5093491146108136
 20
825003.0091721932403743
 30
7.5
  0
SEQEND
  5
2ABB
  8
LOTS
  0
POLYLINE
  5
D9
  8
LOTS
 66
     1
 10
0.0
 20
0.0
 30
7.5
 70
     1
1001
DCO15
1071
        1
1071
        1
1000
tonolinks
1004
074138393000
  0
VERTEX
  5
2ABC
  8
LOTS
 10
551613.5864386955508962
 20
825086.0240743809845299
 30
7.5
  0
VERTEX
  5
2ABD
  8
LOTS
 10
551614.1047987907659262
 20
825045.0943759862566367
 30
7.5
  0
VERTEX
  5
2ABE
  8
LOTS
 10
551541.6114115810487419
 20
825019.8667375440709293
 30
7.5
  0
VERTEX
  5
2ABF
  8
LOTS
 10
551542.571928407298401
 20
825068.4087549607502297
 30
7.5
  0
VERTEX
  5
2AC0
  8
LOTS
 10
551575.2282346721040085
 20
825097.4221934893867001
 30
7.5
  0
SEQEND
  5
2AC1
  8
LOTS
  0
POLYLINE
  5
DA
  8
LOTS
 66
     1
 10
0.0
 20
0.0
 30
7.5
 70
     1
1001
DCO15
1071
        1
1071
        1
1000
tonolinks
1004
074232303100
  0
VERTEX
  5
2AC2
  8
LOTS
 10
551324.7168892620829865
 20
821944.9442270272411406
 30
7.5
  0
VERTEX
  5
2AC3
  8
LOTS
 10
551318.8004954884527251
 20
822014.9134195017395541
 30
7.5
  0
VERTEX
  5
2AC4
  8
LOTS
 10
551299.163508725585416
 20
822042.4719205885194242
 30
7.5
  0
VERTEX
  5
2AC5
  8
LOTS
 10
551337.7222845614887774
 20
822064.1019003227120265
 30
7.5
  0
VERTEX
  5
2AC6
  8
LOTS
 10
551367.5703322871122509
 20
822026.5235172462416813
 30
7.5
  0
VERTEX
  5
2AC7
  8
LOTS
 10
551383.4791770392330363
 20
821967.3720781072042882
 30
7.5
  0
SEQEND
  5
2AC8
  8
LOTS
  0
POLYLINE
  5
DB
  8
LOTS
 66
     1
 10
0.0
 20
0.0
 30
7.5
 70
     1
1001
DCO15
1071
        1
1071
        1
1000
tonolinks
1004
074231383600
  0
VERTEX
  5
2AC9
  8
LOTS
 10
554070.9239513647044078
 20
819864.4479823292931542
 30
7.5
  0
VERTEX
  5
2ACA
  8
LOTS
 10
554010.3777708801208064
 20
819917.5171023663133383
 30
7.5
  0
VERTEX
  5
2ACB
  8
LOTS
 10
554060.3067360583227128
 20
819948.6156573476037011
 30
7.5
  0
VERTEX
  5
2ACC
  8
LOTS
 10
554110.0253882524557412
 20
819880.3768520598532632
 30
7.5
  0
SEQEND
  5
2ACD
  8
LOTS
  0
POLYLINE
  5
DC
  8
LOTS
 66
     1
 10
0.0
 20
0.0
 30
7.5
 70
     1
1001
DCO15
1071
        1
1071
        1
1000
tonolinks
1004
074138353600
  0
VERTEX
  5
2ACE
  8
LOTS
 10
553245.1202162264380604
 20
819552.3360729770502076
 30
7.5
  0
VERTEX
  5
2ACF
  8
LOTS
 10
553173.6745619073044509
 20
819574.5689112674444914
 30
7.5
  0
VERTEX
  5
2AD0
  8
LOTS
 10
553180.2189827383263037
 20
819643.0497488544788212
 30
7.5
  0
VERTEX
  5
2AD1
  8
LOTS
 10
553236.0523848185548559
 20
819633.7029551578452811
 30
7.5
  0
SEQEND
  5
2AD2
  8
LOTS
  0
POLYLINE
  5
DD
  8
LOTS
 66
     1
 10
0.0
 20
0.0
 30
7.5
 70
     1
1001
DCO15
1071
        1
1071
        1
1000
tonolinks
1004
074138353700
  0
VERTEX
  5
2AD3
  8
LOTS
 10
553222.4281633554492146
 20
819475.3073984914226457
 30
7.5
  0
VERTEX
  5
2AD4
  8
LOTS
 10
553245.054415742517449
 20
819552.1801953630056232
 30
7.5
  0
VERTEX
  5
2AD5
  8
LOTS
 10
553173.5749290657695383
 20
819574.4748021184932441
 30
7.5
  0
VERTEX
  5
2AD6
  8
LOTS
 10
553152.1506229754304513
 20
819535.6986211071489379
 30
7.5
  0
VERTEX
  5
2AD7
  8
LOTS
 10
553173.5749290657695383
 20
819491.1349515075562522
 30
7.5
  0
SEQEND
  5
2AD8
  8
LOTS
  0
POLYLINE
  5
DE
  8
LOTS
 66
     1
 10
0.0
 20
0.0
 30
7.5
 70
     1
1001
DCO15
1071
        1
1071
        1
1000
tonolinks
1004
074231373200
  0
VERTEX
  5
2AD9
  8
LOTS
 10
554025.884659489733167
 20
820800.3961076653795317
 30
7.5
  0
VERTEX
  5
2ADA
  8
LOTS
 10
554012.0688364080851898
 20
820851.9680333016440272
 30
7.5
  0
VERTEX
  5
2ADB
  8
LOTS
 10
554050.173944880021736
 20
820889.1947370521957055
 30
7.5
  0
VERTEX
  5
2ADC
  8
LOTS
 10
554083.1796194296330214
 20
820888.8072090216446668
 30
7.5
  0
VERTEX
  5
2ADD
  8
LOTS
 10
554100.4806586903287098
 20
820844.423280426999554
 30
7.5
  0
VERTEX
  5
2ADE
  8
LOTS
 10
554072.2222853588173166
 20
820805.2270813209470361
 30
7.5
  0
SEQEND
  5
2ADF
  8
LOTS
  0
POLYLINE
  5
DF
  8
LOTS
 66
     1
 10
0.0
 20
0.0
 30
7.5
 70
     1
1001
DCO15
1071
        1
1071
        1
1000
tonolinks
1004
074138343500
  0
VERTEX
  5
2AE0
  8
LOTS
 10
553842.8215686342446133
 20
820731.7506537577137351
 30
7.5
  0
VERTEX
  5
2AE1
  8
LOTS
 10
553888.3350658837007359
 20
820729.1488718943437561
 30
7.5
  0
VERTEX
  5
2AE2
  8
LOTS
 10
553915.8409799584187567
 20
820782.4307831733021885
 30
7.5
  0
VERTEX
  5
2AE3
  8
LOTS
 10
553865.9637299558380619
 20
820824.2141622866038233
 30
7.5
  0
VERTEX
  5
2AE4
  8
LOTS
 10
553831.0950662641553208
 20
820788.6051649294095114
 30
7.5
  0
SEQEND
  5
2AE5
  8
LOTS
  0
POLYLINE
  5
E0
  8
LOTS
 66
     1
 10
0.0
 20
0.0
 30
7.5
 70
     1
1001
DCO15
1071
        1
1071
        1
1000
tonolinks
1004
074231353400
  0
VERTEX
  5
2AE6
  8
LOTS
 10
554719.4055325015215203
 20
820442.5769531740806997
 30
7.5
  0
VERTEX
  5
2AE7
  8
LOTS
 10
554665.614776287926361
 20
820385.5211903343442827
 30
7.5
  0
VERTEX
  5
2AE8
  8
LOTS
 10
554706.2323170820018277
 20
820353.1530207752948627
 30
7.5
  0
VERTEX
  5
2AE9
  8
LOTS
 10
554786.9184168792562559
 20
820425.0213395841419697
 30
7.5
  0
SEQEND
  5
2AEA
  8
LOTS
  0
ENDSEC
  0
EOF
